  0
SECTION
  2
HEADER
  9
$ACADVER
  1
AC1009
  9
$INSBASE
 10
0
 20
0
 30
0
  9
$EXTMIN
 10
0
 20
0
  9
$EXTMAX
 10
1189
 20
841
  9
$LIMMIN
 10
0
 20
0
  9
$LIMMAX
 10
1189
 20
841
  9
$LTSCALE
 40
1
  0
ENDSEC
  0
SECTION
  2
TABLES
  0
TABLE
  2
LTYPE
 70
     9
  0
LTYPE
  2
CONTINUOUS
 70
    64
  3
実線
 72
    65
 73
     0
 40
0.0
  0
LTYPE
  2
DASHED1
 70
    64
  3
--  --  --  --  --  --  --  --  
 72
    65
 73
     2
 40
2.5
 49
1.25
 49
-1.25
  0
LTYPE
  2
DASHED2
 70
    64
  3
----    ----    ----    ----    
 72
    65
 73
     2
 40
5.0
 49
2.5
 49
-2.5
  0
LTYPE
  2
DASHED3
 70
    64
  3
------  ------  ------  ------  
 72
    65
 73
     2
 40
5.0
 49
3.75
 49
-1.25
  0
LTYPE
  2
CENTER1
 70
    64
  3
----- - ----- - ----- - ----- - 
 72
    65
 73
     4
 40
10.0
 49
6.25
 49
-1.25
 49
1.25
 49
-1.25
  0
LTYPE
  2
CENTER2
 70
    64
  3
----------  --  ----------  --  
 72
    65
 73
     4
 40
20.0
 49
12.5
 49
-2.5
 49
2.5
 49
-2.5
  0
LTYPE
  2
PHANTOM1
 70
    64
  3
--- - - --- - - --- - - --- - - 
 72
    65
 73
     6
 40
10.0
 49
3.25
 49
-1.25
 49
1.25
 49
-1.25
 49
1.25
 49
-1.25
  0
LTYPE
  2
PHANTOM2
 70
    64
  3
--------  -  -  --------  -  -  
 72
    65
 73
     6
 40
20.0
 49
10.0
 49
-2.5
 49
1.25
 49
-2.5
 49
1.25
 49
-2.5
  0
LTYPE
  2
DOT
 70
    64
  3
-   -   -   -   -   -   -   -   
 72
    65
 73
     2
 40
2.5
 49
0.625
 49
-1.875
  0
LTYPE
  2
DUMMY
 70
    64
  3
ダミー
 72
    65
 73
     0
 40
0.0
  0
LTYPE
  2
RAND1
 70
    64
  3
ランダム線1
 72
    65
 73
     4
 40
10.0
 49
1.0
 49
-2.0
 49
3.0
 49
-4.0
  0
LTYPE
  2
RAND2
 70
    64
  3
ランダム線2
 72
    65
 73
     4
 40
14.0
 49
2.0
 49
-3.0
 49
4.0
 49
-5.0
  0
LTYPE
  2
RAND3
 70
    64
  3
ランダム線3
 72
    65
 73
     4
 40
18.0
 49
3.0
 49
-4.0
 49
5.0
 49
-6.0
  0
LTYPE
  2
RAND4
 70
    64
  3
ランダム線4
 72
    65
 73
     4
 40
22.0
 49
4.0
 49
-5.0
 49
6.0
 49
-7.0
  0
LTYPE
  2
RAND5
 70
    64
  3
ランダム線5
 72
    65
 73
     4
 40
26.0
 49
5.0
 49
-6.0
 49
7.0
 49
-8.0
  0
LTYPE
  2
LONG1
 70
    64
  3
----------  --  ----------  --  
 72
    65
 73
     4
 40
40.0
 49
32.5
 49
-2.5
 49
2.5
 49
-2.5
  0
LTYPE
  2
LONG2
 70
    64
  3
--------  -  -  --------  -  -  
 72
    65
 73
     6
 40
40.0
 49
30.0
 49
-2.5
 49
1.25
 49
-2.5
 49
1.25
 49
-2.5
  0
LTYPE
  2
LONG3
 70
    64
  3
+++++++++++++++..+++++++++++++++
 72
    65
 73
     2
 40
40.0
 49
37.5
 49
-2.5
  0
LTYPE
  2
LONG4
 70
    64
  3
+++++++++++++++..+++++++++++++++
 72
    65
 73
     2
 40
80.0
 49
75.0
 49
-5.0
  0
LTYPE
  2
LONG5
 70
    64
  3
----------  --  ----------  --  
 72
    65
 73
     4
 40
60.0
 49
37.5
 49
-7.5
 49
7.5
 49
-7.5
  0
LTYPE
  2
dashed
 70
   64
  3
-------   -------------   ------
 72
   65
 73
    2
 40
7.5
 49
6
 49
-1.5
  0
LTYPE
  2
dashed_spaced
 70
   64
  3
----        --------        ----
 72
   65
 73
    2
 40
12
 49
6
 49
-6
  0
LTYPE
  2
long_dashed_dotted
 70
   64
  3
------------- --- --------------
 72
   65
 73
    4
 40
15.25
 49
12
 49
-1.5
 49
0.25
 49
-1.5
  0
LTYPE
  2
long_dashed_double-dotted
 70
   64
  3
----------- --- --- ------------
 72
   65
 73
    6
 40
17
 49
12
 49
-1.5
 49
0.25
 49
-1.5
 49
0.25
 49
-1.5
  0
LTYPE
  2
long_dashed_triplicate-dotted
 70
   64
  3
--------- --- --- --- ----------
 72
   65
 73
    8
 40
18.75
 49
12
 49
-1.5
 49
0.25
 49
-1.5
 49
0.25
 49
-1.5
 49
0.25
 49
-1.5
  0
LTYPE
  2
dotted
 70
   64
  3
   -       -       -       -    
 72
   65
 73
    2
 40
1.75
 49
0.25
 49
-1.5
  0
LTYPE
  2
chain
 70
   64
  3
-------------- -- --------------
 72
   65
 73
    4
 40
18.5
 49
12
 49
-1.5
 49
3.5
 49
-1.5
  0
LTYPE
  2
chain_double_dash
 70
   64
  3
------------ -- -- -------------
 72
   65
 73
    6
 40
23.5
 49
12
 49
-1.5
 49
3.5
 49
-1.5
 49
3.5
 49
-1.5
  0
LTYPE
  2
dashed_dotted
 70
   64
  3
-----------     -     ----------
 72
   65
 73
    4
 40
9.25
 49
6
 49
-1.5
 49
0.25
 49
-1.5
  0
LTYPE
  2
double-dashed_dotted
 70
   64
  3
------   -----------   -   -----
 72
   65
 73
    6
 40
16.75
 49
6
 49
-1.5
 49
6
 49
-1.5
 49
0.25
 49
-1.5
  0
LTYPE
  2
dashed_double-dotted
 70
   64
  3
---------    -    -    ---------
 72
   65
 73
    6
 40
11
 49
6
 49
-1.5
 49
0.25
 49
-1.5
 49
0.25
 49
-1.5
  0
LTYPE
  2
double-dashed_double-dotted
 70
   64
  3
-----   ---------   -   -   ----
 72
   65
 73
    8
 40
18.5
 49
6
 49
-1.5
 49
6
 49
-1.5
 49
0.25
 49
-1.5
 49
0.25
 49
-1.5
  0
LTYPE
  2
dashed_triplicate-dotted
 70
   64
  3
-------    -    -    -    ------
 72
   65
 73
    8
 40
12.75
 49
6
 49
-1.5
 49
0.25
 49
-1.5
 49
0.25
 49
-1.5
 49
0.25
 49
-1.5
  0
LTYPE
  2
double-dashed_triplicate-dotted
 70
   64
  3
-----  ---------  -  -  -  -----
 72
   65
 73
   10
 40
20.25
 49
6
 49
-1.5
 49
6
 49
-1.5
 49
0.25
 49
-1.5
 49
0.25
 49
-1.5
 49
0.25
 49
-1.5
  0
LTYPE
  2
undefined
 70
   64
  3
--------------------------------
 72
   65
 73
    0
 40
0
  0
ENDTAB
  0
TABLE
  2
STYLE
  5
3
100
AcDbSymbolTable
 70
     1
  0
STYLE
  5
10
100
AcDbSymbolTableRecord
100
AcDbTextStyleTableRecord
  2
STANDARD
 70
     0
 40
0.0
 41
1.0
 50
0.0
 71
     0
 42
0.2
  3
txt
  4
bigfont.shx
  0
STYLE
  5
26
100
AcDbSymbolTableRecord
100
AcDbTextStyleTableRecord
  2
TATEGAKI
 70
    68
 40
0.0
 41
1.0
 50
0.0
 71
     0
 42
1.0
  3
txt
  4
bigfont.shx
  0
ENDTAB
  0
TABLE
  2
LAYER
 70
    4
  0
LAYER
  2
_0-0_
 70
   64
 62
    7
  6
CONTINUOUS
  0
LAYER
  2
_0-1_
 70
   64
 62
    7
  6
CONTINUOUS
  0
LAYER
  2
_0-f_
 70
   64
 62
    7
  6
CONTINUOUS
  0
LAYER
  2
ADD_LINE
 70
   64
 62
    7
  6
CONTINUOUS
  0
ENDTAB
  0
ENDSEC
  0
SECTION
  2
BLOCKS
  0
ENDSEC
  0
SECTION
  2
ENTITIES
  0
TEXT
  8
_0-f_
 62
    7
 10
0
 20
0
 40
4.2999999999999998
 41
0.744186046511628
 50
0
  1
AJSS
  0
LINE
  8
_0-0_
  6
CONTINUOUS
 62
    7
 10
16.794815783026024
 20
76.19241805886827
 11
26.794815783026024
 21
76.19241805886827
  0
LINE
  8
_0-0_
  6
CONTINUOUS
 62
    7
 10
26.794815783026024
 20
76.19241805886827
 11
26.794815783026024
 21
97.123254058868724
  0
LINE
  8
_0-0_
  6
CONTINUOUS
 62
    7
 10
16.794815783026024
 20
97.123254058868724
 11
16.794815783026024
 21
76.19241805886827
  0
LINE
  8
_0-0_
  6
CONTINUOUS
 62
    7
 10
16.794815783026024
 20
76.19241805886827
 11
15.07005078302609
 21
74.467653058868336
  0
LINE
  8
_0-0_
  6
CONTINUOUS
 62
    7
 10
13.783556783026143
 20
74.467653058868336
 11
29.806073783026477
 21
74.467653058868336
  0
LINE
  8
_0-0_
  6
CONTINUOUS
 62
    7
 10
29.806073783026477
 20
74.467653058868336
 11
29.806073783026477
 21
73.723254058868179
  0
LINE
  8
_0-0_
  6
CONTINUOUS
 62
    7
 10
28.519579783026529
 20
74.467653058868336
 11
26.794815783026024
 21
76.19241805886827
  0
LINE
  8
_0-0_
  6
CONTINUOUS
 62
    7
 10
18.394815783026388
 20
98.723254058868179
 11
25.19481578302657
 21
98.723254058868179
  0
LINE
  8
_0-0_
  6
CONTINUOUS
 62
    7
 10
25.19481578302657
 20
98.723254058868179
 11
26.794815783026024
 21
97.123254058868724
  0
LINE
  8
_0-0_
  6
CONTINUOUS
 62
    7
 10
35.294815783026024
 20
63.723254058868179
 11
35.294815783026024
 21
65.29047805886853
  0
LINE
  8
_0-0_
  6
CONTINUOUS
 62
    7
 10
8.2948157830260243
 20
63.723254058868179
 11
8.2948157830260243
 21
65.29047805886853
  0
LINE
  8
_0-0_
  6
CONTINUOUS
 62
    7
 10
8.2948157830260243
 20
63.723254058868179
 11
9.2948157830260243
 21
62.723254058868179
  0
LINE
  8
_0-0_
  6
CONTINUOUS
 62
    7
 10
9.2948157830260243
 20
62.723254058868179
 11
34.294815783026024
 21
62.723254058868179
  0
LINE
  8
_0-0_
  6
CONTINUOUS
 62
    7
 10
34.294815783026024
 20
62.723254058868179
 11
35.294815783026024
 21
63.723254058868179
  0
LINE
  8
_0-0_
  6
CONTINUOUS
 62
    7
 10
13.783556783026143
 20
73.723254058868179
 11
13.783556783026143
 21
74.467653058868336
  0
LINE
  8
_0-0_
  6
CONTINUOUS
 62
    7
 10
16.794815783026024
 20
97.123254058868724
 11
18.394815783026388
 21
98.723254058868179
  0
LINE
  8
_0-0_
  6
CONTINUOUS
 62
    7
 10
8.3948157830263881
 20
73.723254058868179
 11
35.19481578302657
 21
73.723254058868179
  0
ARC
  8
_0-0_
  6
CONTINUOUS
 62
    7
 10
35.194817725421672
 20
71.123256001263826
 40
2.5999980576051422
 50
359.99995719571331
 51
90.000042804289222
  0
LINE
  8
_0-0_
  6
CONTINUOUS
 62
    7
 10
37.794815783026024
 20
71.12325405886827
 11
37.794815783026024
 21
65.29047805886853
  0
LINE
  8
_0-0_
  6
CONTINUOUS
 62
    7
 10
5.7948157830260243
 20
65.29047805886853
 11
5.7948157830260243
 21
71.12325405886827
  0
ARC
  8
_0-0_
  6
CONTINUOUS
 62
    7
 10
8.3948138406308317
 20
71.123256001263826
 40
2.599998057605156
 50
89.999957195710465
 51
180.00004280428635
  0
LINE
  8
_0-0_
  6
CONTINUOUS
 62
    7
 10
37.794815783026024
 20
65.29047805886853
 11
5.7948157830260243
 21
65.29047805886853
  0
CIRCLE
  8
_0-0_
  6
CONTINUOUS
 62
    7
 10
21.794815783026024
 20
22.338521648650158
 40
13.5
  0
CIRCLE
  8
_0-0_
  6
CONTINUOUS
 62
    7
 10
21.794815783026024
 20
22.338521648650158
 40
6
  0
CIRCLE
  8
_0-0_
  6
CONTINUOUS
 62
    7
 10
21.794815783026024
 20
22.338521648650158
 40
2.6000000000000232
  0
CIRCLE
  8
_0-0_
  6
CONTINUOUS
 62
    7
 10
21.794815783026024
 20
22.338521648650158
 40
10
  0
CIRCLE
  8
_0-0_
  6
CONTINUOUS
 62
    7
 10
21.794815783026024
 20
22.338521648650158
 40
16
  0
LINE
  8
_0-1_
  6
CENTER1
 62
  152
 10
21.794815783026024
 20
100.63367805886787
 11
21.794815783026024
 21
58.205301058868599
  0
LINE
  8
_0-1_
  6
CONTINUOUS
 62
  152
 10
25.19481578302657
 20
98.723254058868179
 11
25.19481578302657
 21
77.723254058868179
  0
LINE
  8
_0-1_
  6
CONTINUOUS
 62
  152
 10
26.794815783026024
 20
97.123254058868724
 11
16.794815783026024
 21
97.123254058868724
  0
LINE
  8
_0-1_
  6
CONTINUOUS
 62
  152
 10
18.394815783026388
 20
77.723254058868179
 11
18.394815783026388
 21
98.723254058868179
  0
LINE
  8
_0-1_
  6
CONTINUOUS
 62
  152
 10
26.794815783026024
 20
77.723254058868179
 11
16.794815783026024
 21
77.723254058868179
  0
LINE
  8
_0-1_
  6
CONTINUOUS
 62
  152
 10
35.294815783026024
 20
63.723254058868179
 11
8.2948157830260243
 21
63.723254058868179
  0
CIRCLE
  8
_0-1_
  6
CONTINUOUS
 62
  152
 10
21.794815783026024
 20
22.338521648650158
 40
15
  0
CIRCLE
  8
_0-1_
  6
CONTINUOUS
 62
  152
 10
21.794815783026024
 20
22.338521648650158
 40
9
  0
LINE
  8
_0-1_
  6
CENTER1
 62
  152
 10
1.267083017603909
 20
22.338521648650158
 11
43.018042231788058
 21
22.338521648650158
  0
LINE
  8
_0-1_
  6
CENTER1
 62
  152
 10
21.794815783026024
 20
44.50512315058063
 11
21.794815783026024
 21
2.0734417752958052
  0
ENDSEC
  0
EOF
