  0
SECTION
  2
HEADER
  9
$ACADVER
  1
AC1009
  9
$INSBASE
 10
0
 20
0
 30
0
  9
$EXTMIN
 10
0
 20
0
  9
$EXTMAX
 10
1189
 20
841
  9
$LIMMIN
 10
0
 20
0
  9
$LIMMAX
 10
1189
 20
841
  9
$LTSCALE
 40
1
  0
ENDSEC
  0
SECTION
  2
TABLES
  0
TABLE
  2
LTYPE
 70
     9
  0
LTYPE
  2
CONTINUOUS
 70
    64
  3
実線
 72
    65
 73
     0
 40
0.0
  0
LTYPE
  2
DASHED1
 70
    64
  3
--  --  --  --  --  --  --  --  
 72
    65
 73
     2
 40
2.5
 49
1.25
 49
-1.25
  0
LTYPE
  2
DASHED2
 70
    64
  3
----    ----    ----    ----    
 72
    65
 73
     2
 40
5.0
 49
2.5
 49
-2.5
  0
LTYPE
  2
DASHED3
 70
    64
  3
------  ------  ------  ------  
 72
    65
 73
     2
 40
5.0
 49
3.75
 49
-1.25
  0
LTYPE
  2
CENTER1
 70
    64
  3
----- - ----- - ----- - ----- - 
 72
    65
 73
     4
 40
10.0
 49
6.25
 49
-1.25
 49
1.25
 49
-1.25
  0
LTYPE
  2
CENTER2
 70
    64
  3
----------  --  ----------  --  
 72
    65
 73
     4
 40
20.0
 49
12.5
 49
-2.5
 49
2.5
 49
-2.5
  0
LTYPE
  2
PHANTOM1
 70
    64
  3
--- - - --- - - --- - - --- - - 
 72
    65
 73
     6
 40
10.0
 49
3.25
 49
-1.25
 49
1.25
 49
-1.25
 49
1.25
 49
-1.25
  0
LTYPE
  2
PHANTOM2
 70
    64
  3
--------  -  -  --------  -  -  
 72
    65
 73
     6
 40
20.0
 49
10.0
 49
-2.5
 49
1.25
 49
-2.5
 49
1.25
 49
-2.5
  0
LTYPE
  2
DOT
 70
    64
  3
-   -   -   -   -   -   -   -   
 72
    65
 73
     2
 40
2.5
 49
0.625
 49
-1.875
  0
LTYPE
  2
DUMMY
 70
    64
  3
ダミー
 72
    65
 73
     0
 40
0.0
  0
LTYPE
  2
RAND1
 70
    64
  3
ランダム線1
 72
    65
 73
     4
 40
10.0
 49
1.0
 49
-2.0
 49
3.0
 49
-4.0
  0
LTYPE
  2
RAND2
 70
    64
  3
ランダム線2
 72
    65
 73
     4
 40
14.0
 49
2.0
 49
-3.0
 49
4.0
 49
-5.0
  0
LTYPE
  2
RAND3
 70
    64
  3
ランダム線3
 72
    65
 73
     4
 40
18.0
 49
3.0
 49
-4.0
 49
5.0
 49
-6.0
  0
LTYPE
  2
RAND4
 70
    64
  3
ランダム線4
 72
    65
 73
     4
 40
22.0
 49
4.0
 49
-5.0
 49
6.0
 49
-7.0
  0
LTYPE
  2
RAND5
 70
    64
  3
ランダム線5
 72
    65
 73
     4
 40
26.0
 49
5.0
 49
-6.0
 49
7.0
 49
-8.0
  0
LTYPE
  2
LONG1
 70
    64
  3
----------  --  ----------  --  
 72
    65
 73
     4
 40
40.0
 49
32.5
 49
-2.5
 49
2.5
 49
-2.5
  0
LTYPE
  2
LONG2
 70
    64
  3
--------  -  -  --------  -  -  
 72
    65
 73
     6
 40
40.0
 49
30.0
 49
-2.5
 49
1.25
 49
-2.5
 49
1.25
 49
-2.5
  0
LTYPE
  2
LONG3
 70
    64
  3
+++++++++++++++..+++++++++++++++
 72
    65
 73
     2
 40
40.0
 49
37.5
 49
-2.5
  0
LTYPE
  2
LONG4
 70
    64
  3
+++++++++++++++..+++++++++++++++
 72
    65
 73
     2
 40
80.0
 49
75.0
 49
-5.0
  0
LTYPE
  2
LONG5
 70
    64
  3
----------  --  ----------  --  
 72
    65
 73
     4
 40
60.0
 49
37.5
 49
-7.5
 49
7.5
 49
-7.5
  0
LTYPE
  2
dashed
 70
   64
  3
-------   -------------   ------
 72
   65
 73
    2
 40
7.5
 49
6
 49
-1.5
  0
LTYPE
  2
dashed_spaced
 70
   64
  3
----        --------        ----
 72
   65
 73
    2
 40
12
 49
6
 49
-6
  0
LTYPE
  2
long_dashed_dotted
 70
   64
  3
------------- --- --------------
 72
   65
 73
    4
 40
15.25
 49
12
 49
-1.5
 49
0.25
 49
-1.5
  0
LTYPE
  2
long_dashed_double-dotted
 70
   64
  3
----------- --- --- ------------
 72
   65
 73
    6
 40
17
 49
12
 49
-1.5
 49
0.25
 49
-1.5
 49
0.25
 49
-1.5
  0
LTYPE
  2
long_dashed_triplicate-dotted
 70
   64
  3
--------- --- --- --- ----------
 72
   65
 73
    8
 40
18.75
 49
12
 49
-1.5
 49
0.25
 49
-1.5
 49
0.25
 49
-1.5
 49
0.25
 49
-1.5
  0
LTYPE
  2
dotted
 70
   64
  3
   -       -       -       -    
 72
   65
 73
    2
 40
1.75
 49
0.25
 49
-1.5
  0
LTYPE
  2
chain
 70
   64
  3
-------------- -- --------------
 72
   65
 73
    4
 40
18.5
 49
12
 49
-1.5
 49
3.5
 49
-1.5
  0
LTYPE
  2
chain_double_dash
 70
   64
  3
------------ -- -- -------------
 72
   65
 73
    6
 40
23.5
 49
12
 49
-1.5
 49
3.5
 49
-1.5
 49
3.5
 49
-1.5
  0
LTYPE
  2
dashed_dotted
 70
   64
  3
-----------     -     ----------
 72
   65
 73
    4
 40
9.25
 49
6
 49
-1.5
 49
0.25
 49
-1.5
  0
LTYPE
  2
double-dashed_dotted
 70
   64
  3
------   -----------   -   -----
 72
   65
 73
    6
 40
16.75
 49
6
 49
-1.5
 49
6
 49
-1.5
 49
0.25
 49
-1.5
  0
LTYPE
  2
dashed_double-dotted
 70
   64
  3
---------    -    -    ---------
 72
   65
 73
    6
 40
11
 49
6
 49
-1.5
 49
0.25
 49
-1.5
 49
0.25
 49
-1.5
  0
LTYPE
  2
double-dashed_double-dotted
 70
   64
  3
-----   ---------   -   -   ----
 72
   65
 73
    8
 40
18.5
 49
6
 49
-1.5
 49
6
 49
-1.5
 49
0.25
 49
-1.5
 49
0.25
 49
-1.5
  0
LTYPE
  2
dashed_triplicate-dotted
 70
   64
  3
-------    -    -    -    ------
 72
   65
 73
    8
 40
12.75
 49
6
 49
-1.5
 49
0.25
 49
-1.5
 49
0.25
 49
-1.5
 49
0.25
 49
-1.5
  0
LTYPE
  2
double-dashed_triplicate-dotted
 70
   64
  3
-----  ---------  -  -  -  -----
 72
   65
 73
   10
 40
20.25
 49
6
 49
-1.5
 49
6
 49
-1.5
 49
0.25
 49
-1.5
 49
0.25
 49
-1.5
 49
0.25
 49
-1.5
  0
LTYPE
  2
undefined
 70
   64
  3
--------------------------------
 72
   65
 73
    0
 40
0
  0
ENDTAB
  0
TABLE
  2
STYLE
  5
3
100
AcDbSymbolTable
 70
     1
  0
STYLE
  5
10
100
AcDbSymbolTableRecord
100
AcDbTextStyleTableRecord
  2
STANDARD
 70
     0
 40
0.0
 41
1.0
 50
0.0
 71
     0
 42
0.2
  3
txt
  4
bigfont.shx
  0
STYLE
  5
26
100
AcDbSymbolTableRecord
100
AcDbTextStyleTableRecord
  2
TATEGAKI
 70
    68
 40
0.0
 41
1.0
 50
0.0
 71
     0
 42
1.0
  3
txt
  4
bigfont.shx
  0
ENDTAB
  0
TABLE
  2
LAYER
 70
    4
  0
LAYER
  2
_0-0_
 70
   64
 62
    7
  6
CONTINUOUS
  0
LAYER
  2
_0-1_
 70
   64
 62
    7
  6
CONTINUOUS
  0
LAYER
  2
_0-f_
 70
   64
 62
    7
  6
CONTINUOUS
  0
LAYER
  2
ADD_LINE
 70
   64
 62
    7
  6
CONTINUOUS
  0
ENDTAB
  0
ENDSEC
  0
SECTION
  2
BLOCKS
  0
ENDSEC
  0
SECTION
  2
ENTITIES
  0
TEXT
  8
_0-f_
 62
    7
 10
0.5238177651580144
 20
0.989848253852017
 40
4.2999999999999998
 41
0.744186046511628
 50
0
  1
AJSPB
  0
LINE
  8
_0-0_
  6
CONTINUOUS
 62
    7
 10
35.223181709923779
 20
63.912996954438427
 11
6.2231817099237787
 21
63.912996954438427
  0
LINE
  8
_0-0_
  6
CONTINUOUS
 62
    7
 10
6.2231817099237787
 20
63.912996954438427
 11
5.7231817099237787
 21
63.412996954438427
  0
LINE
  8
_0-0_
  6
CONTINUOUS
 62
    7
 10
5.7231817099237787
 20
59.412996954438427
 11
6.2231817099237787
 21
58.912996954438427
  0
LINE
  8
_0-0_
  6
CONTINUOUS
 62
    7
 10
35.723181709923779
 20
59.412996954438427
 11
5.7231817099237787
 21
59.412996954438427
  0
LINE
  8
_0-0_
  6
CONTINUOUS
 62
    7
 10
5.7231817099237787
 20
63.412996954438427
 11
35.723181709923779
 21
63.412996954438427
  0
LINE
  8
_0-0_
  6
CONTINUOUS
 62
    7
 10
33.223181709923779
 20
57.912996954438427
 11
8.2231817099237787
 21
57.912996954438427
  0
ARC
  8
_0-0_
  6
CONTINUOUS
 62
    7
 10
33.223181709923779
 20
58.912996954438427
 40
1
 50
270
 51
0
  0
ARC
  8
_0-0_
  6
CONTINUOUS
 62
    7
 10
8.2231817099237787
 20
58.912996954438427
 40
1
 50
180
 51
270
  0
LINE
  8
_0-0_
  6
CONTINUOUS
 62
    7
 10
35.723181709923779
 20
59.412996954438427
 11
35.723181709923779
 21
63.412996954438427
  0
LINE
  8
_0-0_
  6
CONTINUOUS
 62
    7
 10
35.723181709923779
 20
63.412996954438427
 11
35.223181709923779
 21
63.912996954438427
  0
LINE
  8
_0-0_
  6
CONTINUOUS
 62
    7
 10
6.2231817099237787
 20
58.912996954438427
 11
35.223181709923779
 21
58.912996954438427
  0
LINE
  8
_0-0_
  6
CONTINUOUS
 62
    7
 10
35.223181709923779
 20
58.912996954438427
 11
35.723181709923779
 21
59.412996954438427
  0
LINE
  8
_0-0_
  6
CONTINUOUS
 62
    7
 10
15.723181709923779
 20
63.912996954438427
 11
15.723181709923779
 21
83.112996954438245
  0
LINE
  8
_0-0_
  6
CONTINUOUS
 62
    7
 10
25.723181709923779
 20
83.112996954438245
 11
25.723181709923779
 21
63.912996954438427
  0
LINE
  8
_0-0_
  6
CONTINUOUS
 62
    7
 10
15.723181709923779
 20
83.112996954438245
 11
16.523181709923961
 21
83.912996954438427
  0
LINE
  8
_0-0_
  6
CONTINUOUS
 62
    7
 10
16.523181709923961
 20
83.912996954438427
 11
24.923181709923597
 21
83.912996954438427
  0
LINE
  8
_0-0_
  6
CONTINUOUS
 62
    7
 10
24.923181709923597
 20
83.912996954438427
 11
25.723181709923779
 21
83.112996954438245
  0
CIRCLE
  8
_0-0_
  6
CONTINUOUS
 62
    7
 10
20.723181709923779
 20
17.528264544220406
 40
15
  0
CIRCLE
  8
_0-0_
  6
CONTINUOUS
 62
    7
 10
20.723181709923779
 20
17.528264544220406
 40
13.5
  0
CIRCLE
  8
_0-0_
  6
CONTINUOUS
 62
    7
 10
20.723181709923779
 20
17.528264544220406
 40
3.5
  0
LINE
  8
_0-1_
  6
CENTER1
 62
  152
 10
38.723181709923779
 20
17.528264544220406
 11
2.7231817099237787
 21
17.528264544220406
  0
LINE
  8
_0-1_
  6
CONTINUOUS
 62
  152
 10
18.813993400720506
 20
15.619076235016223
 11
22.632370019127052
 21
19.437452853423679
  0
LINE
  8
_0-1_
  6
CONTINUOUS
 62
  152
 10
18.813993400720506
 20
19.437452853423679
 11
22.632370019127052
 21
15.619076235016223
  0
LINE
  8
_0-1_
  6
CENTER1
 62
  152
 10
20.723181709923779
 20
2.5282645442199509
 11
20.723181709923779
 21
32.528264544220406
  0
LINE
  8
_0-1_
  6
CENTER1
 62
  152
 10
20.723181709923779
 20
54.799641071328665
 11
20.723181709923779
 21
86.919118078186443
  0
LINE
  8
_0-1_
  6
CONTINUOUS
 62
  152
 10
16.523181709923961
 20
83.912996954438427
 11
16.523181709923961
 21
65.188637600493735
  0
LINE
  8
_0-1_
  6
CONTINUOUS
 62
  152
 10
16.523181709923961
 20
65.188637600493735
 11
15.723181709923779
 21
63.912996954438427
  0
LINE
  8
_0-1_
  6
CONTINUOUS
 62
  152
 10
25.723181709923779
 20
63.912996954438427
 11
24.923181709923597
 21
65.188637600493735
  0
LINE
  8
_0-1_
  6
CONTINUOUS
 62
  152
 10
24.923181709923597
 20
65.188637600493735
 11
24.923181709923597
 21
83.912996954438427
  0
LINE
  8
_0-1_
  6
CONTINUOUS
 62
  152
 10
25.723181709923779
 20
83.112996954438245
 11
15.723181709923779
 21
83.112996954438245
  0
LINE
  8
_0-1_
  6
CONTINUOUS
 62
  152
 10
15.723181709923779
 20
65.188637600493735
 11
25.723181709923779
 21
65.188637600493735
  0
LINE
  8
_0-1_
  6
CONTINUOUS
 62
  152
 10
26.092073388992617
 20
63.412996954438427
 11
26.092073388992617
 21
59.412996954438427
  0
LINE
  8
_0-1_
  6
CONTINUOUS
 62
  152
 10
27.127288589447858
 20
59.412996954438427
 11
27.127288589447858
 21
63.412996954438427
  0
LINE
  8
_0-1_
  6
CONTINUOUS
 62
  152
 10
28.036374273525439
 20
63.412996954438427
 11
28.036374273525439
 21
59.412996954438427
  0
LINE
  8
_0-1_
  6
CONTINUOUS
 62
  152
 10
28.936602450996475
 20
59.412996954438427
 11
28.936602450996475
 21
63.412996954438427
  0
LINE
  8
_0-1_
  6
CONTINUOUS
 62
  152
 10
29.756357134289942
 20
63.412996954438427
 11
29.756357134289942
 21
59.412996954438427
  0
LINE
  8
_0-1_
  6
CONTINUOUS
 62
  152
 10
30.535792686066202
 20
59.412996954438427
 11
30.535792686066202
 21
63.412996954438427
  0
LINE
  8
_0-1_
  6
CONTINUOUS
 62
  152
 10
31.271430134307707
 20
63.412996954438427
 11
31.271430134307707
 21
59.412996954438427
  0
LINE
  8
_0-1_
  6
CONTINUOUS
 62
  152
 10
31.959985997666195
 20
59.412996954438427
 11
31.959985997666195
 21
63.412996954438427
  0
LINE
  8
_0-1_
  6
CONTINUOUS
 62
  152
 10
32.59838694111761
 20
63.412996954438427
 11
32.59838694111761
 21
59.412996954438427
  0
LINE
  8
_0-1_
  6
CONTINUOUS
 62
  152
 10
33.18378349364059
 20
59.412996954438427
 11
33.18378349364059
 21
63.412996954438427
  0
LINE
  8
_0-1_
  6
CONTINUOUS
 62
  152
 10
33.71336303513101
 20
63.412996954438427
 11
33.71336303513101
 21
59.412996954438427
  0
LINE
  8
_0-1_
  6
CONTINUOUS
 62
  152
 10
34.18536011669687
 20
59.412996954438427
 11
34.18536011669687
 21
63.412996954438427
  0
LINE
  8
_0-1_
  6
CONTINUOUS
 62
  152
 10
34.59706969953379
 20
63.412996954438427
 11
34.59706969953379
 21
59.412996954438427
  0
LINE
  8
_0-1_
  6
CONTINUOUS
 62
  152
 10
34.946853869851225
 20
59.412996954438427
 11
34.946853869851225
 21
63.412996954438427
  0
LINE
  8
_0-1_
  6
CONTINUOUS
 62
  152
 10
35.233151383312475
 20
63.412996954438427
 11
35.233151383312475
 21
59.412996954438427
  0
LINE
  8
_0-1_
  6
CONTINUOUS
 62
  152
 10
35.454684365134312
 20
59.412996954438427
 11
35.454684365134312
 21
63.412996954438427
  0
LINE
  8
_0-1_
  6
CONTINUOUS
 62
  152
 10
35.610464013813839
 20
63.412996954438427
 11
35.610464013813839
 21
59.412996954438427
  0
LINE
  8
_0-1_
  6
CONTINUOUS
 62
  152
 10
5.7231817099237787
 20
63.412996954438427
 11
5.7231817099237787
 21
59.412996954438427
  0
LINE
  8
_0-1_
  6
CONTINUOUS
 62
  152
 10
5.8358994060337182
 20
59.412996954438427
 11
5.8358994060337182
 21
63.412996954438427
  0
LINE
  8
_0-1_
  6
CONTINUOUS
 62
  152
 10
8.2625799262069677
 20
59.412996954438427
 11
8.2625799262069677
 21
63.412996954438427
  0
LINE
  8
_0-1_
  6
CONTINUOUS
 62
  152
 10
7.7330003847165472
 20
63.412996954438427
 11
7.7330003847165472
 21
59.412996954438427
  0
LINE
  8
_0-1_
  6
CONTINUOUS
 62
  152
 10
7.2610033031506873
 20
59.412996954438427
 11
7.2610033031506873
 21
63.412996954438427
  0
LINE
  8
_0-1_
  6
CONTINUOUS
 62
  152
 10
6.8492937203137672
 20
63.412996954438427
 11
6.8492937203137672
 21
59.412996954438427
  0
LINE
  8
_0-1_
  6
CONTINUOUS
 62
  152
 10
6.4995095499972422
 20
59.412996954438427
 11
6.4995095499972422
 21
63.412996954438427
  0
LINE
  8
_0-1_
  6
CONTINUOUS
 62
  152
 10
6.2132120365350829
 20
63.412996954438427
 11
6.2132120365350829
 21
59.412996954438427
  0
LINE
  8
_0-1_
  6
CONTINUOUS
 62
  152
 10
5.991679054713245
 20
59.412996954438427
 11
5.991679054713245
 21
63.412996954438427
  0
LINE
  8
_0-1_
  6
CONTINUOUS
 62
  152
 10
8.8479764787299473
 20
63.412996954438427
 11
8.8479764787299473
 21
59.412996954438427
  0
LINE
  8
_0-1_
  6
CONTINUOUS
 62
  152
 10
9.4863774221813628
 20
59.412996954438427
 11
9.4863774221813628
 21
63.412996954438427
  0
LINE
  8
_0-1_
  6
CONTINUOUS
 62
  152
 10
10.174933285539851
 20
63.412996954438427
 11
10.174933285539851
 21
59.412996954438427
  0
LINE
  8
_0-1_
  6
CONTINUOUS
 62
  152
 10
10.910570733781356
 20
59.412996954438427
 11
10.910570733781356
 21
63.412996954438427
  0
LINE
  8
_0-1_
  6
CONTINUOUS
 62
  152
 10
11.690006285557615
 20
63.412996954438427
 11
11.690006285557615
 21
59.412996954438427
  0
LINE
  8
_0-1_
  6
CONTINUOUS
 62
  152
 10
12.509760968851083
 20
59.412996954438427
 11
12.509760968851083
 21
63.412996954438427
  0
LINE
  8
_0-1_
  6
CONTINUOUS
 62
  152
 10
13.409989146322118
 20
63.412996954438427
 11
13.409989146322118
 21
59.412996954438427
  0
LINE
  8
_0-1_
  6
CONTINUOUS
 62
  152
 10
14.3190748303997
 20
59.412996954438427
 11
14.3190748303997
 21
63.412996954438427
  0
LINE
  8
_0-1_
  6
CONTINUOUS
 62
  152
 10
15.354290030854941
 20
63.412996954438427
 11
15.354290030854941
 21
59.412996954438427
  0
LINE
  8
_0-1_
  6
CONTINUOUS
 62
  152
 10
16.411460460918647
 20
59.412996954438427
 11
16.411460460918647
 21
63.412996954438427
  0
LINE
  8
_0-1_
  6
CONTINUOUS
 62
  152
 10
17.53631383773893
 20
63.412996954438427
 11
17.53631383773893
 21
59.412996954438427
  0
LINE
  8
_0-1_
  6
DASHED2
 62
  152
 10
17.223181709923779
 20
59.412996954438427
 11
17.223181709923779
 21
58.912996954438427
  0
LINE
  8
_0-1_
  6
CONTINUOUS
 62
  152
 10
18.724498951507599
 20
59.412996954438427
 11
18.724498951507599
 21
63.412996954438427
  0
LINE
  8
_0-1_
  6
CONTINUOUS
 62
  152
 10
19.921605086868226
 20
63.412996954438427
 11
19.921605086868226
 21
59.412996954438427
  0
LINE
  8
_0-1_
  6
DASHED2
 62
  152
 10
19.921605086868226
 20
59.412996954438427
 11
20.723181709923779
 21
59.412996954438427
  0
LINE
  8
_0-1_
  6
CONTINUOUS
 62
  152
 10
21.524758332979331
 20
59.412996954438427
 11
21.524758332979331
 21
63.412996954438427
  0
LINE
  8
_0-1_
  6
CONTINUOUS
 62
  152
 10
22.721864468339959
 20
63.412996954438427
 11
22.721864468339959
 21
59.412996954438427
  0
LINE
  8
_0-1_
  6
CONTINUOUS
 62
  152
 10
23.910049582108627
 20
59.412996954438427
 11
23.910049582108627
 21
63.412996954438427
  0
LINE
  8
_0-1_
  6
CONTINUOUS
 62
  152
 10
25.03490295892891
 20
63.412996954438427
 11
25.03490295892891
 21
59.412996954438427
  0
LINE
  8
_0-1_
  6
DASHED2
 62
  152
 10
24.223181709923779
 20
59.412996954438427
 11
24.223181709923779
 21
58.912996954438427
  0
ARC
  8
_0-1_
  6
DASHED2
 62
  152
 10
16.223181709923779
 20
58.912996954438427
 40
1
 50
270
 51
0
  0
ARC
  8
_0-1_
  6
DASHED2
 62
  152
 10
25.223181709923779
 20
58.912996954438427
 40
1
 50
180
 51
270
  0
CIRCLE
  8
_0-1_
  6
CONTINUOUS
 62
  152
 10
20.723181709923779
 20
17.528264544220406
 40
14.5
  0
ENDSEC
  0
EOF
