  0
SECTION
  2
HEADER
  9
$ACADVER
  1
AC1009
  9
$INSBASE
 10
0
 20
0
 30
0
  9
$EXTMIN
 10
0
 20
0
  9
$EXTMAX
 10
1189
 20
841
  9
$LIMMIN
 10
0
 20
0
  9
$LIMMAX
 10
1189
 20
841
  9
$LTSCALE
 40
1
  0
ENDSEC
  0
SECTION
  2
TABLES
  0
TABLE
  2
LTYPE
 70
     9
  0
LTYPE
  2
CONTINUOUS
 70
    64
  3
実線
 72
    65
 73
     0
 40
0.0
  0
LTYPE
  2
DASHED1
 70
    64
  3
--  --  --  --  --  --  --  --  
 72
    65
 73
     2
 40
2.5
 49
1.25
 49
-1.25
  0
LTYPE
  2
DASHED2
 70
    64
  3
----    ----    ----    ----    
 72
    65
 73
     2
 40
5.0
 49
2.5
 49
-2.5
  0
LTYPE
  2
DASHED3
 70
    64
  3
------  ------  ------  ------  
 72
    65
 73
     2
 40
5.0
 49
3.75
 49
-1.25
  0
LTYPE
  2
CENTER1
 70
    64
  3
----- - ----- - ----- - ----- - 
 72
    65
 73
     4
 40
10.0
 49
6.25
 49
-1.25
 49
1.25
 49
-1.25
  0
LTYPE
  2
CENTER2
 70
    64
  3
----------  --  ----------  --  
 72
    65
 73
     4
 40
20.0
 49
12.5
 49
-2.5
 49
2.5
 49
-2.5
  0
LTYPE
  2
PHANTOM1
 70
    64
  3
--- - - --- - - --- - - --- - - 
 72
    65
 73
     6
 40
10.0
 49
3.25
 49
-1.25
 49
1.25
 49
-1.25
 49
1.25
 49
-1.25
  0
LTYPE
  2
PHANTOM2
 70
    64
  3
--------  -  -  --------  -  -  
 72
    65
 73
     6
 40
20.0
 49
10.0
 49
-2.5
 49
1.25
 49
-2.5
 49
1.25
 49
-2.5
  0
LTYPE
  2
DOT
 70
    64
  3
-   -   -   -   -   -   -   -   
 72
    65
 73
     2
 40
2.5
 49
0.625
 49
-1.875
  0
LTYPE
  2
DUMMY
 70
    64
  3
ダミー
 72
    65
 73
     0
 40
0.0
  0
LTYPE
  2
RAND1
 70
    64
  3
ランダム線1
 72
    65
 73
     4
 40
10.0
 49
1.0
 49
-2.0
 49
3.0
 49
-4.0
  0
LTYPE
  2
RAND2
 70
    64
  3
ランダム線2
 72
    65
 73
     4
 40
14.0
 49
2.0
 49
-3.0
 49
4.0
 49
-5.0
  0
LTYPE
  2
RAND3
 70
    64
  3
ランダム線3
 72
    65
 73
     4
 40
18.0
 49
3.0
 49
-4.0
 49
5.0
 49
-6.0
  0
LTYPE
  2
RAND4
 70
    64
  3
ランダム線4
 72
    65
 73
     4
 40
22.0
 49
4.0
 49
-5.0
 49
6.0
 49
-7.0
  0
LTYPE
  2
RAND5
 70
    64
  3
ランダム線5
 72
    65
 73
     4
 40
26.0
 49
5.0
 49
-6.0
 49
7.0
 49
-8.0
  0
LTYPE
  2
LONG1
 70
    64
  3
----------  --  ----------  --  
 72
    65
 73
     4
 40
40.0
 49
32.5
 49
-2.5
 49
2.5
 49
-2.5
  0
LTYPE
  2
LONG2
 70
    64
  3
--------  -  -  --------  -  -  
 72
    65
 73
     6
 40
40.0
 49
30.0
 49
-2.5
 49
1.25
 49
-2.5
 49
1.25
 49
-2.5
  0
LTYPE
  2
LONG3
 70
    64
  3
+++++++++++++++..+++++++++++++++
 72
    65
 73
     2
 40
40.0
 49
37.5
 49
-2.5
  0
LTYPE
  2
LONG4
 70
    64
  3
+++++++++++++++..+++++++++++++++
 72
    65
 73
     2
 40
80.0
 49
75.0
 49
-5.0
  0
LTYPE
  2
LONG5
 70
    64
  3
----------  --  ----------  --  
 72
    65
 73
     4
 40
60.0
 49
37.5
 49
-7.5
 49
7.5
 49
-7.5
  0
LTYPE
  2
dashed
 70
   64
  3
-------   -------------   ------
 72
   65
 73
    2
 40
7.5
 49
6
 49
-1.5
  0
LTYPE
  2
dashed_spaced
 70
   64
  3
----        --------        ----
 72
   65
 73
    2
 40
12
 49
6
 49
-6
  0
LTYPE
  2
long_dashed_dotted
 70
   64
  3
------------- --- --------------
 72
   65
 73
    4
 40
15.25
 49
12
 49
-1.5
 49
0.25
 49
-1.5
  0
LTYPE
  2
long_dashed_double-dotted
 70
   64
  3
----------- --- --- ------------
 72
   65
 73
    6
 40
17
 49
12
 49
-1.5
 49
0.25
 49
-1.5
 49
0.25
 49
-1.5
  0
LTYPE
  2
long_dashed_triplicate-dotted
 70
   64
  3
--------- --- --- --- ----------
 72
   65
 73
    8
 40
18.75
 49
12
 49
-1.5
 49
0.25
 49
-1.5
 49
0.25
 49
-1.5
 49
0.25
 49
-1.5
  0
LTYPE
  2
dotted
 70
   64
  3
   -       -       -       -    
 72
   65
 73
    2
 40
1.75
 49
0.25
 49
-1.5
  0
LTYPE
  2
chain
 70
   64
  3
-------------- -- --------------
 72
   65
 73
    4
 40
18.5
 49
12
 49
-1.5
 49
3.5
 49
-1.5
  0
LTYPE
  2
chain_double_dash
 70
   64
  3
------------ -- -- -------------
 72
   65
 73
    6
 40
23.5
 49
12
 49
-1.5
 49
3.5
 49
-1.5
 49
3.5
 49
-1.5
  0
LTYPE
  2
dashed_dotted
 70
   64
  3
-----------     -     ----------
 72
   65
 73
    4
 40
9.25
 49
6
 49
-1.5
 49
0.25
 49
-1.5
  0
LTYPE
  2
double-dashed_dotted
 70
   64
  3
------   -----------   -   -----
 72
   65
 73
    6
 40
16.75
 49
6
 49
-1.5
 49
6
 49
-1.5
 49
0.25
 49
-1.5
  0
LTYPE
  2
dashed_double-dotted
 70
   64
  3
---------    -    -    ---------
 72
   65
 73
    6
 40
11
 49
6
 49
-1.5
 49
0.25
 49
-1.5
 49
0.25
 49
-1.5
  0
LTYPE
  2
double-dashed_double-dotted
 70
   64
  3
-----   ---------   -   -   ----
 72
   65
 73
    8
 40
18.5
 49
6
 49
-1.5
 49
6
 49
-1.5
 49
0.25
 49
-1.5
 49
0.25
 49
-1.5
  0
LTYPE
  2
dashed_triplicate-dotted
 70
   64
  3
-------    -    -    -    ------
 72
   65
 73
    8
 40
12.75
 49
6
 49
-1.5
 49
0.25
 49
-1.5
 49
0.25
 49
-1.5
 49
0.25
 49
-1.5
  0
LTYPE
  2
double-dashed_triplicate-dotted
 70
   64
  3
-----  ---------  -  -  -  -----
 72
   65
 73
   10
 40
20.25
 49
6
 49
-1.5
 49
6
 49
-1.5
 49
0.25
 49
-1.5
 49
0.25
 49
-1.5
 49
0.25
 49
-1.5
  0
LTYPE
  2
undefined
 70
   64
  3
--------------------------------
 72
   65
 73
    0
 40
0
  0
LTYPE
  2
_
 70
   64
  3
                                
 72
   65
 73
    0
 40
0
  0
LTYPE
  2
__18
 70
   64
  3
                                
 72
   65
 73
    0
 40
0
  0
LTYPE
  2
__19
 70
   64
  3
                                
 72
   65
 73
    0
 40
0
  0
LTYPE
  2
__20
 70
   64
  3
                                
 72
   65
 73
    0
 40
0
  0
LTYPE
  2
__21
 70
   64
  3
                                
 72
   65
 73
    0
 40
0
  0
LTYPE
  2
__22
 70
   64
  3
                                
 72
   65
 73
    0
 40
0
  0
LTYPE
  2
__23
 70
   64
  3
                                
 72
   65
 73
    0
 40
0
  0
LTYPE
  2
__24
 70
   64
  3
                                
 72
   65
 73
    0
 40
0
  0
LTYPE
  2
__25
 70
   64
  3
                                
 72
   65
 73
    0
 40
0
  0
LTYPE
  2
__26
 70
   64
  3
                                
 72
   65
 73
    0
 40
0
  0
LTYPE
  2
__27
 70
   64
  3
                                
 72
   65
 73
    0
 40
0
  0
LTYPE
  2
__28
 70
   64
  3
                                
 72
   65
 73
    0
 40
0
  0
LTYPE
  2
__29
 70
   64
  3
                                
 72
   65
 73
    0
 40
0
  0
LTYPE
  2
__30
 70
   64
  3
                                
 72
   65
 73
    0
 40
0
  0
LTYPE
  2
__31
 70
   64
  3
                                
 72
   65
 73
    0
 40
0
  0
LTYPE
  2
__32
 70
   64
  3
                                
 72
   65
 73
    0
 40
0
  0
ENDTAB
  0
TABLE
  2
STYLE
  5
3
100
AcDbSymbolTable
 70
     1
  0
STYLE
  5
10
100
AcDbSymbolTableRecord
100
AcDbTextStyleTableRecord
  2
STANDARD
 70
     0
 40
0.0
 41
1.0
 50
0.0
 71
     0
 42
0.2
  3
txt
  4
bigfont.shx
  0
STYLE
  5
26
100
AcDbSymbolTableRecord
100
AcDbTextStyleTableRecord
  2
TATEGAKI
 70
    68
 40
0.0
 41
1.0
 50
0.0
 71
     0
 42
1.0
  3
txt
  4
bigfont.shx
  0
ENDTAB
  0
TABLE
  2
LAYER
 70
    2
  0
LAYER
  2
_0-0_
 70
   64
 62
    7
  6
CONTINUOUS
  0
LAYER
  2
ADD_LINE
 70
   64
 62
    7
  6
CONTINUOUS
  0
ENDTAB
  0
ENDSEC
  0
SECTION
  2
BLOCKS
  0
ENDSEC
  0
SECTION
  2
ENTITIES
  0
LINE
  8
_0-0_
  6
CONTINUOUS
 62
    7
 10
44.500800842991907
 20
233.29354924963278
 11
79.500800842991907
 21
233.29354924963278
  0
ARC
  8
_0-0_
  6
CONTINUOUS
 62
    7
 10
46.500800842991907
 20
237.29354924963278
 40
2
 50
90
 51
180
  0
LINE
  8
_0-0_
  6
CONTINUOUS
 62
    7
 10
77.500800842991907
 20
239.29354924963278
 11
46.500800842991907
 21
239.29354924963278
  0
ARC
  8
_0-0_
  6
CONTINUOUS
 62
    7
 10
77.500800842991907
 20
237.29354924963278
 40
2
 50
0
 51
90
  0
LINE
  8
_0-0_
  6
CONTINUOUS
 62
    7
 10
57.500800842991907
 20
265.29354924963275
 11
57.000800842991907
 21
264.79354924963275
  0
LINE
  8
_0-0_
  6
CONTINUOUS
 62
    7
 10
66.500800842991907
 20
265.29354924963275
 11
57.500800842991907
 21
265.29354924963275
  0
LINE
  8
_0-0_
  6
CONTINUOUS
 62
    7
 10
66.500800842991907
 20
265.29354924963275
 11
67.000800842991907
 21
264.79354924963275
  0
LINE
  8
_0-0_
  6
CONTINUOUS
 62
  152
 10
57.000800842991907
 20
264.79354924963275
 11
67.000800842991907
 21
264.79354924963275
  0
LINE
  8
_0-0_
  6
CONTINUOUS
 62
    7
 10
53.650800842991885
 20
239.29354924963278
 11
53.650800842991885
 21
240.79354924963278
  0
LINE
  8
_0-0_
  6
CONTINUOUS
 62
    7
 10
53.650800842991885
 20
240.79354924963278
 11
70.35080084299193
 21
240.79354924963278
  0
LINE
  8
_0-0_
  6
CONTINUOUS
 62
    7
 10
70.35080084299193
 20
239.29354924963278
 11
70.35080084299193
 21
240.79354924963278
  0
LINE
  8
_0-0_
  6
CONTINUOUS
 62
    7
 10
67.000800842991907
 20
264.79354924963275
 11
67.000800842991907
 21
245.29354924963278
  0
LINE
  8
_0-0_
  6
CONTINUOUS
 62
  152
 10
66.375800842991907
 20
245.29354924963278
 11
66.375800842991907
 21
265.29354924963275
  0
LINE
  8
_0-0_
  6
CONTINUOUS
 62
  152
 10
57.625800842991907
 20
245.29354924963278
 11
57.625800842991907
 21
265.29354924963275
  0
LINE
  8
_0-0_
  6
CONTINUOUS
 62
    7
 10
57.000800842991907
 20
264.79354924963275
 11
57.000800842991907
 21
245.29354924963278
  0
LINE
  8
_0-0_
  6
CONTINUOUS
 62
    7
 10
57.959348958664464
 20
291.17802203927477
 11
66.042252727319351
 21
291.17802203927477
  0
LINE
  8
_0-0_
  6
CONTINUOUS
 62
    7
 10
70.083704611646681
 20
284.17802203927477
 11
66.042252727319351
 21
291.17802203927477
  0
LINE
  8
_0-0_
  6
CONTINUOUS
 62
    7
 10
66.042252727319351
 20
277.17802203927477
 11
70.083704611646681
 21
284.17802203927477
  0
LINE
  8
_0-0_
  6
CONTINUOUS
 62
    7
 10
57.959348958664464
 20
277.17802203927477
 11
66.042252727319351
 21
277.17802203927477
  0
LINE
  8
_0-0_
  6
CONTINUOUS
 62
    7
 10
57.959348958664464
 20
277.17802203927477
 11
53.917897074337134
 21
284.17802203927477
  0
LINE
  8
_0-0_
  6
CONTINUOUS
 62
    7
 10
53.917897074337134
 20
284.17802203927477
 11
57.959348958664464
 21
291.17802203927477
  0
CIRCLE
  8
_0-0_
  6
CONTINUOUS
 62
  152
 10
62.000800842991907
 20
284.17802203927477
 40
7
  0
CIRCLE
  8
_0-0_
  6
CONTINUOUS
 62
  152
 10
62.000800842991907
 20
284.17802203927477
 40
5
  0
CIRCLE
  8
_0-0_
  6
CONTINUOUS
 62
    7
 10
62.000800842991907
 20
284.17802203927477
 40
4.3000001907348633
  0
LINE
  8
_0-0_
  6
CONTINUOUS
 62
    7
 10
53.917897074337134
 20
244.66833446729348
 11
53.917897074337134
 21
240.79354924963278
  0
LINE
  8
_0-0_
  6
CONTINUOUS
 62
    7
 10
57.959348958664464
 20
244.66833446729348
 11
57.959348958664464
 21
244.66833446729348
  0
LINE
  8
_0-0_
  6
CONTINUOUS
 62
    7
 10
57.959348958664464
 20
244.66833446729348
 11
57.928649591056477
 21
244.77690187489713
  0
LINE
  8
_0-0_
  6
CONTINUOUS
 62
    7
 10
57.928649591056477
 20
244.77690187489713
 11
57.837484272982643
 21
244.88217051675849
  0
LINE
  8
_0-0_
  6
CONTINUOUS
 62
    7
 10
57.837484272982643
 20
244.88217051675849
 11
57.68862301650077
 21
244.98094185846313
  0
LINE
  8
_0-0_
  6
CONTINUOUS
 62
    7
 10
57.68862301650077
 20
244.98094185846313
 11
57.486588895561624
 21
245.07021478277403
  0
LINE
  8
_0-0_
  6
CONTINUOUS
 62
    7
 10
57.486588895561624
 20
245.07021478277403
 11
57.23752061469574
 21
245.14727677706034
  0
LINE
  8
_0-0_
  6
CONTINUOUS
 62
    7
 10
57.23752061469574
 20
245.14727677706034
 11
56.948985987582603
 21
245.20978635162086
  0
LINE
  8
_0-0_
  6
CONTINUOUS
 62
    7
 10
56.948985987582603
 20
245.20978635162086
 11
56.629751992861472
 21
245.25584418466397
  0
LINE
  8
_0-0_
  6
CONTINUOUS
 62
    7
 10
56.629751992861472
 20
245.25584418466397
 11
56.28951839392176
 21
245.28405083223905
  0
LINE
  8
_0-0_
  6
CONTINUOUS
 62
    7
 10
56.28951839392176
 20
245.28405083223905
 11
55.938623016500742
 21
245.29354924963278
  0
LINE
  8
_0-0_
  6
CONTINUOUS
 62
    7
 10
55.000800842991907
 20
245.29354924963278
 11
53.917897074337134
 21
244.66833446729348
  0
LINE
  8
_0-0_
  6
CONTINUOUS
 62
    7
 10
70.083704611646681
 20
244.66833446729348
 11
70.083704611646681
 21
240.79354924963278
  0
LINE
  8
_0-0_
  6
CONTINUOUS
 62
    7
 10
55.000800842991907
 20
245.29354924963278
 11
69.000800842991907
 21
245.29354924963278
  0
LINE
  8
_0-0_
  6
CONTINUOUS
 62
    7
 10
69.000800842991907
 20
245.29354924963278
 11
70.083704611646681
 21
244.66833446729348
  0
LINE
  8
_0-0_
  6
CONTINUOUS
 62
    7
 10
68.062978669483073
 20
245.29354924963278
 11
68.062978669483073
 21
245.29354924963278
  0
LINE
  8
_0-0_
  6
CONTINUOUS
 62
    7
 10
68.062978669483073
 20
245.29354924963278
 11
67.712083292062047
 21
245.28405083223905
  0
LINE
  8
_0-0_
  6
CONTINUOUS
 62
    7
 10
67.712083292062047
 20
245.28405083223905
 11
67.371849693122343
 21
245.25584418466397
  0
LINE
  8
_0-0_
  6
CONTINUOUS
 62
    7
 10
67.371849693122343
 20
245.25584418466397
 11
67.052615698401212
 21
245.20978635162086
  0
LINE
  8
_0-0_
  6
CONTINUOUS
 62
    7
 10
67.052615698401212
 20
245.20978635162086
 11
66.764081071288075
 21
245.14727677706034
  0
LINE
  8
_0-0_
  6
CONTINUOUS
 62
    7
 10
66.764081071288075
 20
245.14727677706034
 11
66.51501279042219
 21
245.07021478277403
  0
LINE
  8
_0-0_
  6
CONTINUOUS
 62
    7
 10
66.51501279042219
 20
245.07021478277403
 11
66.312978669483044
 21
244.98094185846313
  0
LINE
  8
_0-0_
  6
CONTINUOUS
 62
    7
 10
66.312978669483044
 20
244.98094185846313
 11
66.164117413001165
 21
244.88217051675849
  0
LINE
  8
_0-0_
  6
CONTINUOUS
 62
    7
 10
66.164117413001165
 20
244.88217051675849
 11
66.072952094927345
 21
244.77690187489713
  0
LINE
  8
_0-0_
  6
CONTINUOUS
 62
    7
 10
66.072952094927345
 20
244.77690187489713
 11
66.042252727319351
 21
244.66833446729348
  0
LINE
  8
_0-0_
  6
CONTINUOUS
 62
    7
 10
66.042252727319351
 20
244.66833446729348
 11
66.042252727319351
 21
244.66833446729348
  0
LINE
  8
_0-0_
  6
CONTINUOUS
 62
    7
 10
57.959348958664464
 20
244.66833446729348
 11
57.959348958664464
 21
240.79354924963278
  0
LINE
  8
_0-0_
  6
CONTINUOUS
 62
    7
 10
66.042252726991933
 20
244.66833446729348
 11
66.042252726991933
 21
244.66833446729348
  0
LINE
  8
_0-0_
  6
CONTINUOUS
 62
    7
 10
66.042252726991933
 20
244.66833446729348
 11
65.980853991778446
 21
244.77690187489713
  0
LINE
  8
_0-0_
  6
CONTINUOUS
 62
    7
 10
65.980853991778446
 20
244.77690187489713
 11
65.798523355638167
 21
244.88217051675849
  0
LINE
  8
_0-0_
  6
CONTINUOUS
 62
    7
 10
65.798523355638167
 20
244.88217051675849
 11
65.500800842686473
 21
244.98094185846313
  0
LINE
  8
_0-0_
  6
CONTINUOUS
 62
    7
 10
65.500800842686473
 20
244.98094185846313
 11
65.096732600824552
 21
245.07021478277403
  0
LINE
  8
_0-0_
  6
CONTINUOUS
 62
    7
 10
65.096732600824552
 20
245.07021478277403
 11
64.598596039112962
 21
245.14727677706034
  0
LINE
  8
_0-0_
  6
CONTINUOUS
 62
    7
 10
64.598596039112962
 20
245.14727677706034
 11
64.021526784910066
 21
245.20978635162086
  0
LINE
  8
_0-0_
  6
CONTINUOUS
 62
    7
 10
64.021526784910066
 20
245.20978635162086
 11
63.383058795493675
 21
245.25584418466397
  0
LINE
  8
_0-0_
  6
CONTINUOUS
 62
    7
 10
63.383058795493675
 20
245.25584418466397
 11
62.702591597641813
 21
245.28405083223905
  0
LINE
  8
_0-0_
  6
CONTINUOUS
 62
    7
 10
62.702591597641813
 20
245.28405083223905
 11
62.000800842828198
 21
245.29354924963278
  0
LINE
  8
_0-0_
  6
CONTINUOUS
 62
    7
 10
62.000800842828198
 20
245.29354924963278
 11
61.299010088014583
 21
245.28405083223905
  0
LINE
  8
_0-0_
  6
CONTINUOUS
 62
    7
 10
61.299010088014583
 20
245.28405083223905
 11
60.618542890162722
 21
245.25584418466397
  0
LINE
  8
_0-0_
  6
CONTINUOUS
 62
    7
 10
60.618542890162722
 20
245.25584418466397
 11
59.980074900746331
 21
245.20978635162086
  0
LINE
  8
_0-0_
  6
CONTINUOUS
 62
    7
 10
59.980074900746331
 20
245.20978635162086
 11
59.403005646543434
 21
245.14727677706034
  0
LINE
  8
_0-0_
  6
CONTINUOUS
 62
    7
 10
59.403005646543434
 20
245.14727677706034
 11
58.904869084831844
 21
245.07021478277406
  0
LINE
  8
_0-0_
  6
CONTINUOUS
 62
    7
 10
58.904869084831844
 20
245.07021478277406
 11
58.500800842969923
 21
244.98094185846313
  0
LINE
  8
_0-0_
  6
CONTINUOUS
 62
    7
 10
58.500800842969923
 20
244.98094185846313
 11
58.203078330018229
 21
244.88217051675849
  0
LINE
  8
_0-0_
  6
CONTINUOUS
 62
    7
 10
58.203078330018229
 20
244.88217051675849
 11
58.020747693877958
 21
244.77690187489713
  0
LINE
  8
_0-0_
  6
CONTINUOUS
 62
    7
 10
58.020747693877958
 20
244.77690187489713
 11
57.959348958664464
 21
244.66833446729348
  0
LINE
  8
_0-0_
  6
CONTINUOUS
 62
    7
 10
57.959348958664464
 20
244.66833446729348
 11
57.959348958664464
 21
244.66833446729348
  0
LINE
  8
_0-0_
  6
CONTINUOUS
 62
    7
 10
66.042252726991933
 20
240.79354924963278
 11
66.042252726991933
 21
244.66833446729348
  0
LINE
  8
_0-0_
  6
CENTER1
 62
  152
 10
62.000800842991907
 20
222.72051316198647
 11
62.000800842991907
 21
268.66243552973594
  0
LINE
  8
_0-0_
  6
CENTER1
 62
  152
 10
51.666073547991914
 20
284.17802203927477
 11
72.335528137991901
 21
284.17802203927477
  0
LINE
  8
_0-0_
  6
CENTER1
 62
  152
 10
62.000800842991907
 20
273.84329474427477
 11
62.000800842991907
 21
294.51274933427476
  0
LINE
  8
_0-0_
  6
CONTINUOUS
 62
    7
 10
44.500800842991907
 20
230.29354924963278
 11
44.500800842991907
 21
237.29354924963278
  0
ARC
  8
_0-0_
  6
CONTINUOUS
 62
    7
 10
46.500800842991907
 20
230.29354924963278
 40
2
 50
180
 51
270
  0
LINE
  8
_0-0_
  6
CONTINUOUS
 62
    7
 10
77.500800842991907
 20
228.29354924963278
 11
46.500800842991907
 21
228.29354924963278
  0
LINE
  8
_0-0_
  6
CONTINUOUS
 62
    7
 10
79.500800842991907
 20
230.29354924963278
 11
79.500800842991907
 21
237.29354924963278
  0
ARC
  8
_0-0_
  6
CONTINUOUS
 62
    7
 10
77.500800842991907
 20
230.29354924963278
 40
2
 50
270
 51
0
  0
CIRCLE
  8
_0-0_
  6
CONTINUOUS
 62
    7
 10
62.000800842991907
 20
196.91495458983493
 40
17.5
  0
LINE
  8
_0-0_
  6
CENTER1
 62
  152
 10
62.000800842991907
 20
219.38028625083493
 11
62.000800842991907
 21
174.44962292883494
  0
LINE
  8
_0-0_
  6
CENTER1
 62
  152
 10
39.535469181991857
 20
196.91495458983493
 11
84.466132503991957
 21
196.91495458983493
  0
CIRCLE
  8
_0-0_
  6
CONTINUOUS
 62
    7
 10
62.000800842991907
 20
196.91495458983493
 40
4.75
  0
CIRCLE
  8
_0-0_
  6
CONTINUOUS
 62
  152
 10
62.000800842991907
 20
196.91495458983493
 40
6.2999999999999998
  0
CIRCLE
  8
_0-0_
  6
CONTINUOUS
 62
  152
 10
62.000800842991907
 20
196.91495458983493
 40
8.5
  0
TEXT
  8
_0-0_
 62
    7
 10
19.514074845939263
 20
162.09821543554631
 40
4.2999999999999998
 41
0.744186046511628
 50
0
  1
AJSE
  0
ENDSEC
  0
EOF
