  0
SECTION
  2
HEADER
  9
$ACADVER
  1
AC1009
  9
$INSBASE
 10
0
 20
0
 30
0
  9
$EXTMIN
 10
0
 20
0
  9
$EXTMAX
 10
1189
 20
841
  9
$LIMMIN
 10
0
 20
0
  9
$LIMMAX
 10
1189
 20
841
  9
$LTSCALE
 40
1
  0
ENDSEC
  0
SECTION
  2
TABLES
  0
TABLE
  2
LTYPE
 70
     9
  0
LTYPE
  2
CONTINUOUS
 70
    64
  3
実線
 72
    65
 73
     0
 40
0.0
  0
LTYPE
  2
DASHED1
 70
    64
  3
--  --  --  --  --  --  --  --  
 72
    65
 73
     2
 40
2.5
 49
1.25
 49
-1.25
  0
LTYPE
  2
DASHED2
 70
    64
  3
----    ----    ----    ----    
 72
    65
 73
     2
 40
5.0
 49
2.5
 49
-2.5
  0
LTYPE
  2
DASHED3
 70
    64
  3
------  ------  ------  ------  
 72
    65
 73
     2
 40
5.0
 49
3.75
 49
-1.25
  0
LTYPE
  2
CENTER1
 70
    64
  3
----- - ----- - ----- - ----- - 
 72
    65
 73
     4
 40
10.0
 49
6.25
 49
-1.25
 49
1.25
 49
-1.25
  0
LTYPE
  2
CENTER2
 70
    64
  3
----------  --  ----------  --  
 72
    65
 73
     4
 40
20.0
 49
12.5
 49
-2.5
 49
2.5
 49
-2.5
  0
LTYPE
  2
PHANTOM1
 70
    64
  3
--- - - --- - - --- - - --- - - 
 72
    65
 73
     6
 40
10.0
 49
3.25
 49
-1.25
 49
1.25
 49
-1.25
 49
1.25
 49
-1.25
  0
LTYPE
  2
PHANTOM2
 70
    64
  3
--------  -  -  --------  -  -  
 72
    65
 73
     6
 40
20.0
 49
10.0
 49
-2.5
 49
1.25
 49
-2.5
 49
1.25
 49
-2.5
  0
LTYPE
  2
DOT
 70
    64
  3
-   -   -   -   -   -   -   -   
 72
    65
 73
     2
 40
2.5
 49
0.625
 49
-1.875
  0
LTYPE
  2
DUMMY
 70
    64
  3
ダミー
 72
    65
 73
     0
 40
0.0
  0
LTYPE
  2
RAND1
 70
    64
  3
ランダム線1
 72
    65
 73
     4
 40
10.0
 49
1.0
 49
-2.0
 49
3.0
 49
-4.0
  0
LTYPE
  2
RAND2
 70
    64
  3
ランダム線2
 72
    65
 73
     4
 40
14.0
 49
2.0
 49
-3.0
 49
4.0
 49
-5.0
  0
LTYPE
  2
RAND3
 70
    64
  3
ランダム線3
 72
    65
 73
     4
 40
18.0
 49
3.0
 49
-4.0
 49
5.0
 49
-6.0
  0
LTYPE
  2
RAND4
 70
    64
  3
ランダム線4
 72
    65
 73
     4
 40
22.0
 49
4.0
 49
-5.0
 49
6.0
 49
-7.0
  0
LTYPE
  2
RAND5
 70
    64
  3
ランダム線5
 72
    65
 73
     4
 40
26.0
 49
5.0
 49
-6.0
 49
7.0
 49
-8.0
  0
LTYPE
  2
LONG1
 70
    64
  3
----------  --  ----------  --  
 72
    65
 73
     4
 40
40.0
 49
32.5
 49
-2.5
 49
2.5
 49
-2.5
  0
LTYPE
  2
LONG2
 70
    64
  3
--------  -  -  --------  -  -  
 72
    65
 73
     6
 40
40.0
 49
30.0
 49
-2.5
 49
1.25
 49
-2.5
 49
1.25
 49
-2.5
  0
LTYPE
  2
LONG3
 70
    64
  3
+++++++++++++++..+++++++++++++++
 72
    65
 73
     2
 40
40.0
 49
37.5
 49
-2.5
  0
LTYPE
  2
LONG4
 70
    64
  3
+++++++++++++++..+++++++++++++++
 72
    65
 73
     2
 40
80.0
 49
75.0
 49
-5.0
  0
LTYPE
  2
LONG5
 70
    64
  3
----------  --  ----------  --  
 72
    65
 73
     4
 40
60.0
 49
37.5
 49
-7.5
 49
7.5
 49
-7.5
  0
LTYPE
  2
dashed
 70
   64
  3
-------   -------------   ------
 72
   65
 73
    2
 40
7.5
 49
6
 49
-1.5
  0
LTYPE
  2
dashed_spaced
 70
   64
  3
----        --------        ----
 72
   65
 73
    2
 40
12
 49
6
 49
-6
  0
LTYPE
  2
long_dashed_dotted
 70
   64
  3
------------- --- --------------
 72
   65
 73
    4
 40
15.25
 49
12
 49
-1.5
 49
0.25
 49
-1.5
  0
LTYPE
  2
long_dashed_double-dotted
 70
   64
  3
----------- --- --- ------------
 72
   65
 73
    6
 40
17
 49
12
 49
-1.5
 49
0.25
 49
-1.5
 49
0.25
 49
-1.5
  0
LTYPE
  2
long_dashed_triplicate-dotted
 70
   64
  3
--------- --- --- --- ----------
 72
   65
 73
    8
 40
18.75
 49
12
 49
-1.5
 49
0.25
 49
-1.5
 49
0.25
 49
-1.5
 49
0.25
 49
-1.5
  0
LTYPE
  2
dotted
 70
   64
  3
   -       -       -       -    
 72
   65
 73
    2
 40
1.75
 49
0.25
 49
-1.5
  0
LTYPE
  2
chain
 70
   64
  3
-------------- -- --------------
 72
   65
 73
    4
 40
18.5
 49
12
 49
-1.5
 49
3.5
 49
-1.5
  0
LTYPE
  2
chain_double_dash
 70
   64
  3
------------ -- -- -------------
 72
   65
 73
    6
 40
23.5
 49
12
 49
-1.5
 49
3.5
 49
-1.5
 49
3.5
 49
-1.5
  0
LTYPE
  2
dashed_dotted
 70
   64
  3
-----------     -     ----------
 72
   65
 73
    4
 40
9.25
 49
6
 49
-1.5
 49
0.25
 49
-1.5
  0
LTYPE
  2
double-dashed_dotted
 70
   64
  3
------   -----------   -   -----
 72
   65
 73
    6
 40
16.75
 49
6
 49
-1.5
 49
6
 49
-1.5
 49
0.25
 49
-1.5
  0
LTYPE
  2
dashed_double-dotted
 70
   64
  3
---------    -    -    ---------
 72
   65
 73
    6
 40
11
 49
6
 49
-1.5
 49
0.25
 49
-1.5
 49
0.25
 49
-1.5
  0
LTYPE
  2
double-dashed_double-dotted
 70
   64
  3
-----   ---------   -   -   ----
 72
   65
 73
    8
 40
18.5
 49
6
 49
-1.5
 49
6
 49
-1.5
 49
0.25
 49
-1.5
 49
0.25
 49
-1.5
  0
LTYPE
  2
dashed_triplicate-dotted
 70
   64
  3
-------    -    -    -    ------
 72
   65
 73
    8
 40
12.75
 49
6
 49
-1.5
 49
0.25
 49
-1.5
 49
0.25
 49
-1.5
 49
0.25
 49
-1.5
  0
LTYPE
  2
double-dashed_triplicate-dotted
 70
   64
  3
-----  ---------  -  -  -  -----
 72
   65
 73
   10
 40
20.25
 49
6
 49
-1.5
 49
6
 49
-1.5
 49
0.25
 49
-1.5
 49
0.25
 49
-1.5
 49
0.25
 49
-1.5
  0
LTYPE
  2
undefined
 70
   64
  3
--------------------------------
 72
   65
 73
    0
 40
0
  0
ENDTAB
  0
TABLE
  2
STYLE
  5
3
100
AcDbSymbolTable
 70
     1
  0
STYLE
  5
10
100
AcDbSymbolTableRecord
100
AcDbTextStyleTableRecord
  2
STANDARD
 70
     0
 40
0.0
 41
1.0
 50
0.0
 71
     0
 42
0.2
  3
txt
  4
bigfont.shx
  0
STYLE
  5
26
100
AcDbSymbolTableRecord
100
AcDbTextStyleTableRecord
  2
TATEGAKI
 70
    68
 40
0.0
 41
1.0
 50
0.0
 71
     0
 42
1.0
  3
txt
  4
bigfont.shx
  0
ENDTAB
  0
TABLE
  2
LAYER
 70
    3
  0
LAYER
  2
_0-0_
 70
   64
 62
    7
  6
CONTINUOUS
  0
LAYER
  2
_0-1_
 70
   64
 62
    7
  6
CONTINUOUS
  0
LAYER
  2
ADD_LINE
 70
   64
 62
    7
  6
CONTINUOUS
  0
ENDTAB
  0
ENDSEC
  0
SECTION
  2
BLOCKS
  0
ENDSEC
  0
SECTION
  2
ENTITIES
  0
LINE
  8
_0-0_
  6
CONTINUOUS
 62
    7
 10
28.146002431948091
 20
67.914648422031405
 11
5.1460024319480908
 21
67.914648422031405
  0
LINE
  8
_0-0_
  6
CONTINUOUS
 62
    7
 10
5.1460024319480908
 20
67.914648422031405
 11
5.3831904319481509
 21
58.901494422031647
  0
LINE
  8
_0-0_
  6
CONTINUOUS
 62
    7
 10
5.8830174319482467
 20
58.414648422031803
 11
27.408987431947935
 21
58.414648422031803
  0
LINE
  8
_0-0_
  6
CONTINUOUS
 62
    7
 10
26.646002431948091
 20
58.414648422031803
 11
26.646002431948091
 21
56.414648422031348
  0
LINE
  8
_0-0_
  6
CONTINUOUS
 62
    7
 10
26.646002431948091
 20
56.414648422031348
 11
6.6460024319480908
 21
56.414648422031348
  0
LINE
  8
_0-0_
  6
CONTINUOUS
 62
    7
 10
6.6460024319480908
 20
56.414648422031348
 11
6.6460024319480908
 21
58.414648422031803
  0
LINE
  8
_0-0_
  6
CONTINUOUS
 62
    7
 10
28.146002431948091
 20
67.914648422031405
 11
27.908814431948031
 21
58.901494422031647
  0
ARC
  8
_0-0_
  6
CONTINUOUS
 62
    7
 10
5.8830174319482467
 20
58.91464842203186
 40
0.5
 50
181.50743600000001
 51
270
  0
ARC
  8
_0-0_
  6
CONTINUOUS
 62
    7
 10
27.408987431947935
 20
58.91464842203186
 40
0.5
 50
270
 51
358.49256400000002
  0
CIRCLE
  8
_0-0_
  6
CONTINUOUS
 62
    7
 10
16.646002431948091
 20
16.029916011813327
 40
4.5
  0
CIRCLE
  8
_0-0_
  6
CONTINUOUS
 62
    7
 10
16.646002431948091
 20
16.029916011813327
 40
2.149999999999999
  0
CIRCLE
  8
_0-0_
  6
CONTINUOUS
 62
    7
 10
16.646002431948091
 20
16.029916011813327
 40
11.25
  0
CIRCLE
  8
_0-0_
  6
CONTINUOUS
 62
    7
 10
16.646002431948091
 20
16.029916011813327
 40
10
  0
CIRCLE
  8
_0-0_
  6
CONTINUOUS
 62
    7
 10
16.646002431948091
 20
16.029916011813327
 40
11.5
  0
LINE
  8
_0-0_
  6
CONTINUOUS
 62
    7
 10
81.825701955846625
 20
67.914648422031405
 11
58.825701955846625
 21
67.914648422031405
  0
LINE
  8
_0-0_
  6
CONTINUOUS
 62
    7
 10
58.825701955846625
 20
67.914648422031405
 11
59.062889955846686
 21
58.901494422031647
  0
LINE
  8
_0-0_
  6
CONTINUOUS
 62
    7
 10
59.562716955846781
 20
58.414648422031803
 11
81.08868695584647
 21
58.414648422031803
  0
LINE
  8
_0-0_
  6
CONTINUOUS
 62
    7
 10
80.325701955846625
 20
58.414648422031803
 11
80.325701955846625
 21
56.414648422031348
  0
LINE
  8
_0-0_
  6
CONTINUOUS
 62
    7
 10
80.325701955846625
 20
56.414648422031348
 11
60.325701955846625
 21
56.414648422031348
  0
LINE
  8
_0-0_
  6
CONTINUOUS
 62
    7
 10
60.325701955846625
 20
56.414648422031348
 11
60.325701955846625
 21
58.414648422031803
  0
LINE
  8
_0-0_
  6
CONTINUOUS
 62
    7
 10
81.825701955846625
 20
67.914648422031405
 11
81.588513955846565
 21
58.901494422031647
  0
ARC
  8
_0-0_
  6
CONTINUOUS
 62
    7
 10
59.562716955846781
 20
58.91464842203186
 40
0.5
 50
181.50743600000001
 51
270
  0
ARC
  8
_0-0_
  6
CONTINUOUS
 62
    7
 10
81.08868695584647
 20
58.91464842203186
 40
0.5
 50
270
 51
358.49256400000002
  0
CIRCLE
  8
_0-0_
  6
CONTINUOUS
 62
    7
 10
70.325701955846625
 20
16.029916011813327
 40
4.5
  0
CIRCLE
  8
_0-0_
  6
CONTINUOUS
 62
    7
 10
70.325701955846625
 20
16.029916011813327
 40
2.149999999999999
  0
CIRCLE
  8
_0-0_
  6
CONTINUOUS
 62
    7
 10
70.325701955846625
 20
16.029916011813327
 40
11.25
  0
CIRCLE
  8
_0-0_
  6
CONTINUOUS
 62
    7
 10
70.325701955846625
 20
16.029916011813327
 40
10
  0
CIRCLE
  8
_0-0_
  6
CONTINUOUS
 62
    7
 10
70.325701955846625
 20
16.029916011813327
 40
11.5
  0
LINE
  8
_0-0_
  6
CONTINUOUS
 62
    7
 10
135.50540147974527
 20
67.914648422031405
 11
112.50540147974527
 21
67.914648422031405
  0
LINE
  8
_0-0_
  6
CONTINUOUS
 62
    7
 10
112.50540147974527
 20
67.914648422031405
 11
112.74258947974533
 21
58.901494422031647
  0
LINE
  8
_0-0_
  6
CONTINUOUS
 62
    7
 10
113.24241647974543
 20
58.414648422031803
 11
134.76838647974512
 21
58.414648422031803
  0
LINE
  8
_0-0_
  6
CONTINUOUS
 62
    7
 10
134.00540147974527
 20
58.414648422031803
 11
134.00540147974527
 21
56.414648422031348
  0
LINE
  8
_0-0_
  6
CONTINUOUS
 62
    7
 10
134.00540147974527
 20
56.414648422031348
 11
114.00540147974527
 21
56.414648422031348
  0
LINE
  8
_0-0_
  6
CONTINUOUS
 62
    7
 10
114.00540147974527
 20
56.414648422031348
 11
114.00540147974527
 21
58.414648422031803
  0
LINE
  8
_0-0_
  6
CONTINUOUS
 62
    7
 10
135.50540147974527
 20
67.914648422031405
 11
135.26821347974521
 21
58.901494422031647
  0
ARC
  8
_0-0_
  6
CONTINUOUS
 62
    7
 10
113.24241647974543
 20
58.91464842203186
 40
0.5
 50
181.50743600000001
 51
270
  0
ARC
  8
_0-0_
  6
CONTINUOUS
 62
    7
 10
134.76838647974512
 20
58.91464842203186
 40
0.5
 50
270
 51
358.49256400000002
  0
CIRCLE
  8
_0-0_
  6
CONTINUOUS
 62
    7
 10
124.00540147974527
 20
16.029916011813327
 40
4.5
  0
CIRCLE
  8
_0-0_
  6
CONTINUOUS
 62
    7
 10
124.00540147974527
 20
16.029916011813327
 40
2.149999999999999
  0
CIRCLE
  8
_0-0_
  6
CONTINUOUS
 62
    7
 10
124.00540147974527
 20
16.029916011813327
 40
11.25
  0
CIRCLE
  8
_0-0_
  6
CONTINUOUS
 62
    7
 10
124.00540147974527
 20
16.029916011813327
 40
10
  0
CIRCLE
  8
_0-0_
  6
CONTINUOUS
 62
    7
 10
124.00540147974527
 20
16.029916011813327
 40
11.5
  0
CIRCLE
  8
_0-0_
  6
CONTINUOUS
 62
    7
 10
205.46812862193718
 20
16.029916011813327
 40
4.75
  0
CIRCLE
  8
_0-0_
  6
CONTINUOUS
 62
    7
 10
205.46812862193718
 20
16.029916011813327
 40
2.25
  0
CIRCLE
  8
_0-0_
  6
CONTINUOUS
 62
    7
 10
205.46812862193718
 20
16.029916011813327
 40
10
  0
LINE
  8
_0-0_
  6
CONTINUOUS
 62
    7
 10
214.46812862193673
 20
59.914648422031348
 11
196.46812862193673
 21
59.914648422031348
  0
LINE
  8
_0-0_
  6
CONTINUOUS
 62
    7
 10
195.46812862193673
 20
60.914648422031348
 11
195.46812862193673
 21
67.914648422031405
  0
LINE
  8
_0-0_
  6
CONTINUOUS
 62
    7
 10
195.46812862193673
 20
67.914648422031405
 11
215.46812862193673
 21
67.914648422031405
  0
LINE
  8
_0-0_
  6
CONTINUOUS
 62
    7
 10
215.46812862193673
 20
67.914648422031405
 11
215.46812862193673
 21
60.914648422031348
  0
ARC
  8
_0-0_
  6
CONTINUOUS
 62
    7
 10
214.46812862193673
 20
60.914648422031348
 40
1
 50
270
 51
0
  0
ARC
  8
_0-0_
  6
CONTINUOUS
 62
    7
 10
196.46812862193673
 20
60.914648422031348
 40
1
 50
180
 51
270
  0
CIRCLE
  8
_0-0_
  6
CONTINUOUS
 62
    7
 10
259.14782814583577
 20
16.029916011813327
 40
4.75
  0
CIRCLE
  8
_0-0_
  6
CONTINUOUS
 62
    7
 10
259.14782814583577
 20
16.029916011813327
 40
2.25
  0
CIRCLE
  8
_0-0_
  6
CONTINUOUS
 62
    7
 10
259.14782814583577
 20
16.029916011813327
 40
10
  0
LINE
  8
_0-0_
  6
CONTINUOUS
 62
    7
 10
268.14782814583532
 20
59.914648422031348
 11
250.14782814583532
 21
59.914648422031348
  0
LINE
  8
_0-0_
  6
CONTINUOUS
 62
    7
 10
249.14782814583532
 20
60.914648422031348
 11
249.14782814583532
 21
67.914648422031405
  0
LINE
  8
_0-0_
  6
CONTINUOUS
 62
    7
 10
249.14782814583532
 20
67.914648422031405
 11
269.14782814583532
 21
67.914648422031405
  0
LINE
  8
_0-0_
  6
CONTINUOUS
 62
    7
 10
269.14782814583532
 20
67.914648422031405
 11
269.14782814583532
 21
60.914648422031348
  0
ARC
  8
_0-0_
  6
CONTINUOUS
 62
    7
 10
268.14782814583532
 20
60.914648422031348
 40
1
 50
270
 51
0
  0
ARC
  8
_0-0_
  6
CONTINUOUS
 62
    7
 10
250.14782814583532
 20
60.914648422031348
 40
1
 50
180
 51
270
  0
CIRCLE
  8
_0-0_
  6
CONTINUOUS
 62
    7
 10
312.82752766973437
 20
16.029916011813327
 40
4.75
  0
CIRCLE
  8
_0-0_
  6
CONTINUOUS
 62
    7
 10
312.82752766973437
 20
16.029916011813327
 40
2.25
  0
CIRCLE
  8
_0-0_
  6
CONTINUOUS
 62
    7
 10
312.82752766973437
 20
16.029916011813327
 40
10
  0
LINE
  8
_0-0_
  6
CONTINUOUS
 62
    7
 10
321.82752766973391
 20
59.914648422031348
 11
303.82752766973391
 21
59.914648422031348
  0
LINE
  8
_0-0_
  6
CONTINUOUS
 62
    7
 10
302.82752766973391
 20
60.914648422031348
 11
302.82752766973391
 21
67.914648422031405
  0
LINE
  8
_0-0_
  6
CONTINUOUS
 62
    7
 10
302.82752766973391
 20
67.914648422031405
 11
322.82752766973391
 21
67.914648422031405
  0
LINE
  8
_0-0_
  6
CONTINUOUS
 62
    7
 10
322.82752766973391
 20
67.914648422031405
 11
322.82752766973391
 21
60.914648422031348
  0
ARC
  8
_0-0_
  6
CONTINUOUS
 62
    7
 10
321.82752766973391
 20
60.914648422031348
 40
1
 50
270
 51
0
  0
ARC
  8
_0-0_
  6
CONTINUOUS
 62
    7
 10
303.82752766973391
 20
60.914648422031348
 40
1
 50
180
 51
270
  0
LINE
  8
_0-0_
  6
CONTINUOUS
 62
    7
 10
73.48075295584681
 20
72.576048422031363
 11
72.607088955846621
 21
72.894038422031144
  0
LINE
  8
_0-0_
  6
CONTINUOUS
 62
    7
 10
71.923048955846525
 20
73.014648422031314
 11
68.72835595584661
 21
73.014648422031314
  0
LINE
  8
_0-0_
  6
CONTINUOUS
 62
    7
 10
68.044315955846514
 20
72.894038422031144
 11
67.170651955846779
 21
72.576048422031363
  0
ARC
  8
_0-0_
  6
CONTINUOUS
 62
    7
 10
71.923048955846525
 20
71.014648422031314
 40
2
 50
69.999999999999972
 51
90
  0
ARC
  8
_0-0_
  6
CONTINUOUS
 62
    7
 10
68.72835595584661
 20
71.014648422031314
 40
2
 50
90
 51
110
  0
ARC
  8
_0-0_
  6
CONTINUOUS
 62
    7
 10
72.625701955846807
 20
70.226818422031101
 40
2.5
 50
348.17822799457855
 51
69.999999999999929
  0
LINE
  8
_0-0_
  6
CONTINUOUS
 62
    7
 10
73.897239862639026
 20
69.714648422031132
 11
75.072675983314184
 21
69.714648422031132
  0
ARC
  8
_0-0_
  6
CONTINUOUS
 62
    7
 10
68.025701955846898
 20
70.226818422031101
 40
2.5
 50
110.00000000000003
 51
191.82177200542145
  0
LINE
  8
_0-0_
  6
CONTINUOUS
 62
    7
 10
65.578727928379521
 20
69.714648422031132
 11
66.754165049054677
 21
69.714648422031132
  0
LINE
  8
_0-0_
  6
CONTINUOUS
 62
    7
 10
67.075700862638996
 20
68.514648422031314
 11
66.754165049054677
 21
69.714648422031132
  0
LINE
  8
_0-0_
  6
CONTINUOUS
 62
    7
 10
73.897239862639026
 20
69.714648422031132
 11
73.575704049054593
 21
68.514648422031314
  0
LINE
  8
_0-0_
  6
CONTINUOUS
 62
    7
 10
67.075700862638996
 20
68.514648422031314
 11
73.575704049054593
 21
68.514648422031314
  0
LINE
  8
_0-0_
  6
CONTINUOUS
 62
    7
 10
262.30287914583596
 20
72.576048422031363
 11
261.42921514583577
 21
72.894038422031144
  0
LINE
  8
_0-0_
  6
CONTINUOUS
 62
    7
 10
260.74517514583567
 20
73.014648422031314
 11
257.55048214583576
 21
73.014648422031314
  0
LINE
  8
_0-0_
  6
CONTINUOUS
 62
    7
 10
256.86644214583566
 20
72.894038422031144
 11
255.99277814583593
 21
72.576048422031363
  0
ARC
  8
_0-0_
  6
CONTINUOUS
 62
    7
 10
260.74517514583567
 20
71.014648422031314
 40
2
 50
69.999999999999972
 51
90
  0
ARC
  8
_0-0_
  6
CONTINUOUS
 62
    7
 10
257.55048214583576
 20
71.014648422031314
 40
2
 50
90
 51
110
  0
ARC
  8
_0-0_
  6
CONTINUOUS
 62
    7
 10
261.44782814583596
 20
70.226818422031101
 40
2.5
 50
348.17822799457855
 51
69.999999999999929
  0
LINE
  8
_0-0_
  6
CONTINUOUS
 62
    7
 10
262.71936605262817
 20
69.714648422031132
 11
263.89480217330333
 21
69.714648422031132
  0
ARC
  8
_0-0_
  6
CONTINUOUS
 62
    7
 10
256.84782814583605
 20
70.226818422031101
 40
2.5
 50
110.00000000000003
 51
191.82177200542145
  0
LINE
  8
_0-0_
  6
CONTINUOUS
 62
    7
 10
254.40085411836867
 20
69.714648422031132
 11
255.57629123904377
 21
69.714648422031132
  0
LINE
  8
_0-0_
  6
CONTINUOUS
 62
    7
 10
255.89782705262809
 20
68.514648422031314
 11
255.57629123904377
 21
69.714648422031132
  0
LINE
  8
_0-0_
  6
CONTINUOUS
 62
    7
 10
262.71936605262817
 20
69.714648422031132
 11
262.39783023904374
 21
68.514648422031314
  0
LINE
  8
_0-0_
  6
CONTINUOUS
 62
    7
 10
255.89782705262809
 20
68.514648422031314
 11
262.39783023904374
 21
68.514648422031314
  0
LINE
  8
_0-0_
  6
CONTINUOUS
 62
    7
 10
127.50536577870469
 20
75.114645345496228
 11
120.50553098296484
 21
75.114671307638218
  0
LINE
  8
_0-0_
  6
CONTINUOUS
 62
    7
 10
118.91799294013379
 20
71.514648326644874
 11
119.18042362921949
 21
68.514659900436982
  0
LINE
  8
_0-0_
  6
CONTINUOUS
 62
    7
 10
120.50553098296484
 20
75.114671307638218
 11
117.32668600144495
 21
73.279406342468974
  0
LINE
  8
_0-0_
  6
CONTINUOUS
 62
    7
 10
117.00544750781989
 20
71.514648326644874
 11
118.91799294013379
 21
71.514648326644874
  0
LINE
  8
_0-0_
  6
CONTINUOUS
 62
    7
 10
117.32668600144495
 20
73.279406342468974
 11
117.00544750781989
 21
71.514648326644874
  0
LINE
  8
_0-0_
  6
CONTINUOUS
 62
    7
 10
129.09288328757873
 20
71.514648326644874
 11
128.83037933023286
 21
68.514626752859385
  0
LINE
  8
_0-0_
  6
CONTINUOUS
 62
    7
 10
119.18042362921949
 20
68.514659900436982
 11
128.83037933023286
 21
68.514626752859385
  0
LINE
  8
_0-0_
  6
CONTINUOUS
 62
    7
 10
127.50528383267454
 20
75.114671307638218
 11
130.68412881419442
 21
73.279406342468974
  0
LINE
  8
_0-0_
  6
CONTINUOUS
 62
    7
 10
131.00536730781948
 20
71.514648326644874
 11
129.09282187550559
 21
71.514648326644874
  0
LINE
  8
_0-0_
  6
CONTINUOUS
 62
    7
 10
130.68412881419442
 20
73.279406342468974
 11
131.00536730781948
 21
71.514648326644874
  0
LINE
  8
_0-0_
  6
CONTINUOUS
 62
    7
 10
307.74011913012288
 20
71.514648326644874
 11
308.00254981920858
 21
68.514659900436982
  0
LINE
  8
_0-0_
  6
CONTINUOUS
 62
    7
 10
309.32765717295393
 20
75.114671307638218
 11
306.14881219143405
 21
73.279406342468974
  0
LINE
  8
_0-0_
  6
CONTINUOUS
 62
    7
 10
305.82757369780899
 20
71.514648326644874
 11
307.74011913012288
 21
71.514648326644874
  0
LINE
  8
_0-0_
  6
CONTINUOUS
 62
    7
 10
306.14881219143405
 20
73.279406342468974
 11
305.82757369780899
 21
71.514648326644874
  0
LINE
  8
_0-0_
  6
CONTINUOUS
 62
    7
 10
317.91500947756782
 20
71.514648326644874
 11
317.65250552022195
 21
68.514626752859385
  0
LINE
  8
_0-0_
  6
CONTINUOUS
 62
    7
 10
308.00254981920858
 20
68.514659900436982
 11
317.65250552022195
 21
68.514626752859385
  0
LINE
  8
_0-0_
  6
CONTINUOUS
 62
    7
 10
316.32741002266363
 20
75.114671307638218
 11
319.50625500418352
 21
73.279406342468974
  0
LINE
  8
_0-0_
  6
CONTINUOUS
 62
    7
 10
319.82749349780858
 20
71.514648326644874
 11
317.91494806549468
 21
71.514648326644874
  0
LINE
  8
_0-0_
  6
CONTINUOUS
 62
    7
 10
319.50625500418352
 20
73.279406342468974
 11
319.82749349780858
 21
71.514648326644874
  0
LINE
  8
_0-0_
  6
CONTINUOUS
 62
    7
 10
68.325701955846625
 20
68.514648422031314
 11
68.325701955846625
 21
67.914648422031405
  0
LINE
  8
_0-0_
  6
CONTINUOUS
 62
    7
 10
68.62570190816291
 20
68.514648422031314
 11
68.62570190816291
 21
67.914648422031405
  0
LINE
  8
_0-0_
  6
CONTINUOUS
 62
    7
 10
72.025702003530341
 20
68.514648422031314
 11
72.025702003530341
 21
67.914648422031405
  0
LINE
  8
_0-0_
  6
CONTINUOUS
 62
    7
 10
72.325701955846625
 20
68.514648422031314
 11
72.325701955846625
 21
67.914648422031405
  0
LINE
  8
_0-0_
  6
CONTINUOUS
 62
    7
 10
122.00540147974527
 20
68.51465019664397
 11
122.00540147974527
 21
67.914648422031405
  0
LINE
  8
_0-0_
  6
CONTINUOUS
 62
    7
 10
122.30540143206156
 20
68.51464916614475
 11
122.30540143206156
 21
67.914648422031405
  0
LINE
  8
_0-0_
  6
CONTINUOUS
 62
    7
 10
125.70540152742899
 20
68.51463748715156
 11
125.70540152742899
 21
67.914648422031405
  0
LINE
  8
_0-0_
  6
CONTINUOUS
 62
    7
 10
126.00540147974527
 20
68.51463645665234
 11
126.00540147974527
 21
67.914648422031405
  0
LINE
  8
_0-0_
  6
CONTINUOUS
 62
    7
 10
122.00540147974527
 20
75.614648231296542
 11
122.00540147974527
 21
75.1146509088112
  0
LINE
  8
_0-0_
  6
CONTINUOUS
 62
    7
 10
122.30540143206156
 20
75.914648422031405
 11
122.00540147974527
 21
75.614648231296542
  0
LINE
  8
_0-0_
  6
CONTINUOUS
 62
    7
 10
122.30540143206156
 20
75.914648422031405
 11
125.70540152742899
 21
75.914648422031405
  0
LINE
  8
_0-0_
  6
CONTINUOUS
 62
    7
 10
126.00540147974527
 20
75.614648231296542
 11
126.00540147974527
 21
75.1146509088112
  0
LINE
  8
_0-0_
  6
CONTINUOUS
 62
    7
 10
126.00540147974527
 20
75.614648231296542
 11
125.70540152742899
 21
75.914648422031405
  0
LINE
  8
_0-0_
  6
CONTINUOUS
 62
    7
 10
311.12752762205065
 20
75.914648422031405
 11
310.82752766973437
 21
75.614648231296542
  0
LINE
  8
_0-0_
  6
CONTINUOUS
 62
    7
 10
314.52752771741808
 20
75.914648422031405
 11
311.12752762205065
 21
75.914648422031405
  0
LINE
  8
_0-0_
  6
CONTINUOUS
 62
    7
 10
314.52752771741808
 20
75.914648422031405
 11
314.82752766973437
 21
75.614648231296542
  0
LINE
  8
_0-0_
  6
CONTINUOUS
 62
    7
 10
314.82752766973437
 20
75.1146509088112
 11
314.82752766973437
 21
75.614648231296542
  0
LINE
  8
_0-0_
  6
CONTINUOUS
 62
    7
 10
310.82752766973437
 20
67.914648422031405
 11
310.82752766973437
 21
68.51465019664397
  0
LINE
  8
_0-0_
  6
CONTINUOUS
 62
    7
 10
311.12752762205065
 20
67.914648422031405
 11
311.12752762205065
 21
68.51464916614475
  0
LINE
  8
_0-0_
  6
CONTINUOUS
 62
    7
 10
314.52752771741808
 20
67.914648422031405
 11
314.52752771741808
 21
68.51463748715156
  0
LINE
  8
_0-0_
  6
CONTINUOUS
 62
    7
 10
314.82752766973437
 20
67.914648422031405
 11
314.82752766973437
 21
68.51463645665234
  0
LINE
  8
_0-0_
  6
CONTINUOUS
 62
    7
 10
257.14782814583577
 20
67.914648422031405
 11
257.14782814583577
 21
68.514648422031314
  0
LINE
  8
_0-0_
  6
CONTINUOUS
 62
    7
 10
257.44782809815206
 20
67.914648422031405
 11
257.44782809815206
 21
68.514648422031314
  0
LINE
  8
_0-0_
  6
CONTINUOUS
 62
    7
 10
260.84782819351949
 20
67.914648422031405
 11
260.84782819351949
 21
68.514648422031314
  0
LINE
  8
_0-0_
  6
CONTINUOUS
 62
    7
 10
261.14782814583577
 20
67.914648422031405
 11
261.14782814583577
 21
68.514648422031314
  0
LINE
  8
_0-0_
  6
CONTINUOUS
 62
    7
 10
310.82752766973437
 20
75.1146509088112
 11
310.82752766973437
 21
75.614648231296542
  0
LINE
  8
_0-0_
  6
CONTINUOUS
 62
    7
 10
316.32749196869378
 20
75.114645345496228
 11
309.32765717295393
 21
75.114671307638218
  0
LINE
  8
_0-1_
  6
DASHED2
 62
  152
 10
12.146002431948091
 20
56.414648422031348
 11
12.146002431948091
 21
63.914648422031405
  0
LINE
  8
_0-1_
  6
DASHED2
 62
  152
 10
12.146002431948091
 20
63.914648422031405
 11
21.146002431948091
 21
63.914648422031405
  0
LINE
  8
_0-1_
  6
DASHED2
 62
  152
 10
21.146002431948091
 20
63.914648422031405
 11
21.146002431948091
 21
56.414648422031348
  0
LINE
  8
_0-1_
  6
CENTER1
 62
  152
 10
16.646002431948091
 20
53.414648422031803
 11
16.646002431948091
 21
70.914648422032315
  0
LINE
  8
_0-1_
  6
DASHED2
 62
  152
 10
14.496002431948
 20
67.914648422031405
 11
14.496002431948
 21
63.914648422031405
  0
LINE
  8
_0-1_
  6
DASHED2
 62
  152
 10
18.796002431948182
 20
63.914648422031405
 11
18.796002431948182
 21
67.914648422031405
  0
LINE
  8
_0-1_
  6
CENTER1
 62
  152
 10
16.646002431948091
 20
30.529916011813327
 11
16.646002431948091
 21
1.5299160118128725
  0
LINE
  8
_0-1_
  6
CENTER1
 62
  152
 10
2.1460024319480908
 20
16.029916011813327
 11
31.146002431948091
 21
16.029916011813327
  0
LINE
  8
_0-1_
  6
DASHED2
 62
  152
 10
65.825701955846625
 20
56.414648422031348
 11
65.825701955846625
 21
63.914648422031405
  0
LINE
  8
_0-1_
  6
DASHED2
 62
  152
 10
65.825701955846625
 20
63.914648422031405
 11
74.825701955846625
 21
63.914648422031405
  0
LINE
  8
_0-1_
  6
DASHED2
 62
  152
 10
74.825701955846625
 20
63.914648422031405
 11
74.825701955846625
 21
56.414648422031348
  0
LINE
  8
_0-1_
  6
DASHED2
 62
  152
 10
68.175701955846534
 20
67.914648422031405
 11
68.175701955846534
 21
63.914648422031405
  0
LINE
  8
_0-1_
  6
DASHED2
 62
  152
 10
72.475701955846716
 20
63.914648422031405
 11
72.475701955846716
 21
67.914648422031405
  0
LINE
  8
_0-1_
  6
CENTER1
 62
  152
 10
70.325701955846625
 20
30.529916011813327
 11
70.325701955846625
 21
1.5299160118128725
  0
LINE
  8
_0-1_
  6
CENTER1
 62
  152
 10
55.825701955846625
 20
16.029916011813327
 11
84.825701955846682
 21
16.029916011813327
  0
LINE
  8
_0-1_
  6
DASHED2
 62
  152
 10
119.50540147974527
 20
56.414648422031348
 11
119.50540147974527
 21
63.914648422031405
  0
LINE
  8
_0-1_
  6
DASHED2
 62
  152
 10
119.50540147974527
 20
63.914648422031405
 11
128.50540147974527
 21
63.914648422031405
  0
LINE
  8
_0-1_
  6
DASHED2
 62
  152
 10
128.50540147974527
 20
63.914648422031405
 11
128.50540147974527
 21
56.414648422031348
  0
LINE
  8
_0-1_
  6
DASHED2
 62
  152
 10
121.85540147974518
 20
67.914648422031405
 11
121.85540147974518
 21
63.914648422031405
  0
LINE
  8
_0-1_
  6
DASHED2
 62
  152
 10
126.15540147974536
 20
63.914648422031405
 11
126.15540147974536
 21
67.914648422031405
  0
LINE
  8
_0-1_
  6
CENTER1
 62
  152
 10
124.00540147974527
 20
30.529916011813327
 11
124.00540147974527
 21
1.5299160118128725
  0
LINE
  8
_0-1_
  6
CENTER1
 62
  152
 10
109.50540147974527
 20
16.029916011813327
 11
138.50540147974527
 21
16.029916011813327
  0
LINE
  8
_0-1_
  6
CENTER1
 62
  152
 10
195.46812862193673
 20
16.029916011813327
 11
215.46812862193673
 21
16.029916011813327
  0
LINE
  8
ADD_LINE
  6
DOT
 62
  152
 10
215.46812862193673
 20
16.029916011813327
 11
195.46812862193673
 21
16.029916011813327
  0
LINE
  8
_0-1_
  6
CENTER1
 62
  152
 10
205.46812862193718
 20
26.029916011813327
 11
205.46812862193718
 21
6.0299160118128725
  0
LINE
  8
ADD_LINE
  6
DOT
 62
  152
 10
205.46812862193718
 20
6.0299160118128725
 11
205.46812862193718
 21
26.029916011813327
  0
LINE
  8
_0-1_
  6
CENTER1
 62
  152
 10
205.46812862193718
 20
58.10637112399894
 11
205.46812862193718
 21
70.140633393573353
  0
LINE
  8
_0-1_
  6
DASHED2
 62
  152
 10
207.71812862193718
 20
67.914648422031405
 11
207.71812862193718
 21
63.914648422031405
  0
LINE
  8
_0-1_
  6
DASHED2
 62
  152
 10
210.21812862193673
 20
63.914648422031405
 11
210.21812862193673
 21
59.914648422031348
  0
LINE
  8
_0-1_
  6
DASHED2
 62
  152
 10
211.21812862193673
 20
63.914648422031405
 11
199.71812862193673
 21
63.914648422031405
  0
LINE
  8
_0-1_
  6
DASHED2
 62
  152
 10
199.71812862193673
 20
63.914648422031405
 11
199.71812862193673
 21
64.714648422031132
  0
LINE
  8
_0-1_
  6
DASHED2
 62
  152
 10
199.71812862193673
 20
64.714648422031132
 11
211.21812862193673
 21
64.714648422031132
  0
LINE
  8
_0-1_
  6
DASHED2
 62
  152
 10
211.21812862193673
 20
64.714648422031132
 11
211.21812862193673
 21
63.914648422031405
  0
LINE
  8
_0-1_
  6
DASHED2
 62
  152
 10
203.21812862193673
 20
63.914648422031405
 11
203.21812862193673
 21
67.914648422031405
  0
LINE
  8
_0-1_
  6
DASHED2
 62
  152
 10
200.71812862193673
 20
63.914648422031405
 11
200.71812862193673
 21
59.914648422031348
  0
TEXT
  8
_0-1_
 62
    7
 10
195.33972743366041
 20
50.336971084975346
 40
5
 41
1
 50
0
  1
AJRF-CK
  0
LINE
  8
_0-1_
  6
CENTER1
 62
  152
 10
249.14782814583532
 20
16.029916011813327
 11
269.14782814583532
 21
16.029916011813327
  0
LINE
  8
ADD_LINE
  6
DOT
 62
  152
 10
269.14782814583532
 20
16.029916011813327
 11
249.14782814583532
 21
16.029916011813327
  0
LINE
  8
_0-1_
  6
CENTER1
 62
  152
 10
259.14782814583577
 20
26.029916011813327
 11
259.14782814583577
 21
6.0299160118128725
  0
LINE
  8
ADD_LINE
  6
DOT
 62
  152
 10
259.14782814583577
 20
6.0299160118128725
 11
259.14782814583577
 21
26.029916011813327
  0
LINE
  8
_0-1_
  6
DASHED2
 62
  152
 10
261.39782814583577
 20
67.914648422031405
 11
261.39782814583577
 21
63.914648422031405
  0
LINE
  8
_0-1_
  6
DASHED2
 62
  152
 10
263.89782814583532
 20
63.914648422031405
 11
263.89782814583532
 21
59.914648422031348
  0
LINE
  8
_0-1_
  6
DASHED2
 62
  152
 10
264.89782814583532
 20
63.914648422031405
 11
253.39782814583532
 21
63.914648422031405
  0
LINE
  8
_0-1_
  6
DASHED2
 62
  152
 10
253.39782814583532
 20
63.914648422031405
 11
253.39782814583532
 21
64.714648422031132
  0
LINE
  8
_0-1_
  6
DASHED2
 62
  152
 10
253.39782814583532
 20
64.714648422031132
 11
264.89782814583532
 21
64.714648422031132
  0
LINE
  8
_0-1_
  6
DASHED2
 62
  152
 10
264.89782814583532
 20
64.714648422031132
 11
264.89782814583532
 21
63.914648422031405
  0
LINE
  8
_0-1_
  6
DASHED2
 62
  152
 10
256.89782814583532
 20
63.914648422031405
 11
256.89782814583532
 21
67.914648422031405
  0
LINE
  8
_0-1_
  6
DASHED2
 62
  152
 10
254.39782814583532
 20
63.914648422031405
 11
254.39782814583532
 21
59.914648422031348
  0
LINE
  8
_0-1_
  6
CENTER1
 62
  152
 10
302.82752766973391
 20
16.029916011813327
 11
322.82752766973391
 21
16.029916011813327
  0
LINE
  8
ADD_LINE
  6
DOT
 62
  152
 10
322.82752766973391
 20
16.029916011813327
 11
302.82752766973391
 21
16.029916011813327
  0
LINE
  8
_0-1_
  6
CENTER1
 62
  152
 10
312.82752766973437
 20
26.029916011813327
 11
312.82752766973437
 21
6.0299160118128725
  0
LINE
  8
ADD_LINE
  6
DOT
 62
  152
 10
312.82752766973437
 20
6.0299160118128725
 11
312.82752766973437
 21
26.029916011813327
  0
LINE
  8
_0-1_
  6
DASHED2
 62
  152
 10
315.07752766973437
 20
67.914648422031405
 11
315.07752766973437
 21
63.914648422031405
  0
LINE
  8
_0-1_
  6
DASHED2
 62
  152
 10
317.57752766973391
 20
63.914648422031405
 11
317.57752766973391
 21
59.914648422031348
  0
LINE
  8
_0-1_
  6
DASHED2
 62
  152
 10
318.57752766973391
 20
63.914648422031405
 11
307.07752766973391
 21
63.914648422031405
  0
LINE
  8
_0-1_
  6
DASHED2
 62
  152
 10
307.07752766973391
 20
63.914648422031405
 11
307.07752766973391
 21
64.714648422031132
  0
LINE
  8
_0-1_
  6
DASHED2
 62
  152
 10
307.07752766973391
 20
64.714648422031132
 11
318.57752766973391
 21
64.714648422031132
  0
LINE
  8
_0-1_
  6
DASHED2
 62
  152
 10
318.57752766973391
 20
64.714648422031132
 11
318.57752766973391
 21
63.914648422031405
  0
LINE
  8
_0-1_
  6
DASHED2
 62
  152
 10
310.57752766973391
 20
63.914648422031405
 11
310.57752766973391
 21
67.914648422031405
  0
LINE
  8
_0-1_
  6
DASHED2
 62
  152
 10
308.07752766973391
 20
63.914648422031405
 11
308.07752766973391
 21
59.914648422031348
  0
TEXT
  8
_0-1_
 62
    7
 10
249.01942695755901
 20
50.336971084975346
 40
5
 41
1
 50
0
  1
AJRF-CK25
  0
TEXT
  8
_0-1_
 62
    7
 10
302.6991264814576
 20
50.336971084975346
 40
5
 41
1
 50
0
  1
AJRF-CK40
  0
LINE
  8
_0-1_
  6
DASHED2
 62
  152
 10
259.14782814583577
 20
63.914648422031405
 11
258.44072136464911
 21
64.621755203218072
  0
LINE
  8
_0-1_
  6
DASHED2
 62
  152
 10
259.14782814583577
 20
63.914648422031405
 11
259.85493492702244
 21
64.621755203218072
  0
LINE
  8
_0-1_
  6
DASHED2
 62
  152
 10
262.54989199242391
 20
62.79523325803757
 11
262.64782814583577
 21
63.914648422031405
  0
LINE
  8
_0-1_
  6
DASHED2
 62
  152
 10
255.74576429924764
 20
62.79523325803757
 11
255.64782814583577
 21
63.914648422031405
  0
ARC
  8
_0-1_
  6
DASHED2
 62
  152
 10
261.2548389872054
 20
62.90853572729111
 40
1.2999999523162842
 50
285.88084411621094
 51
354.99998474121094
  0
ARC
  8
_0-1_
  6
DASHED2
 62
  152
 10
257.04081730446615
 20
62.90853572729111
 40
1.2999999523162842
 50
185
 51
254.119140625
  0
ARC
  8
_0-1_
  6
DASHED2
 62
  152
 10
259.14782814583577
 20
70.314648517398837
 40
9
 50
254.119140625
 51
285.88084411621094
  0
LINE
  8
_0-1_
  6
DASHED2
 62
  152
 10
312.82752766973437
 20
63.914648422031405
 11
312.1204208885477
 21
64.621755203218072
  0
LINE
  8
_0-1_
  6
DASHED2
 62
  152
 10
312.82752766973437
 20
63.914648422031405
 11
313.53463445092103
 21
64.621755203218072
  0
LINE
  8
_0-1_
  6
DASHED2
 62
  152
 10
316.2295915163225
 20
62.79523325803757
 11
316.32752766973437
 21
63.914648422031405
  0
LINE
  8
_0-1_
  6
DASHED2
 62
  152
 10
309.42546382314623
 20
62.79523325803757
 11
309.32752766973437
 21
63.914648422031405
  0
ARC
  8
_0-1_
  6
DASHED2
 62
  152
 10
314.93453851110399
 20
62.90853572729111
 40
1.2999999523162842
 50
285.88084411621094
 51
354.99998474121094
  0
ARC
  8
_0-1_
  6
DASHED2
 62
  152
 10
310.72051682836474
 20
62.90853572729111
 40
1.2999999523162842
 50
185
 51
254.119140625
  0
ARC
  8
_0-1_
  6
DASHED2
 62
  152
 10
312.82752766973437
 20
70.314648517398837
 40
9
 50
254.119140625
 51
285.88084411621094
  0
LINE
  8
_0-1_
  6
CENTER1
 62
  152
 10
259.14782814583577
 20
58.10637112399894
 11
259.14782814583577
 21
72.757148441563686
  0
LINE
  8
_0-1_
  6
DASHED2
 62
  152
 10
260.84782819351949
 20
63.914648422031405
 11
260.84782819351949
 21
71.914648422031405
  0
LINE
  8
_0-1_
  6
DASHED2
 62
  152
 10
257.44782809815206
 20
63.914648422031405
 11
257.44782809815206
 21
71.914648422031405
  0
LINE
  8
_0-1_
  6
DASHED2
 62
  152
 10
261.14782814583577
 20
71.614648231296542
 11
257.14782814583577
 21
71.614648231296542
  0
LINE
  8
_0-1_
  6
DASHED2
 62
  152
 10
257.14782814583577
 20
63.914648422031405
 11
257.14782814583577
 21
71.614648231296542
  0
LINE
  8
_0-1_
  6
DASHED2
 62
  152
 10
257.44782809815206
 20
71.914648422031405
 11
257.14782814583577
 21
71.614648231296542
  0
LINE
  8
_0-1_
  6
DASHED2
 62
  152
 10
260.84782819351949
 20
71.914648422031405
 11
257.44782809815206
 21
71.914648422031405
  0
LINE
  8
_0-1_
  6
DASHED2
 62
  152
 10
260.84782819351949
 20
71.914648422031405
 11
261.14782814583577
 21
71.614648231296542
  0
LINE
  8
_0-1_
  6
DASHED2
 62
  152
 10
261.14782814583577
 20
63.914648422031405
 11
261.14782814583577
 21
71.614648231296542
  0
LINE
  8
_0-1_
  6
DASHED2
 62
  152
 10
124.00540147974527
 20
63.914648422031405
 11
123.29829469855861
 21
64.621755203217958
  0
LINE
  8
_0-1_
  6
DASHED2
 62
  152
 10
124.00540147974527
 20
63.914648422031405
 11
124.71250826093194
 21
64.621755203217958
  0
LINE
  8
_0-1_
  6
DASHED2
 62
  152
 10
122.83873485281504
 20
60.414648422031405
 11
122.83873485281504
 21
63.914648422031405
  0
LINE
  8
_0-1_
  6
DASHED2
 62
  152
 10
122.25540147974527
 20
60.414648422031405
 11
122.25540147974527
 21
63.914648422031405
  0
LINE
  8
_0-1_
  6
DASHED2
 62
  152
 10
121.6720682258848
 20
60.414648422031405
 11
121.6720682258848
 21
63.914648422031405
  0
LINE
  8
_0-1_
  6
DASHED2
 62
  152
 10
121.08873473360575
 20
60.414648422031405
 11
121.08873473360575
 21
63.914648422031405
  0
LINE
  8
_0-1_
  6
DASHED2
 62
  152
 10
127.50540147974527
 20
60.414648422031405
 11
127.50540147974527
 21
63.914648422031405
  0
LINE
  8
_0-1_
  6
DASHED2
 62
  152
 10
127.50540147974527
 20
60.414648422031405
 11
127.00540147974527
 21
59.914648422031405
  0
LINE
  8
_0-1_
  6
DASHED2
 62
  152
 10
121.00540147974527
 20
59.914648422031405
 11
127.00540147974527
 21
59.914648422031405
  0
LINE
  8
_0-1_
  6
DASHED2
 62
  152
 10
120.50540147974527
 20
60.414648422031405
 11
120.50540147974527
 21
63.914648422031405
  0
LINE
  8
_0-1_
  6
DASHED2
 62
  152
 10
121.00540147974527
 20
59.914648422031405
 11
120.50540147974527
 21
60.414648422031405
  0
LINE
  8
_0-1_
  6
DASHED2
 62
  152
 10
127.50540147974527
 20
60.414648422031405
 11
120.50540147974527
 21
60.414648422031405
  0
LINE
  8
_0-1_
  6
DASHED2
 62
  152
 10
70.325701955846625
 20
63.914648422031405
 11
69.618595174659959
 21
64.621755203217958
  0
LINE
  8
_0-1_
  6
DASHED2
 62
  152
 10
70.325701955846625
 20
63.914648422031405
 11
71.032808737033292
 21
64.621755203217958
  0
LINE
  8
_0-1_
  6
DASHED2
 62
  152
 10
69.159035328916389
 20
60.414648422031405
 11
69.159035328916389
 21
63.914648422031405
  0
LINE
  8
_0-1_
  6
DASHED2
 62
  152
 10
68.575701955846625
 20
60.414648422031405
 11
68.575701955846625
 21
63.914648422031405
  0
LINE
  8
_0-1_
  6
DASHED2
 62
  152
 10
67.992368701986152
 20
60.414648422031405
 11
67.992368701986152
 21
63.914648422031405
  0
LINE
  8
_0-1_
  6
DASHED2
 62
  152
 10
67.409035209707099
 20
60.414648422031405
 11
67.409035209707099
 21
63.914648422031405
  0
LINE
  8
_0-1_
  6
DASHED2
 62
  152
 10
72.025702003530341
 20
63.914648422031405
 11
72.025702003530341
 21
71.914648422031405
  0
LINE
  8
_0-1_
  6
DASHED2
 62
  152
 10
68.62570190816291
 20
63.914648422031405
 11
68.62570190816291
 21
71.914648422031405
  0
LINE
  8
_0-1_
  6
DASHED2
 62
  152
 10
73.825701955846625
 20
60.414648422031405
 11
73.825701955846625
 21
63.914648422031405
  0
LINE
  8
_0-1_
  6
DASHED2
 62
  152
 10
73.825701955846625
 20
60.414648422031405
 11
73.325701955846625
 21
59.914648422031405
  0
LINE
  8
_0-1_
  6
DASHED2
 62
  152
 10
67.325701955846625
 20
59.914648422031405
 11
73.325701955846625
 21
59.914648422031405
  0
LINE
  8
_0-1_
  6
DASHED2
 62
  152
 10
66.825701955846625
 20
60.414648422031405
 11
66.825701955846625
 21
63.914648422031405
  0
LINE
  8
_0-1_
  6
DASHED2
 62
  152
 10
67.325701955846625
 20
59.914648422031405
 11
66.825701955846625
 21
60.414648422031405
  0
LINE
  8
_0-1_
  6
DASHED2
 62
  152
 10
73.825701955846625
 20
60.414648422031405
 11
66.825701955846625
 21
60.414648422031405
  0
LINE
  8
_0-1_
  6
DASHED2
 62
  152
 10
72.325701955846625
 20
71.614648231296542
 11
72.325701955846625
 21
63.914648422031405
  0
LINE
  8
_0-1_
  6
DASHED2
 62
  152
 10
68.62570190816291
 20
71.914648422031405
 11
72.025702003530341
 21
71.914648422031405
  0
LINE
  8
_0-1_
  6
DASHED2
 62
  152
 10
68.325701955846625
 20
71.614648231296542
 11
68.325701955846625
 21
63.914648422031405
  0
LINE
  8
_0-1_
  6
DASHED2
 62
  152
 10
72.325701955846625
 20
71.614648231296542
 11
72.025702003530341
 21
71.914648422031405
  0
LINE
  8
_0-1_
  6
DASHED2
 62
  152
 10
68.62570190816291
 20
71.914648422031405
 11
68.325701955846625
 21
71.614648231296542
  0
LINE
  8
_0-1_
  6
DASHED2
 62
  152
 10
72.325701955846625
 20
71.614648231296542
 11
68.325701955846625
 21
71.614648231296542
  0
LINE
  8
_0-1_
  6
CENTER1
 62
  152
 10
70.325701955846625
 20
53.414648422031803
 11
70.325701955846625
 21
73.08515777030118
  0
LINE
  8
ADD_LINE
  6
DOT
 62
  152
 10
70.325701955846625
 20
67.914648422031405
 11
71.032808737014193
 21
68.621755203198859
  0
LINE
  8
ADD_LINE
  6
DOT
 62
  152
 10
69.618595174640859
 20
68.621755203198859
 11
70.325701955827526
 21
67.914648422012192
  0
LINE
  8
ADD_LINE
  6
DOT
 62
  152
 10
259.14782814583577
 20
67.914648422031405
 11
259.85493492700334
 21
68.621755203198859
  0
LINE
  8
ADD_LINE
  6
DOT
 62
  152
 10
258.44072136463001
 20
68.621755203198859
 11
259.14782814581667
 21
67.914648422012192
  0
LINE
  8
ADD_LINE
  6
DOT
 62
  152
 10
124.00540147974527
 20
67.914648422031405
 11
124.71250826091284
 21
68.621755203198973
  0
LINE
  8
ADD_LINE
  6
DOT
 62
  152
 10
123.29829469853951
 20
68.621755203198973
 11
124.00540147972617
 21
67.914648422012306
  0
LINE
  8
ADD_LINE
  6
DOT
 62
  152
 10
312.82752766973437
 20
67.914648422031405
 11
313.53463445090193
 21
68.621755203198973
  0
LINE
  8
ADD_LINE
  6
DOT
 62
  152
 10
312.1204208885286
 20
68.621755203198973
 11
312.82752766971527
 21
67.914648422012306
  0
LINE
  8
_0-1_
  6
CENTER1
 62
  152
 10
124.00540147974527
 20
53.414648422031803
 11
124.00540147974527
 21
75.1146509088112
  0
LINE
  8
_0-1_
  6
DASHED2
 62
  152
 10
125.70540152742899
 20
63.914648422031405
 11
125.70540152742899
 21
75.1146509088112
  0
LINE
  8
_0-1_
  6
DASHED2
 62
  152
 10
122.30540143206156
 20
63.914648422031405
 11
122.30540143206156
 21
75.1146509088112
  0
LINE
  8
_0-1_
  6
DASHED2
 62
  152
 10
126.00540147974527
 20
75.1146509088112
 11
126.00540147974527
 21
63.914648422031405
  0
LINE
  8
_0-1_
  6
DASHED2
 62
  152
 10
122.00540147974527
 20
75.1146509088112
 11
122.00540147974527
 21
63.914648422031405
  0
LINE
  8
_0-1_
  6
CENTER1
 62
  152
 10
124.00540147974527
 20
75.1146509088112
 11
124.00540147974527
 21
76.948992252827679
  0
LINE
  8
_0-1_
  6
CONTINUOUS
 62
  152
 10
126.00540147974527
 20
75.614648231296542
 11
122.00540147974527
 21
75.614648231296542
  0
LINE
  8
_0-1_
  6
CONTINUOUS
 62
  152
 10
122.30540143206156
 20
75.1146509088112
 11
122.30540143206156
 21
75.914648422031405
  0
LINE
  8
_0-1_
  6
CONTINUOUS
 62
  152
 10
125.70540152742899
 20
75.1146509088112
 11
125.70540152742899
 21
75.914648422031405
  0
LINE
  8
_0-1_
  6
CENTER1
 62
  152
 10
312.82752766973437
 20
58.10637112399894
 11
312.82752766973437
 21
75.1146509088112
  0
LINE
  8
_0-1_
  6
DASHED2
 62
  152
 10
314.52752771741808
 20
63.914648422031405
 11
314.52752771741808
 21
75.1146509088112
  0
LINE
  8
_0-1_
  6
DASHED2
 62
  152
 10
311.12752762205065
 20
63.914648422031405
 11
311.12752762205065
 21
75.1146509088112
  0
LINE
  8
_0-1_
  6
DASHED2
 62
  152
 10
310.82752766973437
 20
63.914648422031405
 11
310.82752766973437
 21
75.1146509088112
  0
LINE
  8
_0-1_
  6
DASHED2
 62
  152
 10
314.82752766973437
 20
63.914648422031405
 11
314.82752766973437
 21
75.1146509088112
  0
LINE
  8
_0-1_
  6
CENTER1
 62
  152
 10
312.82752766973437
 20
75.1146509088112
 11
312.82752766973437
 21
77.088324220984646
  0
LINE
  8
_0-1_
  6
CONTINUOUS
 62
  152
 10
314.82752766973437
 20
75.614648231296542
 11
310.82752766973437
 21
75.614648231296542
  0
LINE
  8
_0-1_
  6
CONTINUOUS
 62
  152
 10
311.12752762205065
 20
75.1146509088112
 11
311.12752762205065
 21
75.914648422031405
  0
LINE
  8
_0-1_
  6
CONTINUOUS
 62
  152
 10
314.52752771741808
 20
75.1146509088112
 11
314.52752771741808
 21
75.914648422031405
  0
TEXT
  8
_0-1_
 62
    7
 10
6.6876147035807207
 20
45.77663134129341
 40
5
 41
1
 50
0
  1
AJPF-TM
  0
TEXT
  8
_0-1_
 62
    7
 10
60.367314227479255
 20
45.77663134129341
 40
5
 41
1
 50
0
  1
AJPF-TM25
  0
TEXT
  8
_0-1_
 62
    7
 10
114.0470137513779
 20
45.77663134129341
 40
5
 41
1
 50
0
  1
AJPF-TM40
  0
ENDSEC
  0
EOF
