  0
SECTION
  2
HEADER
  9
$ACADVER
  1
AC1009
  9
$INSBASE
 10
0
 20
0
 30
0
  9
$EXTMIN
 10
0
 20
0
  9
$EXTMAX
 10
1189
 20
841
  9
$LIMMIN
 10
0
 20
0
  9
$LIMMAX
 10
1189
 20
841
  9
$LTSCALE
 40
1
  0
ENDSEC
  0
SECTION
  2
TABLES
  0
TABLE
  2
LTYPE
 70
     9
  0
LTYPE
  2
CONTINUOUS
 70
    64
  3
実線
 72
    65
 73
     0
 40
0.0
  0
LTYPE
  2
DASHED1
 70
    64
  3
--  --  --  --  --  --  --  --  
 72
    65
 73
     2
 40
2.5
 49
1.25
 49
-1.25
  0
LTYPE
  2
DASHED2
 70
    64
  3
----    ----    ----    ----    
 72
    65
 73
     2
 40
5.0
 49
2.5
 49
-2.5
  0
LTYPE
  2
DASHED3
 70
    64
  3
------  ------  ------  ------  
 72
    65
 73
     2
 40
5.0
 49
3.75
 49
-1.25
  0
LTYPE
  2
CENTER1
 70
    64
  3
----- - ----- - ----- - ----- - 
 72
    65
 73
     4
 40
10.0
 49
6.25
 49
-1.25
 49
1.25
 49
-1.25
  0
LTYPE
  2
CENTER2
 70
    64
  3
----------  --  ----------  --  
 72
    65
 73
     4
 40
20.0
 49
12.5
 49
-2.5
 49
2.5
 49
-2.5
  0
LTYPE
  2
PHANTOM1
 70
    64
  3
--- - - --- - - --- - - --- - - 
 72
    65
 73
     6
 40
10.0
 49
3.25
 49
-1.25
 49
1.25
 49
-1.25
 49
1.25
 49
-1.25
  0
LTYPE
  2
PHANTOM2
 70
    64
  3
--------  -  -  --------  -  -  
 72
    65
 73
     6
 40
20.0
 49
10.0
 49
-2.5
 49
1.25
 49
-2.5
 49
1.25
 49
-2.5
  0
LTYPE
  2
DOT
 70
    64
  3
-   -   -   -   -   -   -   -   
 72
    65
 73
     2
 40
2.5
 49
0.625
 49
-1.875
  0
LTYPE
  2
DUMMY
 70
    64
  3
ダミー
 72
    65
 73
     0
 40
0.0
  0
LTYPE
  2
RAND1
 70
    64
  3
ランダム線1
 72
    65
 73
     4
 40
10.0
 49
1.0
 49
-2.0
 49
3.0
 49
-4.0
  0
LTYPE
  2
RAND2
 70
    64
  3
ランダム線2
 72
    65
 73
     4
 40
14.0
 49
2.0
 49
-3.0
 49
4.0
 49
-5.0
  0
LTYPE
  2
RAND3
 70
    64
  3
ランダム線3
 72
    65
 73
     4
 40
18.0
 49
3.0
 49
-4.0
 49
5.0
 49
-6.0
  0
LTYPE
  2
RAND4
 70
    64
  3
ランダム線4
 72
    65
 73
     4
 40
22.0
 49
4.0
 49
-5.0
 49
6.0
 49
-7.0
  0
LTYPE
  2
RAND5
 70
    64
  3
ランダム線5
 72
    65
 73
     4
 40
26.0
 49
5.0
 49
-6.0
 49
7.0
 49
-8.0
  0
LTYPE
  2
LONG1
 70
    64
  3
----------  --  ----------  --  
 72
    65
 73
     4
 40
40.0
 49
32.5
 49
-2.5
 49
2.5
 49
-2.5
  0
LTYPE
  2
LONG2
 70
    64
  3
--------  -  -  --------  -  -  
 72
    65
 73
     6
 40
40.0
 49
30.0
 49
-2.5
 49
1.25
 49
-2.5
 49
1.25
 49
-2.5
  0
LTYPE
  2
LONG3
 70
    64
  3
+++++++++++++++..+++++++++++++++
 72
    65
 73
     2
 40
40.0
 49
37.5
 49
-2.5
  0
LTYPE
  2
LONG4
 70
    64
  3
+++++++++++++++..+++++++++++++++
 72
    65
 73
     2
 40
80.0
 49
75.0
 49
-5.0
  0
LTYPE
  2
LONG5
 70
    64
  3
----------  --  ----------  --  
 72
    65
 73
     4
 40
60.0
 49
37.5
 49
-7.5
 49
7.5
 49
-7.5
  0
LTYPE
  2
dashed
 70
   64
  3
-------   -------------   ------
 72
   65
 73
    2
 40
7.5
 49
6
 49
-1.5
  0
LTYPE
  2
dashed_spaced
 70
   64
  3
----        --------        ----
 72
   65
 73
    2
 40
12
 49
6
 49
-6
  0
LTYPE
  2
long_dashed_dotted
 70
   64
  3
------------- --- --------------
 72
   65
 73
    4
 40
15.25
 49
12
 49
-1.5
 49
0.25
 49
-1.5
  0
LTYPE
  2
long_dashed_double-dotted
 70
   64
  3
----------- --- --- ------------
 72
   65
 73
    6
 40
17
 49
12
 49
-1.5
 49
0.25
 49
-1.5
 49
0.25
 49
-1.5
  0
LTYPE
  2
long_dashed_triplicate-dotted
 70
   64
  3
--------- --- --- --- ----------
 72
   65
 73
    8
 40
18.75
 49
12
 49
-1.5
 49
0.25
 49
-1.5
 49
0.25
 49
-1.5
 49
0.25
 49
-1.5
  0
LTYPE
  2
dotted
 70
   64
  3
   -       -       -       -    
 72
   65
 73
    2
 40
1.75
 49
0.25
 49
-1.5
  0
LTYPE
  2
chain
 70
   64
  3
-------------- -- --------------
 72
   65
 73
    4
 40
18.5
 49
12
 49
-1.5
 49
3.5
 49
-1.5
  0
LTYPE
  2
chain_double_dash
 70
   64
  3
------------ -- -- -------------
 72
   65
 73
    6
 40
23.5
 49
12
 49
-1.5
 49
3.5
 49
-1.5
 49
3.5
 49
-1.5
  0
LTYPE
  2
dashed_dotted
 70
   64
  3
-----------     -     ----------
 72
   65
 73
    4
 40
9.25
 49
6
 49
-1.5
 49
0.25
 49
-1.5
  0
LTYPE
  2
double-dashed_dotted
 70
   64
  3
------   -----------   -   -----
 72
   65
 73
    6
 40
16.75
 49
6
 49
-1.5
 49
6
 49
-1.5
 49
0.25
 49
-1.5
  0
LTYPE
  2
dashed_double-dotted
 70
   64
  3
---------    -    -    ---------
 72
   65
 73
    6
 40
11
 49
6
 49
-1.5
 49
0.25
 49
-1.5
 49
0.25
 49
-1.5
  0
LTYPE
  2
double-dashed_double-dotted
 70
   64
  3
-----   ---------   -   -   ----
 72
   65
 73
    8
 40
18.5
 49
6
 49
-1.5
 49
6
 49
-1.5
 49
0.25
 49
-1.5
 49
0.25
 49
-1.5
  0
LTYPE
  2
dashed_triplicate-dotted
 70
   64
  3
-------    -    -    -    ------
 72
   65
 73
    8
 40
12.75
 49
6
 49
-1.5
 49
0.25
 49
-1.5
 49
0.25
 49
-1.5
 49
0.25
 49
-1.5
  0
LTYPE
  2
double-dashed_triplicate-dotted
 70
   64
  3
-----  ---------  -  -  -  -----
 72
   65
 73
   10
 40
20.25
 49
6
 49
-1.5
 49
6
 49
-1.5
 49
0.25
 49
-1.5
 49
0.25
 49
-1.5
 49
0.25
 49
-1.5
  0
LTYPE
  2
undefined
 70
   64
  3
--------------------------------
 72
   65
 73
    0
 40
0
  0
ENDTAB
  0
TABLE
  2
STYLE
  5
3
100
AcDbSymbolTable
 70
     1
  0
STYLE
  5
10
100
AcDbSymbolTableRecord
100
AcDbTextStyleTableRecord
  2
STANDARD
 70
     0
 40
0.0
 41
1.0
 50
0.0
 71
     0
 42
0.2
  3
txt
  4
bigfont.shx
  0
STYLE
  5
26
100
AcDbSymbolTableRecord
100
AcDbTextStyleTableRecord
  2
TATEGAKI
 70
    68
 40
0.0
 41
1.0
 50
0.0
 71
     0
 42
1.0
  3
txt
  4
bigfont.shx
  0
ENDTAB
  0
TABLE
  2
LAYER
 70
    4
  0
LAYER
  2
_0-0_
 70
   64
 62
    7
  6
CONTINUOUS
  0
LAYER
  2
_0-1_
 70
   64
 62
    7
  6
CONTINUOUS
  0
LAYER
  2
_0-f_
 70
   64
 62
    7
  6
CONTINUOUS
  0
LAYER
  2
ADD_LINE
 70
   64
 62
    7
  6
CONTINUOUS
  0
ENDTAB
  0
ENDSEC
  0
SECTION
  2
BLOCKS
  0
ENDSEC
  0
SECTION
  2
ENTITIES
  0
TEXT
  8
_0-f_
 62
    7
 10
0.27743346835814
 20
0.3185821727954589
 40
4.2999999999999998
 41
0.744186046511628
 50
0
  1
AJEC
  0
LINE
  8
_0-0_
  6
CONTINUOUS
 62
    7
 10
87.031457782163386
 20
12.722740244651618
 11
87.031457782163386
 21
5.722740244651618
  0
LINE
  8
_0-0_
  6
CONTINUOUS
 62
    7
 10
87.031457782163386
 20
5.722740244651618
 11
2.031457782163443
 21
5.722740244651618
  0
LINE
  8
_0-0_
  6
CONTINUOUS
 62
    7
 10
2.031457782163443
 20
5.722740244651618
 11
2.031457782163443
 21
12.722740244651618
  0
LINE
  8
_0-0_
  6
CONTINUOUS
 62
    7
 10
2.031457782163443
 20
12.722740244651618
 11
87.031457782163386
 21
12.722740244651618
  0
LINE
  8
_0-0_
  6
CONTINUOUS
 62
    7
 10
74.531457782163443
 20
12.722740244651618
 11
60.079285758555443
 21
24.28447786353729
  0
LINE
  8
_0-0_
  6
CONTINUOUS
 62
    7
 10
58.829895663446905
 20
24.722740244651163
 11
30.233019900879981
 21
24.722740244651163
  0
LINE
  8
_0-0_
  6
CONTINUOUS
 62
    7
 10
28.983629805771443
 20
24.28447786353729
 11
14.531457782163443
 21
12.722740244651618
  0
LINE
  8
_0-0_
  6
CONTINUOUS
 62
    7
 10
31.829751849546255
 20
25.993895602012003
 11
31.829751849546255
 21
34.722740244651163
  0
LINE
  8
_0-0_
  6
CONTINUOUS
 62
    7
 10
31.829751849546255
 20
34.722740244651163
 11
57.23316371478063
 21
34.722740244651163
  0
LINE
  8
_0-0_
  6
CONTINUOUS
 62
    7
 10
57.23316371478063
 20
34.722740244651163
 11
57.23316371478063
 21
25.993895602012003
  0
LINE
  8
_0-0_
  6
CONTINUOUS
 62
    7
 10
50.882310748472037
 20
25.993895602012003
 11
50.882310748472037
 21
34.722740244651163
  0
LINE
  8
_0-0_
  6
CONTINUOUS
 62
    7
 10
52.531457782163443
 20
133.82274062612089
 11
51.631457686796011
 21
134.72274024465162
  0
LINE
  8
_0-0_
  6
CONTINUOUS
 62
    7
 10
51.631457686796011
 20
134.72274024465162
 11
37.431457877530875
 21
134.72274024465162
  0
LINE
  8
_0-0_
  6
CONTINUOUS
 62
    7
 10
37.431457877530875
 20
134.72274024465162
 11
36.531457782163443
 21
133.82274062612089
  0
LINE
  8
_0-0_
  6
CONTINUOUS
 62
    7
 10
38.180604815854849
 20
34.722740244651163
 11
38.180604815854849
 21
25.993895602012003
  0
LINE
  8
_0-0_
  6
CENTER1
 62
    7
 10
44.531457782163443
 20
5.722740244651618
 11
44.531457782163443
 21
134.72274024465162
  0
LINE
  8
_0-0_
  6
CONTINUOUS
 62
    7
 10
31.82975247989657
 20
25.993895235437321
 11
33.200260364869564
 21
25.12244798590342
  0
LINE
  8
_0-0_
  6
CONTINUOUS
 62
    7
 10
33.200260364869564
 20
25.12244798590342
 11
34.62560976896259
 21
24.740212371628786
  0
LINE
  8
_0-0_
  6
CONTINUOUS
 62
    7
 10
34.62560976896259
 20
24.740212371628786
 11
36.062492171793792
 21
24.858802428332467
  0
LINE
  8
_0-0_
  6
CONTINUOUS
 62
    7
 10
36.062492171793792
 20
24.858802428332467
 11
37.46724862865085
 21
25.474614857151096
  0
LINE
  8
_0-0_
  6
CONTINUOUS
 62
    7
 10
37.46724862865085
 20
25.474614857151096
 11
38.180606213402143
 21
25.993896926771981
  0
LINE
  8
_0-0_
  6
CONTINUOUS
 62
    7
 10
50.882311378822351
 20
25.993895235437321
 11
52.252819263795345
 21
25.12244798590342
  0
LINE
  8
_0-0_
  6
CONTINUOUS
 62
    7
 10
52.252819263795345
 20
25.12244798590342
 11
53.678168667888372
 21
24.740212371628786
  0
LINE
  8
_0-0_
  6
CONTINUOUS
 62
    7
 10
53.678168667888372
 20
24.740212371628786
 11
55.115051070719574
 21
24.858802428332467
  0
LINE
  8
_0-0_
  6
CONTINUOUS
 62
    7
 10
55.115051070719574
 20
24.858802428332467
 11
56.519807527576631
 21
25.474614857151096
  0
LINE
  8
_0-0_
  6
CONTINUOUS
 62
    7
 10
56.519807527576631
 20
25.474614857151096
 11
57.233165112327924
 21
25.993896926771981
  0
ARC
  8
_0-0_
  6
CONTINUOUS
 62
    7
 10
44.531457782163443
 20
41.22314841725904
 40
16.500408172607422
 50
247.36305236816406
 51
292.636962890625
  0
ARC
  8
_0-0_
  6
CONTINUOUS
 62
    7
 10
58.829895663446905
 20
22.722740244651618
 40
2
 50
51.340191745909912
 51
90
  0
ARC
  8
_0-0_
  6
CONTINUOUS
 62
    7
 10
30.233019900879981
 20
22.722740244651618
 40
2
 50
90
 51
128.65980825409008
  0
LINE
  8
_0-0_
  6
CONTINUOUS
 62
    7
 10
57.233163706946243
 20
201.80611506500946
 11
50.882310748472037
 21
190.80611506048655
  0
LINE
  8
_0-0_
  6
CONTINUOUS
 62
    7
 10
50.882310748472037
 20
190.80611506048655
 11
38.180604823688327
 21
190.80611506500946
  0
LINE
  8
_0-0_
  6
CONTINUOUS
 62
    7
 10
38.180604823688327
 20
190.80611506500946
 11
31.829751857379733
 21
201.8061150740553
  0
LINE
  8
_0-0_
  6
CONTINUOUS
 62
    7
 10
31.829751857379733
 20
201.8061150740553
 11
38.180604815854849
 21
212.80611507857867
  0
LINE
  8
_0-0_
  6
CONTINUOUS
 62
    7
 10
38.180604815854849
 20
212.80611507857867
 11
50.882310740637649
 21
212.80611507405575
  0
LINE
  8
_0-0_
  6
CONTINUOUS
 62
    7
 10
50.882310740637649
 20
212.80611507405575
 11
57.233163706946243
 21
201.80611506500946
  0
CIRCLE
  8
_0-0_
  6
CONTINUOUS
 62
    7
 10
44.531457782163443
 20
201.80611506953238
 40
42.5
  0
CIRCLE
  8
_0-0_
  6
CONTINUOUS
 62
    7
 10
44.531457782163443
 20
201.80611506953238
 40
6.9999999999999991
  0
CIRCLE
  8
_0-0_
  6
CONTINUOUS
 62
    7
 10
44.531457782163443
 20
201.80611506953238
 40
30
  0
LINE
  8
_0-0_
  6
CENTER1
 62
    7
 10
44.531457782163443
 20
71.370546907968787
 11
44.531457782163443
 21
46.686098645383595
  0
LINE
  8
_0-0_
  6
CONTINUOUS
 62
    7
 10
37.60325467808957
 20
54.08321196826239
 11
37.60325467808957
 21
65.722740242798523
  0
LINE
  8
ADD_LINE
  6
DOT
 62
    9
 10
43.824351002829417
 20
66.429847023985189
 11
44.531457784016084
 21
65.722740242798977
  0
LINE
  8
ADD_LINE
  6
DOT
 62
    9
 10
44.531457784016084
 20
65.722740242798977
 11
45.238564565202751
 21
66.429847023985189
  0
LINE
  8
_0-0_
  6
CONTINUOUS
 62
    7
 10
51.459660889942597
 20
65.722740242798523
 11
51.459660889942597
 21
54.08321196826239
  0
LINE
  8
_0-0_
  6
CONTINUOUS
 62
    7
 10
54.923762204487275
 20
52.722740242798523
 11
34.139153363544892
 21
52.722740242798523
  0
LINE
  8
_0-0_
  6
CONTINUOUS
 62
    7
 10
30.675051572163056
 20
54.08321196826239
 11
30.675051572163056
 21
65.722740242798977
  0
LINE
  8
_0-0_
  6
CONTINUOUS
 62
    7
 10
30.675051572163056
 20
65.722740242798977
 11
58.387863995869111
 21
65.722740242798977
  0
LINE
  8
_0-0_
  6
CONTINUOUS
 62
    7
 10
58.387863995869111
 20
65.722740242798977
 11
58.387863995869111
 21
54.08321196826239
  0
LINE
  8
_0-0_
  6
CONTINUOUS
 62
    7
 10
51.459660099925827
 20
54.083213569580437
 11
52.984884947784963
 21
53.137814682830253
  0
LINE
  8
_0-0_
  6
CONTINUOUS
 62
    7
 10
52.984884947784963
 20
53.137814682830253
 11
54.569021599969687
 21
52.736483560195609
  0
LINE
  8
_0-0_
  6
CONTINUOUS
 62
    7
 10
54.569021599969687
 20
52.736483560195609
 11
56.163936865915389
 21
52.891414444754503
  0
LINE
  8
_0-0_
  6
CONTINUOUS
 62
    7
 10
56.163936865915389
 20
52.891414444754503
 11
57.721170052332127
 21
53.597899839978425
  0
LINE
  8
_0-0_
  6
CONTINUOUS
 62
    7
 10
57.721170052332127
 20
53.597899839978425
 11
58.387862050594549
 21
54.083211724488649
  0
LINE
  8
_0-0_
  6
CONTINUOUS
 62
    7
 10
30.675051258983444
 20
54.083213569580437
 11
32.20027610684258
 21
53.137814682830253
  0
LINE
  8
_0-0_
  6
CONTINUOUS
 62
    7
 10
32.20027610684258
 20
53.137814682830253
 11
33.784412759027305
 21
52.736483560195609
  0
LINE
  8
_0-0_
  6
CONTINUOUS
 62
    7
 10
33.784412759027305
 20
52.736483560195609
 11
35.379328024973006
 21
52.891414444754503
  0
LINE
  8
_0-0_
  6
CONTINUOUS
 62
    7
 10
35.379328024973006
 20
52.891414444754503
 11
36.936561211389744
 21
53.597899839978425
  0
LINE
  8
_0-0_
  6
CONTINUOUS
 62
    7
 10
36.936561211389744
 20
53.597899839978425
 11
37.603253209652166
 21
54.083211724488649
  0
ARC
  8
_0-0_
  6
CONTINUOUS
 62
    7
 10
44.531457784016084
 20
71.043913910706237
 40
18.321172714233398
 50
247.78068542480463
 51
292.21929931640619
  0
LINE
  8
_0-0_
  6
CONTINUOUS
 62
    7
 10
36.531457782163443
 20
133.82274062612089
 11
36.531457782163443
 21
65.722740242798977
  0
LINE
  8
_0-0_
  6
CONTINUOUS
 62
    7
 10
36.531457782163443
 20
52.722740242798523
 11
36.531457782163443
 21
34.722740244651618
  0
LINE
  8
_0-0_
  6
CONTINUOUS
 62
    7
 10
52.531457782163443
 20
34.722740244651618
 11
52.531457782163443
 21
52.722740242798523
  0
LINE
  8
_0-0_
  6
CONTINUOUS
 62
    7
 10
52.531457782163443
 20
65.722740242798977
 11
52.531457782163443
 21
133.82274062612089
  0
LINE
  8
_0-1_
  6
CONTINUOUS
 62
  152
 10
36.531457782163443
 20
36.163894352658303
 11
37.431457877530875
 21
37.722740244651618
  0
LINE
  8
_0-1_
  6
CONTINUOUS
 62
  152
 10
36.531457782163443
 20
133.82274062612089
 11
52.531457782163443
 21
133.82274062612089
  0
LINE
  8
_0-1_
  6
CONTINUOUS
 62
  152
 10
51.631457686796011
 20
37.722740244651618
 11
52.531457782163443
 21
36.163894352658303
  0
LINE
  8
_0-1_
  6
CONTINUOUS
 62
  152
 10
52.531457782163443
 20
37.722740244651618
 11
36.531457782163443
 21
37.722740244651618
  0
LINE
  8
_0-1_
  6
CENTER1
 62
  152
 10
2.031457782163443
 20
201.80611506953238
 11
87.031457782163386
 21
201.80611506953238
  0
LINE
  8
_0-1_
  6
CENTER1
 62
  152
 10
44.531457782163443
 20
159.30611506953238
 11
44.531457782163443
 21
244.30611506953238
  0
CIRCLE
  8
_0-1_
  6
CONTINUOUS
 62
  152
 10
44.531457782163443
 20
201.80611506953238
 40
6.1500000953674308
  0
LINE
  8
_0-1_
  6
CONTINUOUS
 62
  152
 10
37.431457877530875
 20
37.722740244651618
 11
37.431457877530875
 21
52.722740242798523
  0
LINE
  8
_0-1_
  6
CONTINUOUS
 62
  152
 10
37.431457877530875
 20
65.722740242798523
 11
37.431457877530875
 21
134.72274024465162
  0
LINE
  8
_0-1_
  6
CONTINUOUS
 62
  152
 10
51.631457686796011
 20
134.72274024465162
 11
51.631457686796011
 21
65.722740242798977
  0
LINE
  8
_0-1_
  6
CONTINUOUS
 62
  152
 10
51.631457686796011
 20
52.722740242798523
 11
51.631457686796011
 21
37.722740244651618
  0
ENDSEC
  0
EOF
