  0
SECTION
  2
HEADER
  9
$ACADVER
  1
AC1009
  9
$INSBASE
 10
0
 20
0
 30
0
  9
$EXTMIN
 10
0
 20
0
  9
$EXTMAX
 10
1189
 20
841
  9
$LIMMIN
 10
0
 20
0
  9
$LIMMAX
 10
1189
 20
841
  9
$LTSCALE
 40
1
  0
ENDSEC
  0
SECTION
  2
TABLES
  0
TABLE
  2
LTYPE
 70
     9
  0
LTYPE
  2
CONTINUOUS
 70
    64
  3
実線
 72
    65
 73
     0
 40
0.0
  0
LTYPE
  2
DASHED1
 70
    64
  3
--  --  --  --  --  --  --  --  
 72
    65
 73
     2
 40
2.5
 49
1.25
 49
-1.25
  0
LTYPE
  2
DASHED2
 70
    64
  3
----    ----    ----    ----    
 72
    65
 73
     2
 40
5.0
 49
2.5
 49
-2.5
  0
LTYPE
  2
DASHED3
 70
    64
  3
------  ------  ------  ------  
 72
    65
 73
     2
 40
5.0
 49
3.75
 49
-1.25
  0
LTYPE
  2
CENTER1
 70
    64
  3
----- - ----- - ----- - ----- - 
 72
    65
 73
     4
 40
10.0
 49
6.25
 49
-1.25
 49
1.25
 49
-1.25
  0
LTYPE
  2
CENTER2
 70
    64
  3
----------  --  ----------  --  
 72
    65
 73
     4
 40
20.0
 49
12.5
 49
-2.5
 49
2.5
 49
-2.5
  0
LTYPE
  2
PHANTOM1
 70
    64
  3
--- - - --- - - --- - - --- - - 
 72
    65
 73
     6
 40
10.0
 49
3.25
 49
-1.25
 49
1.25
 49
-1.25
 49
1.25
 49
-1.25
  0
LTYPE
  2
PHANTOM2
 70
    64
  3
--------  -  -  --------  -  -  
 72
    65
 73
     6
 40
20.0
 49
10.0
 49
-2.5
 49
1.25
 49
-2.5
 49
1.25
 49
-2.5
  0
LTYPE
  2
DOT
 70
    64
  3
-   -   -   -   -   -   -   -   
 72
    65
 73
     2
 40
2.5
 49
0.625
 49
-1.875
  0
LTYPE
  2
DUMMY
 70
    64
  3
ダミー
 72
    65
 73
     0
 40
0.0
  0
LTYPE
  2
RAND1
 70
    64
  3
ランダム線1
 72
    65
 73
     4
 40
10.0
 49
1.0
 49
-2.0
 49
3.0
 49
-4.0
  0
LTYPE
  2
RAND2
 70
    64
  3
ランダム線2
 72
    65
 73
     4
 40
14.0
 49
2.0
 49
-3.0
 49
4.0
 49
-5.0
  0
LTYPE
  2
RAND3
 70
    64
  3
ランダム線3
 72
    65
 73
     4
 40
18.0
 49
3.0
 49
-4.0
 49
5.0
 49
-6.0
  0
LTYPE
  2
RAND4
 70
    64
  3
ランダム線4
 72
    65
 73
     4
 40
22.0
 49
4.0
 49
-5.0
 49
6.0
 49
-7.0
  0
LTYPE
  2
RAND5
 70
    64
  3
ランダム線5
 72
    65
 73
     4
 40
26.0
 49
5.0
 49
-6.0
 49
7.0
 49
-8.0
  0
LTYPE
  2
LONG1
 70
    64
  3
----------  --  ----------  --  
 72
    65
 73
     4
 40
40.0
 49
32.5
 49
-2.5
 49
2.5
 49
-2.5
  0
LTYPE
  2
LONG2
 70
    64
  3
--------  -  -  --------  -  -  
 72
    65
 73
     6
 40
40.0
 49
30.0
 49
-2.5
 49
1.25
 49
-2.5
 49
1.25
 49
-2.5
  0
LTYPE
  2
LONG3
 70
    64
  3
+++++++++++++++..+++++++++++++++
 72
    65
 73
     2
 40
40.0
 49
37.5
 49
-2.5
  0
LTYPE
  2
LONG4
 70
    64
  3
+++++++++++++++..+++++++++++++++
 72
    65
 73
     2
 40
80.0
 49
75.0
 49
-5.0
  0
LTYPE
  2
LONG5
 70
    64
  3
----------  --  ----------  --  
 72
    65
 73
     4
 40
60.0
 49
37.5
 49
-7.5
 49
7.5
 49
-7.5
  0
LTYPE
  2
dashed
 70
   64
  3
-------   -------------   ------
 72
   65
 73
    2
 40
7.5
 49
6
 49
-1.5
  0
LTYPE
  2
dashed_spaced
 70
   64
  3
----        --------        ----
 72
   65
 73
    2
 40
12
 49
6
 49
-6
  0
LTYPE
  2
long_dashed_dotted
 70
   64
  3
------------- --- --------------
 72
   65
 73
    4
 40
15.25
 49
12
 49
-1.5
 49
0.25
 49
-1.5
  0
LTYPE
  2
long_dashed_double-dotted
 70
   64
  3
----------- --- --- ------------
 72
   65
 73
    6
 40
17
 49
12
 49
-1.5
 49
0.25
 49
-1.5
 49
0.25
 49
-1.5
  0
LTYPE
  2
long_dashed_triplicate-dotted
 70
   64
  3
--------- --- --- --- ----------
 72
   65
 73
    8
 40
18.75
 49
12
 49
-1.5
 49
0.25
 49
-1.5
 49
0.25
 49
-1.5
 49
0.25
 49
-1.5
  0
LTYPE
  2
dotted
 70
   64
  3
   -       -       -       -    
 72
   65
 73
    2
 40
1.75
 49
0.25
 49
-1.5
  0
LTYPE
  2
chain
 70
   64
  3
-------------- -- --------------
 72
   65
 73
    4
 40
18.5
 49
12
 49
-1.5
 49
3.5
 49
-1.5
  0
LTYPE
  2
chain_double_dash
 70
   64
  3
------------ -- -- -------------
 72
   65
 73
    6
 40
23.5
 49
12
 49
-1.5
 49
3.5
 49
-1.5
 49
3.5
 49
-1.5
  0
LTYPE
  2
dashed_dotted
 70
   64
  3
-----------     -     ----------
 72
   65
 73
    4
 40
9.25
 49
6
 49
-1.5
 49
0.25
 49
-1.5
  0
LTYPE
  2
double-dashed_dotted
 70
   64
  3
------   -----------   -   -----
 72
   65
 73
    6
 40
16.75
 49
6
 49
-1.5
 49
6
 49
-1.5
 49
0.25
 49
-1.5
  0
LTYPE
  2
dashed_double-dotted
 70
   64
  3
---------    -    -    ---------
 72
   65
 73
    6
 40
11
 49
6
 49
-1.5
 49
0.25
 49
-1.5
 49
0.25
 49
-1.5
  0
LTYPE
  2
double-dashed_double-dotted
 70
   64
  3
-----   ---------   -   -   ----
 72
   65
 73
    8
 40
18.5
 49
6
 49
-1.5
 49
6
 49
-1.5
 49
0.25
 49
-1.5
 49
0.25
 49
-1.5
  0
LTYPE
  2
dashed_triplicate-dotted
 70
   64
  3
-------    -    -    -    ------
 72
   65
 73
    8
 40
12.75
 49
6
 49
-1.5
 49
0.25
 49
-1.5
 49
0.25
 49
-1.5
 49
0.25
 49
-1.5
  0
LTYPE
  2
double-dashed_triplicate-dotted
 70
   64
  3
-----  ---------  -  -  -  -----
 72
   65
 73
   10
 40
20.25
 49
6
 49
-1.5
 49
6
 49
-1.5
 49
0.25
 49
-1.5
 49
0.25
 49
-1.5
 49
0.25
 49
-1.5
  0
LTYPE
  2
undefined
 70
   64
  3
--------------------------------
 72
   65
 73
    0
 40
0
  0
ENDTAB
  0
TABLE
  2
STYLE
  5
3
100
AcDbSymbolTable
 70
     1
  0
STYLE
  5
10
100
AcDbSymbolTableRecord
100
AcDbTextStyleTableRecord
  2
STANDARD
 70
     0
 40
0.0
 41
1.0
 50
0.0
 71
     0
 42
0.2
  3
txt
  4
bigfont.shx
  0
STYLE
  5
26
100
AcDbSymbolTableRecord
100
AcDbTextStyleTableRecord
  2
TATEGAKI
 70
    68
 40
0.0
 41
1.0
 50
0.0
 71
     0
 42
1.0
  3
txt
  4
bigfont.shx
  0
ENDTAB
  0
TABLE
  2
LAYER
 70
    3
  0
LAYER
  2
_0-0_
 70
   64
 62
    7
  6
CONTINUOUS
  0
LAYER
  2
_0-1_
 70
   64
 62
    7
  6
CONTINUOUS
  0
LAYER
  2
ADD_LINE
 70
   64
 62
    7
  6
CONTINUOUS
  0
ENDTAB
  0
ENDSEC
  0
SECTION
  2
BLOCKS
  0
ENDSEC
  0
SECTION
  2
ENTITIES
  0
LINE
  8
_0-0_
  6
CONTINUOUS
 62
    7
 10
280.52917800160219
 20
218.33378634270809
 11
296.11763526972197
 21
218.33378634270809
  0
LINE
  8
_0-0_
  6
CONTINUOUS
 62
    7
 10
296.11763526972197
 20
218.33378634270809
 11
303.91186390378141
 21
204.83378634270809
  0
LINE
  8
_0-0_
  6
CONTINUOUS
 62
    7
 10
303.91186390378141
 20
204.83378634270809
 11
296.11763526972197
 21
191.33378634270809
  0
LINE
  8
_0-0_
  6
CONTINUOUS
 62
    7
 10
296.11763526972197
 20
191.33378634270809
 11
280.52917800160219
 21
191.33378634270809
  0
LINE
  8
_0-0_
  6
CONTINUOUS
 62
    7
 10
280.52917800160219
 20
191.33378634270809
 11
272.73494936754184
 21
204.83378634270809
  0
LINE
  8
_0-0_
  6
CONTINUOUS
 62
    7
 10
272.73494936754184
 20
204.83378634270809
 11
280.52917800160219
 21
218.33378634270809
  0
CIRCLE
  8
_0-0_
  6
CONTINUOUS
 62
    7
 10
288.32340663566163
 20
204.83378634270809
 40
18.499999999999943
  0
CIRCLE
  8
_0-0_
  6
CONTINUOUS
 62
    7
 10
288.32340663566163
 20
204.83378634270809
 40
39.999999999999943
  0
CIRCLE
  8
_0-0_
  6
CONTINUOUS
 62
    7
 10
288.32340663566163
 20
204.83378634270809
 40
10.000000000000114
  0
LINE
  8
_0-0_
  6
CONTINUOUS
 62
    7
 10
170.00555675098383
 20
204.83378645039818
 11
163.07735364505731
 21
216.83378623501937
  0
LINE
  8
_0-0_
  6
CONTINUOUS
 62
    7
 10
163.07735364505731
 20
216.83378623501937
 11
149.22094724668057
 21
216.83378612732974
  0
LINE
  8
_0-0_
  6
CONTINUOUS
 62
    7
 10
149.22094724668057
 20
216.83378612732974
 11
142.29274395423033
 21
204.83378623501937
  0
LINE
  8
_0-0_
  6
CONTINUOUS
 62
    7
 10
142.29274395423033
 20
204.83378623501937
 11
149.22094706015685
 21
192.83378645039818
  0
LINE
  8
_0-0_
  6
CONTINUOUS
 62
    7
 10
149.22094706015685
 20
192.83378645039818
 11
163.07735345853359
 21
192.8337865580869
  0
LINE
  8
_0-0_
  6
CONTINUOUS
 62
    7
 10
163.07735345853359
 20
192.8337865580869
 11
170.00555675098383
 21
204.83378645039818
  0
CIRCLE
  8
_0-0_
  6
CONTINUOUS
 62
    7
 10
156.14915035260708
 20
204.83378634270809
 40
17.800000000000001
  0
CIRCLE
  8
_0-0_
  6
CONTINUOUS
 62
    7
 10
156.14915035260708
 20
204.83378634270809
 40
30
  0
CIRCLE
  8
_0-0_
  6
CONTINUOUS
 62
    7
 10
156.14915035260708
 20
204.83378634270855
 40
8
  0
LINE
  8
_0-0_
  6
CONTINUOUS
 62
    7
 10
28.087082001519661
 20
213.83378634270809
 11
22.890929523622049
 21
204.83378631084395
  0
LINE
  8
_0-0_
  6
CONTINUOUS
 62
    7
 10
22.890929523622049
 20
204.83378631084395
 11
28.087081927931536
 21
195.83378634270809
  0
LINE
  8
_0-0_
  6
CONTINUOUS
 62
    7
 10
28.087081927931536
 20
195.83378634270809
 11
38.479386701785074
 21
195.83378634270809
  0
LINE
  8
_0-0_
  6
CONTINUOUS
 62
    7
 10
38.479386701785074
 20
195.83378634270809
 11
43.675539178693157
 21
204.83378637457315
  0
LINE
  8
_0-0_
  6
CONTINUOUS
 62
    7
 10
43.675539178693157
 20
204.83378637457315
 11
38.479386774384125
 21
213.83378634270809
  0
LINE
  8
_0-0_
  6
CONTINUOUS
 62
    7
 10
38.479386774384125
 20
213.83378634270809
 11
28.087082001519661
 21
213.83378634270809
  0
CIRCLE
  8
_0-0_
  6
CONTINUOUS
 62
    7
 10
33.283234351157603
 20
204.83378634270855
 40
8.5263157898999999
  0
CIRCLE
  8
_0-0_
  6
CONTINUOUS
 62
    7
 10
33.283234351157603
 20
204.83378634270855
 40
6
  0
CIRCLE
  8
_0-0_
  6
CONTINUOUS
 62
    7
 10
33.283234351157603
 20
204.83378634270809
 40
24.999999999999943
  0
LINE
  8
_0-0_
  6
CONTINUOUS
 62
    7
 10
43.67553912350229
 20
42.887532234644709
 11
43.67553912350229
 21
33.964861870318941
  0
LINE
  8
_0-0_
  6
CONTINUOUS
 62
    7
 10
41.077463156286626
 20
32.887532234644709
 11
25.489005546029489
 21
32.887532234644709
  0
LINE
  8
_0-0_
  6
CONTINUOUS
 62
    7
 10
27.283234351157603
 20
32.887532234644709
 11
27.283234351157603
 21
27.2875322346448
  0
LINE
  8
_0-0_
  6
CONTINUOUS
 62
    7
 10
27.283234351157603
 20
27.2875322346448
 11
39.283234351157603
 21
27.2875322346448
  0
LINE
  8
_0-0_
  6
CONTINUOUS
 62
    7
 10
39.283234351157603
 20
27.2875322346448
 11
39.283234351157603
 21
32.887532234644709
  0
LINE
  8
_0-0_
  6
CONTINUOUS
 62
    7
 10
38.479386737330401
 20
33.964861870318941
 11
38.479386737330401
 21
42.887532234644254
  0
LINE
  8
_0-0_
  6
CONTINUOUS
 62
    7
 10
38.483234160422739
 20
140.88753223464471
 11
28.083234541892466
 21
140.88753223464471
  0
LINE
  8
_0-0_
  6
CONTINUOUS
 62
    7
 10
28.083234541892466
 20
140.88753223464471
 11
27.283234351157603
 21
140.08753299758416
  0
LINE
  8
_0-0_
  6
CONTINUOUS
 62
    7
 10
39.283234351157603
 20
140.08753299758416
 11
38.483234160422739
 21
140.88753223464471
  0
LINE
  8
_0-0_
  6
CONTINUOUS
 62
    7
 10
43.67553912350229
 20
42.887532234644709
 11
22.890929578813825
 21
42.887532234644709
  0
LINE
  8
_0-0_
  6
CONTINUOUS
 62
    7
 10
22.890929578813825
 20
42.887532234644709
 11
22.890929578813825
 21
33.964861870318941
  0
LINE
  8
_0-0_
  6
CONTINUOUS
 62
    7
 10
28.087081964985714
 20
33.964861870318941
 11
28.087081964985714
 21
42.887532234644254
  0
LINE
  8
_0-0_
  6
CONTINUOUS
 62
    7
 10
20.283234351157603
 20
25.887532234644709
 11
8.2832343511576028
 21
13.887532234644709
  0
LINE
  8
_0-0_
  6
CONTINUOUS
 62
    7
 10
8.2832343511576028
 20
13.887532234644709
 11
58.283234351157603
 21
13.887532234644709
  0
LINE
  8
_0-0_
  6
CONTINUOUS
 62
    7
 10
58.283234351157603
 20
13.887532234644709
 11
46.283234351157603
 21
25.887532234644709
  0
LINE
  8
_0-0_
  6
CONTINUOUS
 62
    7
 10
46.283234351157603
 20
25.887532234644709
 11
20.283234351157603
 21
25.887532234644709
  0
LINE
  8
_0-0_
  6
CONTINUOUS
 62
    7
 10
8.2832343511576028
 20
13.887532234644709
 11
8.2832343511576028
 21
5.8875322346447092
  0
LINE
  8
_0-0_
  6
CONTINUOUS
 62
    7
 10
8.2832343511576028
 20
5.8875322346447092
 11
58.283234351157603
 21
5.8875322346447092
  0
LINE
  8
_0-0_
  6
CONTINUOUS
 62
    7
 10
58.283234351157603
 20
5.8875322346447092
 11
58.283234351157603
 21
13.887532234644709
  0
LINE
  8
_0-0_
  6
CONTINUOUS
 62
    7
 10
53.783234351157603
 20
5.8875322346447092
 11
53.783234351157603
 21
4.8875322346447092
  0
LINE
  8
_0-0_
  6
CONTINUOUS
 62
    7
 10
53.783234351157603
 20
4.8875322346447092
 11
12.783234351157603
 21
4.8875322346447092
  0
LINE
  8
_0-0_
  6
CONTINUOUS
 62
    7
 10
12.783234351157603
 20
4.8875322346447092
 11
12.783234351157603
 21
5.8875322346447092
  0
ARC
  8
_0-0_
  6
CONTINUOUS
 62
    7
 10
33.283234351157603
 20
21.996029612515372
 40
8
 50
29.106717988689034
 51
41.409622109270821
  0
ARC
  8
_0-0_
  6
CONTINUOUS
 62
    7
 10
33.283234351157603
 20
21.996029612515372
 40
8
 50
138.59037789072923
 51
150.89328201131096
  0
LINE
  8
_0-0_
  6
CONTINUOUS
 62
    7
 10
38.47951063182245
 20
33.964862346012808
 11
39.111806846512764
 21
33.47388345058414
  0
LINE
  8
_0-0_
  6
CONTINUOUS
 62
    7
 10
39.111806846512764
 20
33.47388345058414
 11
39.803828533505566
 21
33.125382178497489
  0
LINE
  8
_0-0_
  6
CONTINUOUS
 62
    7
 10
39.803828533505566
 20
33.125382178497489
 11
40.534548964021269
 21
32.92994756455505
  0
LINE
  8
_0-0_
  6
CONTINUOUS
 62
    7
 10
40.534548964021269
 20
32.92994756455505
 11
41.281765567541242
 21
32.893517790606722
  0
LINE
  8
_0-0_
  6
CONTINUOUS
 62
    7
 10
41.281765567541242
 20
32.893517790606722
 11
42.02277454567718
 21
33.017199756899686
  0
LINE
  8
_0-0_
  6
CONTINUOUS
 62
    7
 10
42.02277454567718
 20
33.017199756899686
 11
42.735060715597115
 21
33.297235449474101
  0
LINE
  8
_0-0_
  6
CONTINUOUS
 62
    7
 10
42.735060715597115
 20
33.297235449474101
 11
43.396981622462249
 21
33.725116125516024
  0
LINE
  8
_0-0_
  6
CONTINUOUS
 62
    7
 10
43.396981622462249
 20
33.725116125516024
 11
43.675414771558962
 21
33.964861495205525
  0
LINE
  8
_0-0_
  6
CONTINUOUS
 62
    7
 10
22.891053021565313
 20
33.964862346012808
 11
23.523349236255626
 21
33.47388345058414
  0
LINE
  8
_0-0_
  6
CONTINUOUS
 62
    7
 10
23.523349236255626
 20
33.47388345058414
 11
24.215370923248429
 21
33.125382178497489
  0
LINE
  8
_0-0_
  6
CONTINUOUS
 62
    7
 10
24.215370923248429
 20
33.125382178497489
 11
24.946091353764132
 21
32.92994756455505
  0
LINE
  8
_0-0_
  6
CONTINUOUS
 62
    7
 10
24.946091353764132
 20
32.92994756455505
 11
25.693307957284105
 21
32.893517790606722
  0
LINE
  8
_0-0_
  6
CONTINUOUS
 62
    7
 10
25.693307957284105
 20
32.893517790606722
 11
26.434316935420043
 21
33.017199756899686
  0
LINE
  8
_0-0_
  6
CONTINUOUS
 62
    7
 10
26.434316935420043
 20
33.017199756899686
 11
27.146603105339977
 21
33.297235449474101
  0
LINE
  8
_0-0_
  6
CONTINUOUS
 62
    7
 10
27.146603105339977
 20
33.297235449474101
 11
27.808524012205112
 21
33.725116125516024
  0
LINE
  8
_0-0_
  6
CONTINUOUS
 62
    7
 10
27.808524012205112
 20
33.725116125516024
 11
28.086957161301825
 21
33.964861495205525
  0
ARC
  8
_0-0_
  6
CONTINUOUS
 62
    7
 10
33.283234351157603
 20
45.957184616994596
 40
13.069652156479449
 50
246.57339477539065
 51
293.42658996582037
  0
LINE
  8
_0-0_
  6
CONTINUOUS
 62
    7
 10
27.798406832694468
 20
66.024713516687711
 11
27.798406832694468
 21
74.887532234644254
  0
LINE
  8
_0-0_
  6
CONTINUOUS
 62
    7
 10
38.768061869620738
 20
74.887532234644254
 11
38.768061869620738
 21
66.024713516687711
  0
LINE
  8
_0-0_
  6
CONTINUOUS
 62
    7
 10
41.510475867270884
 20
64.887532234644254
 11
25.055992835044322
 21
64.887532234644254
  0
LINE
  8
_0-0_
  6
CONTINUOUS
 62
    7
 10
22.313579314231333
 20
66.024713516687711
 11
22.313579314231333
 21
74.887532234644709
  0
LINE
  8
_0-0_
  6
CONTINUOUS
 62
    7
 10
22.313579314231333
 20
74.887532234644709
 11
44.252889388083872
 21
74.887532234644709
  0
LINE
  8
_0-0_
  6
CONTINUOUS
 62
    7
 10
44.252889388083872
 20
74.887532234644709
 11
44.252889388083872
 21
66.024713516687711
  0
LINE
  8
_0-0_
  6
CONTINUOUS
 62
    7
 10
38.768192647140268
 20
66.024714018809107
 11
39.435616429280003
 21
65.506458518104751
  0
LINE
  8
_0-0_
  6
CONTINUOUS
 62
    7
 10
39.435616429280003
 20
65.506458518104751
 11
40.16608376551369
 21
65.138596064253875
  0
LINE
  8
_0-0_
  6
CONTINUOUS
 62
    7
 10
40.16608376551369
 20
65.138596064253875
 11
40.937399775463973
 21
64.932303971769386
  0
LINE
  8
_0-0_
  6
CONTINUOUS
 62
    7
 10
40.937399775463973
 20
64.932303971769386
 11
41.726128412473372
 21
64.89385032149255
  0
LINE
  8
_0-0_
  6
CONTINUOUS
 62
    7
 10
41.726128412473372
 20
64.89385032149255
 11
42.508304556022154
 21
65.024403508128557
  0
LINE
  8
_0-0_
  6
CONTINUOUS
 62
    7
 10
42.508304556022154
 20
65.024403508128557
 11
43.260162179788949
 21
65.319996739164594
  0
LINE
  8
_0-0_
  6
CONTINUOUS
 62
    7
 10
43.260162179788949
 20
65.319996739164594
 11
43.958856470333785
 21
65.771648563852921
  0
LINE
  8
_0-0_
  6
CONTINUOUS
 62
    7
 10
43.958856470333785
 20
65.771648563852921
 11
44.252758127698939
 21
66.024713120734759
  0
LINE
  8
_0-0_
  6
CONTINUOUS
 62
    7
 10
22.313709614913705
 20
66.024714018809107
 11
22.981133397053441
 21
65.506458518104751
  0
LINE
  8
_0-0_
  6
CONTINUOUS
 62
    7
 10
22.981133397053441
 20
65.506458518104751
 11
23.711600733287128
 21
65.138596064253875
  0
LINE
  8
_0-0_
  6
CONTINUOUS
 62
    7
 10
23.711600733287128
 20
65.138596064253875
 11
24.482916743237411
 21
64.932303971769386
  0
LINE
  8
_0-0_
  6
CONTINUOUS
 62
    7
 10
24.482916743237411
 20
64.932303971769386
 11
25.271645380246696
 21
64.89385032149255
  0
LINE
  8
_0-0_
  6
CONTINUOUS
 62
    7
 10
25.271645380246696
 20
64.89385032149255
 11
26.053821523795591
 21
65.024403508128557
  0
LINE
  8
_0-0_
  6
CONTINUOUS
 62
    7
 10
26.053821523795591
 20
65.024403508128557
 11
26.805679147562387
 21
65.319996739164594
  0
LINE
  8
_0-0_
  6
CONTINUOUS
 62
    7
 10
26.805679147562387
 20
65.319996739164594
 11
27.504373438107223
 21
65.771648563852921
  0
LINE
  8
_0-0_
  6
CONTINUOUS
 62
    7
 10
27.504373438107223
 20
65.771648563852921
 11
27.798275095472377
 21
66.024713120734759
  0
ARC
  8
_0-0_
  6
CONTINUOUS
 62
    7
 10
33.283234351157603
 20
78.683276415323576
 40
13.795743942260742
 50
246.57339477539065
 51
293.42658996582037
  0
LINE
  8
_0-0_
  6
CONTINUOUS
 62
    7
 10
272.73494964941153
 20
45.41806292579156
 11
272.73494964941153
 21
53.35700002985584
  0
LINE
  8
_0-0_
  6
CONTINUOUS
 62
    7
 10
276.6320641647161
 20
54.887532234644709
 11
300.01474911077628
 21
54.887532234644709
  0
LINE
  8
_0-0_
  6
CONTINUOUS
 62
    7
 10
298.32340663566163
 20
151.76253271148187
 11
297.19840651645234
 21
152.88753223464471
  0
LINE
  8
_0-0_
  6
CONTINUOUS
 62
    7
 10
297.19840651645234
 20
152.88753223464471
 11
279.44840675487092
 21
152.88753223464471
  0
LINE
  8
_0-0_
  6
CONTINUOUS
 62
    7
 10
279.44840675487092
 20
152.88753223464471
 11
278.32340663566163
 21
151.76253271148187
  0
LINE
  8
_0-0_
  6
CONTINUOUS
 62
    7
 10
296.11763513191352
 20
53.357000468113597
 11
296.11763513191352
 21
45.41806292579156
  0
LINE
  8
_0-0_
  6
CONTINUOUS
 62
    7
 10
298.32340663566163
 20
43.887532234644709
 11
298.32340663566163
 21
37.887532234644709
  0
LINE
  8
_0-0_
  6
CONTINUOUS
 62
    7
 10
298.32340663566163
 20
37.887532234644709
 11
278.32340663566163
 21
37.887532234644709
  0
LINE
  8
_0-0_
  6
CONTINUOUS
 62
    7
 10
278.32340663566163
 20
37.887532234644709
 11
278.32340663566163
 21
43.887532234644709
  0
LINE
  8
_0-0_
  6
CONTINUOUS
 62
    7
 10
276.6320641647161
 20
43.887532234644709
 11
300.01474911077628
 21
43.887532234644709
  0
LINE
  8
_0-0_
  6
CONTINUOUS
 62
    7
 10
303.91186362608084
 20
45.41806292579156
 11
303.91186362608084
 21
53.357000029856295
  0
LINE
  8
_0-0_
  6
CONTINUOUS
 62
    7
 10
306.82340663566163
 20
32.887532234644709
 11
328.32340663566163
 21
18.887532234644709
  0
LINE
  8
_0-0_
  6
CONTINUOUS
 62
    7
 10
328.32340663566163
 20
18.887532234644709
 11
328.32340663566163
 21
6.8875322346447092
  0
LINE
  8
_0-0_
  6
CONTINUOUS
 62
    7
 10
328.32340663566163
 20
6.8875322346447092
 11
248.32340663566163
 21
6.8875322346447092
  0
LINE
  8
_0-0_
  6
CONTINUOUS
 62
    7
 10
248.32340663566163
 20
6.8875322346447092
 11
248.32340663566163
 21
18.887532234644709
  0
LINE
  8
_0-0_
  6
CONTINUOUS
 62
    7
 10
248.32340663566163
 20
18.887532234644709
 11
269.82340663566163
 21
32.887532234644709
  0
LINE
  8
_0-0_
  6
CONTINUOUS
 62
    7
 10
269.82340663566163
 20
32.887532234644709
 11
306.82340663566163
 21
32.887532234644709
  0
LINE
  8
_0-0_
  6
CONTINUOUS
 62
    7
 10
328.32340663566163
 20
18.887532234644709
 11
248.32340663566163
 21
18.887532234644709
  0
LINE
  8
_0-0_
  6
CONTINUOUS
 62
    7
 10
253.32340663566163
 20
6.8875322346447092
 11
253.32340663566163
 21
4.8875322346447092
  0
LINE
  8
_0-0_
  6
CONTINUOUS
 62
    7
 10
253.32340663566163
 20
4.8875322346447092
 11
323.32340663566163
 21
4.8875322346447092
  0
LINE
  8
_0-0_
  6
CONTINUOUS
 62
    7
 10
323.32340663566163
 20
4.8875322346447092
 11
323.32340663566163
 21
6.8875322346447092
  0
LINE
  8
_0-0_
  6
CONTINUOUS
 62
    7
 10
280.52917814357886
 20
45.41806292579156
 11
280.52917814357886
 21
53.357000248984946
  0
ARC
  8
_0-0_
  6
CONTINUOUS
 62
    7
 10
288.32340663566163
 20
31.254282653933728
 40
12
 50
7.8224713143000963
 51
33.557309761921218
  0
ARC
  8
_0-0_
  6
CONTINUOUS
 62
    7
 10
288.32340663566163
 20
31.254282653933728
 40
12
 50
146.4426902380788
 51
172.17752868569991
  0
LINE
  8
_0-0_
  6
CONTINUOUS
 62
    7
 10
303.91186362608067
 20
53.357000029856238
 11
302.19598565260026
 21
54.420573650715369
  0
LINE
  8
_0-0_
  6
CONTINUOUS
 62
    7
 10
302.19598565260026
 20
54.420573650715369
 11
300.41383191055547
 21
54.872071032049234
  0
LINE
  8
_0-0_
  6
CONTINUOUS
 62
    7
 10
300.41383191055547
 20
54.872071032049234
 11
298.61955223958506
 21
54.697773654394837
  0
LINE
  8
_0-0_
  6
CONTINUOUS
 62
    7
 10
298.61955223958506
 20
54.697773654394837
 11
296.86766491954205
 21
53.902977455373389
  0
LINE
  8
_0-0_
  6
CONTINUOUS
 62
    7
 10
296.86766491954205
 20
53.902977455373389
 11
296.11763513191335
 21
53.35700046811354
  0
LINE
  8
_0-0_
  6
CONTINUOUS
 62
    7
 10
280.52917649158695
 20
53.357001817743253
 11
278.81329839612209
 21
54.420574651405332
  0
LINE
  8
_0-0_
  6
CONTINUOUS
 62
    7
 10
278.81329839612209
 20
54.420574651405332
 11
277.03114460229375
 21
54.872071215136771
  0
LINE
  8
_0-0_
  6
CONTINUOUS
 62
    7
 10
277.03114460229375
 20
54.872071215136771
 11
275.23686495131403
 21
54.697773014316851
  0
LINE
  8
_0-0_
  6
CONTINUOUS
 62
    7
 10
275.23686495131403
 20
54.697773014316851
 11
273.48497772242871
 21
53.902976011578403
  0
LINE
  8
_0-0_
  6
CONTINUOUS
 62
    7
 10
273.48497772242871
 20
53.902976011578403
 11
272.73494964941136
 21
53.357000029855953
  0
ARC
  8
_0-0_
  6
CONTINUOUS
 62
    7
 10
288.32340663774619
 20
34.27621185824853
 40
20.611319303512573
 50
67.780700683593764
 51
112.21931084843361
  0
LINE
  8
_0-0_
  6
CONTINUOUS
 62
    7
 10
296.11763424314472
 20
45.418064727274384
 11
297.83351219698625
 21
44.354490979680406
  0
LINE
  8
_0-0_
  6
CONTINUOUS
 62
    7
 10
297.83351219698625
 20
44.354490979680406
 11
299.61566593069409
 21
43.902993466716453
  0
LINE
  8
_0-0_
  6
CONTINUOUS
 62
    7
 10
299.61566593069409
 20
43.902993466716453
 11
301.40994560488292
 21
44.077290711845194
  0
LINE
  8
_0-0_
  6
CONTINUOUS
 62
    7
 10
301.40994560488292
 20
44.077290711845194
 11
303.16183293960182
 21
44.872086781472149
  0
LINE
  8
_0-0_
  6
CONTINUOUS
 62
    7
 10
303.16183293960182
 20
44.872086781472149
 11
303.91186143764713
 21
45.418062651546165
  0
LINE
  8
_0-0_
  6
CONTINUOUS
 62
    7
 10
272.73494929708454
 20
45.418064727274384
 11
274.45082725092607
 21
44.354490979680406
  0
LINE
  8
_0-0_
  6
CONTINUOUS
 62
    7
 10
274.45082725092607
 20
44.354490979680406
 11
276.23298098463391
 21
43.902993466716453
  0
LINE
  8
_0-0_
  6
CONTINUOUS
 62
    7
 10
276.23298098463391
 20
43.902993466716453
 11
278.02726065882274
 21
44.077290711845194
  0
LINE
  8
_0-0_
  6
CONTINUOUS
 62
    7
 10
278.02726065882274
 20
44.077290711845194
 11
279.77914799354164
 21
44.872086781472149
  0
LINE
  8
_0-0_
  6
CONTINUOUS
 62
    7
 10
279.77914799354164
 20
44.872086781472149
 11
280.52917649158695
 21
45.418062651546165
  0
ARC
  8
_0-0_
  6
CONTINUOUS
 62
    7
 10
288.32340663774619
 20
64.498852611040888
 40
20.611319303512573
 50
247.78068542480463
 51
292.21929931640619
  0
LINE
  8
_0-0_
  6
CONTINUOUS
 62
    7
 10
305.64391440279348
 20
61.588121891474543
 11
305.64391440279348
 21
73.186940895990915
  0
LINE
  8
_0-0_
  6
CONTINUOUS
 62
    7
 10
301.31378716356619
 20
74.887532234644709
 11
275.33302611238821
 21
74.887532234644709
  0
LINE
  8
_0-0_
  6
CONTINUOUS
 62
    7
 10
279.66315275556906
 20
73.186941382943928
 11
279.66315275556906
 21
61.588121891474543
  0
LINE
  8
_0-0_
  6
CONTINUOUS
 62
    7
 10
275.33302611238821
 20
59.887532234644709
 11
301.31378716356619
 21
59.887532234644709
  0
LINE
  8
_0-0_
  6
CONTINUOUS
 62
    7
 10
296.98366052038534
 20
61.588121891474543
 11
296.98366052038534
 21
73.186941382943473
  0
LINE
  8
_0-0_
  6
CONTINUOUS
 62
    7
 10
271.00289887316092
 20
73.18694089599046
 11
271.00289887316092
 21
61.588121891474543
  0
LINE
  8
_0-0_
  6
CONTINUOUS
 62
    7
 10
305.64391440279337
 20
73.186940895990801
 11
303.73738332114846
 21
74.36868936361202
  0
LINE
  8
_0-0_
  6
CONTINUOUS
 62
    7
 10
303.73738332114846
 20
74.36868936361202
 11
301.75721249665429
 21
74.870353120649725
  0
LINE
  8
_0-0_
  6
CONTINUOUS
 62
    7
 10
301.75721249665429
 20
74.870353120649725
 11
299.76356841779824
 21
74.676689367700419
  0
LINE
  8
_0-0_
  6
CONTINUOUS
 62
    7
 10
299.76356841779824
 20
74.676689367700419
 11
297.81702695108379
 21
73.793582479898873
  0
LINE
  8
_0-0_
  6
CONTINUOUS
 62
    7
 10
297.81702695108379
 20
73.793582479898873
 11
296.98366052038523
 21
73.186941382943473
  0
LINE
  8
_0-0_
  6
CONTINUOUS
 62
    7
 10
279.66315275556883
 20
73.186941382943758
 11
277.75662164069996
 21
74.368689636162287
  0
LINE
  8
_0-0_
  6
CONTINUOUS
 62
    7
 10
277.75662164069996
 20
74.368689636162287
 11
275.77645080210186
 21
74.870353170515955
  0
LINE
  8
_0-0_
  6
CONTINUOUS
 62
    7
 10
275.77645080210186
 20
74.870353170515955
 11
273.78280672869056
 21
74.676689193367508
  0
LINE
  8
_0-0_
  6
CONTINUOUS
 62
    7
 10
273.78280672869056
 20
74.676689193367508
 11
271.83626528680401
 21
73.793582086663775
  0
LINE
  8
_0-0_
  6
CONTINUOUS
 62
    7
 10
271.83626528680401
 20
73.793582086663775
 11
271.00289887316069
 21
73.186940895990517
  0
ARC
  8
_0-0_
  6
CONTINUOUS
 62
    7
 10
288.3234066379772
 20
51.986065149760066
 40
22.901465892791748
 50
67.780700683593764
 51
112.21931457519528
  0
LINE
  8
_0-0_
  6
CONTINUOUS
 62
    7
 10
296.98365953286446
 20
61.588123893122145
 11
298.89019059268833
 21
60.406375284684373
  0
LINE
  8
_0-0_
  6
CONTINUOUS
 62
    7
 10
298.89019059268833
 20
60.406375284684373
 11
300.87036140791935
 21
59.90471138139111
  0
LINE
  8
_0-0_
  6
CONTINUOUS
 62
    7
 10
300.87036140791935
 20
59.90471138139111
 11
302.86400549035136
 21
60.098374987089755
  0
LINE
  8
_0-0_
  6
CONTINUOUS
 62
    7
 10
302.86400549035136
 20
60.098374987089755
 11
304.81054697337237
 21
60.981481731119629
  0
LINE
  8
_0-0_
  6
CONTINUOUS
 62
    7
 10
304.81054697337237
 20
60.981481731119629
 11
305.64391197120045
 21
61.588121586757438
  0
LINE
  8
_0-0_
  6
CONTINUOUS
 62
    7
 10
271.00289848168649
 20
61.588123893122145
 11
272.90942954151035
 21
60.406375284684373
  0
LINE
  8
_0-0_
  6
CONTINUOUS
 62
    7
 10
272.90942954151035
 20
60.406375284684373
 11
274.88960035674137
 21
59.90471138139111
  0
LINE
  8
_0-0_
  6
CONTINUOUS
 62
    7
 10
274.88960035674137
 20
59.90471138139111
 11
276.88324443917338
 21
60.098374987089755
  0
LINE
  8
_0-0_
  6
CONTINUOUS
 62
    7
 10
276.88324443917338
 20
60.098374987089755
 11
278.82978592219439
 21
60.981481731119629
  0
LINE
  8
_0-0_
  6
CONTINUOUS
 62
    7
 10
278.82978592219439
 20
60.981481731119629
 11
279.66315092002247
 21
61.588121586757438
  0
ARC
  8
_0-0_
  6
CONTINUOUS
 62
    7
 10
288.3234066379772
 20
82.788999319529353
 40
22.901465892791748
 50
247.78068542480463
 51
292.21929931640619
  0
LINE
  8
_0-0_
  6
CONTINUOUS
 62
    7
 10
148.14915035260708
 20
149.98753261611444
 11
149.04915044797451
 21
150.88753223464471
  0
LINE
  8
_0-0_
  6
CONTINUOUS
 62
    7
 10
149.04915044797451
 20
150.88753223464471
 11
163.24915025723965
 21
150.88753223464471
  0
LINE
  8
_0-0_
  6
CONTINUOUS
 62
    7
 10
163.24915025723965
 20
150.88753223464471
 11
164.14915035260708
 21
149.98753261611444
  0
LINE
  8
_0-0_
  6
CONTINUOUS
 62
    7
 10
163.07735346038623
 20
49.88753223649735
 11
163.07735346038623
 21
41.248003960108576
  0
LINE
  8
_0-0_
  6
CONTINUOUS
 62
    7
 10
164.14915035260708
 20
39.887532234644709
 11
164.14915035260708
 21
35.831804144644025
  0
LINE
  8
_0-0_
  6
CONTINUOUS
 62
    7
 10
164.14915035260708
 20
35.831804144644025
 11
148.14915035260708
 21
35.831804144644025
  0
LINE
  8
_0-0_
  6
CONTINUOUS
 62
    7
 10
148.14915035260708
 20
35.831804144644025
 11
148.14915035260708
 21
39.887532234644709
  0
LINE
  8
_0-0_
  6
CONTINUOUS
 62
    7
 10
145.75684593398944
 20
39.887532234644709
 11
166.54145477493182
 21
39.887532234644709
  0
LINE
  8
_0-0_
  6
CONTINUOUS
 62
    7
 10
170.00555656631275
 20
41.248003960108576
 11
170.00555656631275
 21
49.887532236497805
  0
LINE
  8
_0-0_
  6
CONTINUOUS
 62
    7
 10
170.00555656631275
 20
49.887532236497805
 11
142.29274414260669
 21
49.887532236497805
  0
LINE
  8
_0-0_
  6
CONTINUOUS
 62
    7
 10
142.29274414260669
 20
49.887532236497805
 11
142.29274414260669
 21
41.248003960108576
  0
LINE
  8
_0-0_
  6
CONTINUOUS
 62
    7
 10
149.22094724853321
 20
41.248003960108576
 11
149.22094724853321
 21
49.88753223649735
  0
LINE
  8
_0-0_
  6
CONTINUOUS
 62
    7
 10
182.14915035260708
 20
4.8875322346447092
 11
182.14915035260708
 21
5.8875322346447092
  0
LINE
  8
_0-0_
  6
CONTINUOUS
 62
    7
 10
182.14915035260708
 20
4.8875322346447092
 11
130.14915035260708
 21
4.8875322346447092
  0
LINE
  8
_0-0_
  6
CONTINUOUS
 62
    7
 10
130.14915035260708
 20
4.8875322346447092
 11
130.14915035260708
 21
5.8875322346447092
  0
LINE
  8
_0-0_
  6
CONTINUOUS
 62
    7
 10
126.14915035260617
 20
5.8875322346447092
 11
126.14915035260617
 21
17.687532234644891
  0
LINE
  8
_0-0_
  6
CONTINUOUS
 62
    7
 10
126.14915035260617
 20
17.687532234644891
 11
138.3491503526069
 21
29.887532234644709
  0
LINE
  8
_0-0_
  6
CONTINUOUS
 62
    7
 10
138.3491503526069
 20
29.887532234644709
 11
173.94915035260726
 21
29.887532234644709
  0
LINE
  8
_0-0_
  6
CONTINUOUS
 62
    7
 10
173.94915035260726
 20
29.887532234644709
 11
186.14915035260708
 21
17.687532234644891
  0
LINE
  8
_0-0_
  6
CONTINUOUS
 62
    7
 10
186.14915035260708
 20
17.687532234644891
 11
126.14915035260617
 21
17.687532234644891
  0
LINE
  8
_0-0_
  6
CONTINUOUS
 62
    7
 10
126.14915035260617
 20
5.8875322346447092
 11
186.14915035260708
 21
5.8875322346447092
  0
LINE
  8
_0-0_
  6
CONTINUOUS
 62
    7
 10
186.14915035260708
 20
5.8875322346447092
 11
186.14915035260708
 21
17.687532234644891
  0
ARC
  8
_0-0_
  6
CONTINUOUS
 62
    7
 10
156.14915035260708
 20
26.887532234644709
 40
12
 50
14.477512185929864
 51
48.189685104221027
  0
ARC
  8
_0-0_
  6
CONTINUOUS
 62
    7
 10
156.14915035260708
 20
26.887532234644709
 40
12
 50
131.81031489577896
 51
165.52248781407013
  0
LINE
  8
_0-0_
  6
CONTINUOUS
 62
    7
 10
163.07735267037043
 20
41.24800556142668
 11
164.60257751822951
 21
40.30260667467644
  0
LINE
  8
_0-0_
  6
CONTINUOUS
 62
    7
 10
164.60257751822951
 20
40.30260667467644
 11
166.18671417041435
 21
39.901275552041852
  0
LINE
  8
_0-0_
  6
CONTINUOUS
 62
    7
 10
166.18671417041435
 20
39.901275552041852
 11
167.78162943635994
 21
40.056206436600746
  0
LINE
  8
_0-0_
  6
CONTINUOUS
 62
    7
 10
167.78162943635994
 20
40.056206436600746
 11
169.33886262277679
 21
40.762691831824611
  0
LINE
  8
_0-0_
  6
CONTINUOUS
 62
    7
 10
169.33886262277679
 20
40.762691831824611
 11
170.00555462103921
 21
41.248003716334892
  0
LINE
  8
_0-0_
  6
CONTINUOUS
 62
    7
 10
142.29274382942805
 20
41.24800556142668
 11
143.81796867728713
 21
40.30260667467644
  0
LINE
  8
_0-0_
  6
CONTINUOUS
 62
    7
 10
143.81796867728713
 20
40.30260667467644
 11
145.40210532947196
 21
39.901275552041852
  0
LINE
  8
_0-0_
  6
CONTINUOUS
 62
    7
 10
145.40210532947196
 20
39.901275552041852
 11
146.99702059541755
 21
40.056206436600746
  0
LINE
  8
_0-0_
  6
CONTINUOUS
 62
    7
 10
146.99702059541755
 20
40.056206436600746
 11
148.5542537818344
 21
40.762691831824611
  0
LINE
  8
_0-0_
  6
CONTINUOUS
 62
    7
 10
148.5542537818344
 20
40.762691831824611
 11
149.22094578009683
 21
41.248003716334892
  0
ARC
  8
_0-0_
  6
CONTINUOUS
 62
    7
 10
156.14915035445972
 20
58.208705902552424
 40
18.321172714233398
 50
247.78068542480463
 51
292.21929931640619
  0
LINE
  8
_0-0_
  6
CONTINUOUS
 62
    7
 10
170.00555656631275
 20
63.248003961960762
 11
170.00555656631275
 21
73.527059163721674
  0
LINE
  8
_0-0_
  6
CONTINUOUS
 62
    7
 10
166.54145477493182
 20
74.887532234644709
 11
145.75684593398944
 21
74.887532234644709
  0
LINE
  8
_0-0_
  6
CONTINUOUS
 62
    7
 10
148.14915035260708
 20
74.887532234644709
 11
148.14915035260708
 21
149.98753261611444
  0
LINE
  8
_0-0_
  6
CONTINUOUS
 62
    7
 10
164.14915035260708
 20
149.98753261611444
 11
164.14915035260708
 21
74.887532234644709
  0
LINE
  8
_0-0_
  6
CONTINUOUS
 62
    7
 10
149.22094724853321
 20
73.527059358502697
 11
149.22094724853321
 21
63.248003961960762
  0
LINE
  8
_0-0_
  6
CONTINUOUS
 62
    7
 10
164.14915035260708
 20
61.887532236496895
 11
164.14915035260708
 21
49.887532234644709
  0
LINE
  8
_0-0_
  6
CONTINUOUS
 62
    7
 10
148.14915035260708
 20
49.887532234644709
 11
148.14915035260708
 21
61.887532236496895
  0
LINE
  8
_0-0_
  6
CONTINUOUS
 62
    7
 10
145.75684593398944
 20
61.887532236496895
 11
166.54145477493182
 21
61.887532236496895
  0
LINE
  8
_0-0_
  6
CONTINUOUS
 62
    7
 10
163.07735346038623
 20
63.248003961960762
 11
163.07735346038623
 21
73.527059358502697
  0
LINE
  8
_0-0_
  6
CONTINUOUS
 62
    7
 10
142.29274414260669
 20
73.527059163721219
 11
142.29274414260669
 21
63.248003961960762
  0
ARC
  8
_0-0_
  6
CONTINUOUS
 62
    7
 10
156.14915035445972
 20
56.566358566736994
 40
18.321172714233398
 50
67.780689151566392
 51
112.21931084843362
  0
LINE
  8
_0-0_
  6
CONTINUOUS
 62
    7
 10
170.0055565663136
 20
73.52705916372156
 11
168.48033170099768
 21
74.472457937818604
  0
LINE
  8
_0-0_
  6
CONTINUOUS
 62
    7
 10
168.48033170099768
 20
74.472457937818604
 11
166.89619504140228
 21
74.873788943448744
  0
LINE
  8
_0-0_
  6
CONTINUOUS
 62
    7
 10
166.89619504140228
 20
74.873788943448744
 11
165.30127977831751
 21
74.718857941089311
  0
LINE
  8
_0-0_
  6
CONTINUOUS
 62
    7
 10
165.30127977831751
 20
74.718857941089311
 11
163.74404660494594
 21
74.012372430848075
  0
LINE
  8
_0-0_
  6
CONTINUOUS
 62
    7
 10
163.74404660494594
 20
74.012372430848075
 11
163.07735267037043
 21
73.527058907862738
  0
LINE
  8
_0-0_
  6
CONTINUOUS
 62
    7
 10
149.22094578009683
 20
73.527060752954526
 11
147.69572080635032
 21
74.47245882732085
  0
LINE
  8
_0-0_
  6
CONTINUOUS
 62
    7
 10
147.69572080635032
 20
74.47245882732085
 11
146.11158410072511
 21
74.873789106193215
  0
LINE
  8
_0-0_
  6
CONTINUOUS
 62
    7
 10
146.11158410072511
 20
74.873789106193215
 11
144.51666885540982
 21
74.718857372131083
  0
LINE
  8
_0-0_
  6
CONTINUOUS
 62
    7
 10
144.51666885540982
 20
74.718857372131083
 11
142.95943576306729
 21
74.012371147474596
  0
LINE
  8
_0-0_
  6
CONTINUOUS
 62
    7
 10
142.95943576306729
 20
74.012371147474596
 11
142.29274414260749
 21
73.527059163721447
  0
LINE
  8
_0-0_
  6
CONTINUOUS
 62
    7
 10
163.07735267037043
 20
63.248005563278866
 11
164.60257751822951
 21
62.302606676528626
  0
LINE
  8
_0-0_
  6
CONTINUOUS
 62
    7
 10
164.60257751822951
 20
62.302606676528626
 11
166.18671417041435
 21
61.901275553894038
  0
LINE
  8
_0-0_
  6
CONTINUOUS
 62
    7
 10
166.18671417041435
 20
61.901275553894038
 11
167.78162943635994
 21
62.056206438452932
  0
LINE
  8
_0-0_
  6
CONTINUOUS
 62
    7
 10
167.78162943635994
 20
62.056206438452932
 11
169.33886262277679
 21
62.762691833676797
  0
LINE
  8
_0-0_
  6
CONTINUOUS
 62
    7
 10
169.33886262277679
 20
62.762691833676797
 11
170.00555462103921
 21
63.248003718187078
  0
LINE
  8
_0-0_
  6
CONTINUOUS
 62
    7
 10
142.29274382942805
 20
63.248005563278866
 11
143.81796867728713
 21
62.302606676528626
  0
LINE
  8
_0-0_
  6
CONTINUOUS
 62
    7
 10
143.81796867728713
 20
62.302606676528626
 11
145.40210532947196
 21
61.901275553894038
  0
LINE
  8
_0-0_
  6
CONTINUOUS
 62
    7
 10
145.40210532947196
 20
61.901275553894038
 11
146.99702059541755
 21
62.056206438452932
  0
LINE
  8
_0-0_
  6
CONTINUOUS
 62
    7
 10
146.99702059541755
 20
62.056206438452932
 11
148.5542537818344
 21
62.762691833676797
  0
LINE
  8
_0-0_
  6
CONTINUOUS
 62
    7
 10
148.5542537818344
 20
62.762691833676797
 11
149.22094578009683
 21
63.248003718187078
  0
ARC
  8
_0-0_
  6
CONTINUOUS
 62
    7
 10
156.14915035445972
 20
80.20870590440461
 40
18.321172714233398
 50
247.78068542480463
 51
292.21929931640619
  0
LINE
  8
_0-0_
  6
CONTINUOUS
 62
    7
 10
27.283234351157603
 20
140.08753299758416
 11
27.283234351157603
 21
74.887532234644709
  0
LINE
  8
_0-0_
  6
CONTINUOUS
 62
    7
 10
27.283234351157603
 20
64.887532234644254
 11
27.283234351157603
 21
42.887532234644709
  0
LINE
  8
_0-0_
  6
CONTINUOUS
 62
    7
 10
39.283234351157603
 20
140.08753299758416
 11
39.283234351157603
 21
74.887532234644709
  0
LINE
  8
_0-0_
  6
CONTINUOUS
 62
    7
 10
39.283234351157603
 20
64.887532234644254
 11
39.283234351157603
 21
42.887532234644709
  0
LINE
  8
_0-0_
  6
CONTINUOUS
 62
    7
 10
278.32340663566163
 20
151.76253271148187
 11
278.32340663566163
 21
74.887532234644709
  0
LINE
  8
_0-0_
  6
CONTINUOUS
 62
    7
 10
278.32340663566163
 20
59.887532234644709
 11
278.32340663566163
 21
54.887532234644709
  0
LINE
  8
_0-0_
  6
CONTINUOUS
 62
    7
 10
298.32340663566163
 20
54.887532234644709
 11
298.32340663566163
 21
59.887532234644709
  0
LINE
  8
_0-0_
  6
CONTINUOUS
 62
    7
 10
298.32340663566163
 20
74.887532234644709
 11
298.32340663566163
 21
151.76253271148187
  0
LINE
  8
_0-1_
  6
CENTER1
 62
  152
 10
288.32340663566163
 20
162.58558064934584
 11
288.32340663566163
 21
244.83378634270809
  0
LINE
  8
_0-1_
  6
CENTER1
 62
  152
 10
248.32340663566163
 20
204.83378634270809
 11
328.32340663566163
 21
204.83378634270809
  0
CIRCLE
  8
_0-1_
  6
CONTINUOUS
 62
  152
 10
288.32340663566163
 20
204.83378634270809
 40
8.8749998810001109
  0
LINE
  8
_0-1_
  6
CENTER1
 62
  152
 10
126.14915035260617
 20
204.83378634270809
 11
186.14915035260708
 21
204.83378634270809
  0
LINE
  8
_0-1_
  6
CENTER1
 62
  152
 10
156.14915035260708
 20
234.83378634270809
 11
156.14915035260708
 21
172.89283526757652
  0
CIRCLE
  8
_0-1_
  6
CONTINUOUS
 62
  152
 10
156.14915035260708
 20
204.83378634270855
 40
7.1500000953674316
  0
LINE
  8
_0-1_
  6
CENTER1
 62
  152
 10
33.283234351157603
 20
176.7580557494133
 11
33.283234351157603
 21
229.83378634270809
  0
LINE
  8
_0-1_
  6
CENTER1
 62
  152
 10
8.2832343511576028
 20
204.83378634270809
 11
58.283234351157603
 21
204.83378634270809
  0
CIRCLE
  8
_0-1_
  6
CONTINUOUS
 62
  152
 10
33.283234351157603
 20
204.83378634270855
 40
5.25
  0
LINE
  8
_0-1_
  6
CONTINUOUS
 62
  152
 10
27.283234351157603
 20
140.08753299758416
 11
39.283234351157603
 21
140.08753299758416
  0
LINE
  8
_0-1_
  6
CENTER1
 62
  152
 10
33.283234351157603
 20
4.8875322346447092
 11
33.283234351157603
 21
144.89035417384946
  0
LINE
  8
ADD_LINE
  6
DOT
 62
  152
 10
32.576127569970936
 20
75.594639015830921
 11
33.283234351157603
 21
74.887532234644709
  0
LINE
  8
ADD_LINE
  6
DOT
 62
  152
 10
33.283234351157603
 20
74.887532234644709
 11
33.99034113234427
 21
75.594639015830921
  0
LINE
  8
_0-1_
  6
CONTINUOUS
 62
  152
 10
278.32340663566163
 20
151.76253271148187
 11
298.32340663566163
 21
151.76253271148187
  0
LINE
  8
_0-1_
  6
CENTER1
 62
  152
 10
288.32340663566163
 20
4.8875322346447092
 11
288.32340663566163
 21
155.45529015753607
  0
LINE
  8
_0-1_
  6
CONTINUOUS
 62
  152
 10
164.14915035260708
 20
149.98753261611444
 11
148.14915035260708
 21
149.98753261611444
  0
LINE
  8
_0-1_
  6
CONTINUOUS
 62
  152
 10
149.04915044797451
 20
56.387532234644709
 11
148.14915035260708
 21
54.828686342651395
  0
LINE
  8
_0-1_
  6
CONTINUOUS
 62
  152
 10
148.14915035260708
 20
56.387532234644709
 11
164.14915035260708
 21
56.387532234644709
  0
LINE
  8
_0-1_
  6
CENTER1
 62
  152
 10
156.14915035260708
 20
154.68224606116871
 11
156.14915035260708
 21
4.8875322346447092
  0
LINE
  8
_0-1_
  6
CONTINUOUS
 62
  152
 10
164.14915035260708
 20
54.828686342651395
 11
163.24915025723965
 21
56.387532234644709
  0
LINE
  8
_0-1_
  6
CONTINUOUS
 62
  152
 10
163.24915025723965
 20
74.887532236496895
 11
163.24915025723965
 21
150.88753223464471
  0
LINE
  8
_0-1_
  6
CONTINUOUS
 62
  152
 10
149.04915044797451
 20
150.88753223464471
 11
149.04915044797451
 21
74.887532234644709
  0
LINE
  8
_0-1_
  6
CONTINUOUS
 62
  152
 10
149.04915044797451
 20
61.887532236496895
 11
149.04915044797451
 21
56.387532234644709
  0
LINE
  8
_0-1_
  6
CONTINUOUS
 62
  152
 10
163.24915025723965
 20
56.387532234644709
 11
163.24915025723965
 21
61.887532236496895
  0
TEXT
  8
_0-1_
 62
    7
 10
254.20550834390622
 20
143.50027054112707
 40
5
 41
1
 50
0
  1
AJBT-M20
  0
TEXT
  8
_0-1_
 62
    7
 10
123.43161403084451
 20
140.35254004343852
 40
5
 41
1
 50
0
  1
AJBT-M16
  0
TEXT
  8
_0-1_
 62
    7
 10
3.2932333690639553
 20
126.14005991751134
 40
5
 41
1
 50
0
  1
AJBT-M12
  0
LINE
  8
_0-1_
  6
CONTINUOUS
 62
  152
 10
28.083234541892466
 20
42.887532234644709
 11
28.083234541892466
 21
64.887532234644254
  0
LINE
  8
_0-1_
  6
CONTINUOUS
 62
  152
 10
28.083234541892466
 20
74.887532234644709
 11
28.083234541892466
 21
140.88753223464471
  0
LINE
  8
_0-1_
  6
CONTINUOUS
 62
  152
 10
38.483234160422739
 20
42.887532234644709
 11
38.483234160422739
 21
64.887532234644254
  0
LINE
  8
_0-1_
  6
CONTINUOUS
 62
  152
 10
38.483234160422739
 20
74.887532234644709
 11
38.483234160422739
 21
140.88753223464471
  0
LINE
  8
_0-1_
  6
CONTINUOUS
 62
  152
 10
279.44840675487092
 20
54.887532234644709
 11
279.44840675487092
 21
59.887532234644709
  0
LINE
  8
_0-1_
  6
CONTINUOUS
 62
  152
 10
279.44840675487092
 20
74.887532234644709
 11
279.44840675487092
 21
152.88753223464471
  0
LINE
  8
_0-1_
  6
CONTINUOUS
 62
  152
 10
297.19840651645234
 20
152.88753223464471
 11
297.19840651645234
 21
74.887532234644709
  0
LINE
  8
_0-1_
  6
CONTINUOUS
 62
  152
 10
297.19840651645234
 20
59.887532234644709
 11
297.19840651645234
 21
54.887532234644709
  0
ENDSEC
  0
EOF
