  0
SECTION
  2
HEADER
  9
$ACADVER
  1
AC1009
  9
$INSBASE
 10
0
 20
0
 30
0
  9
$EXTMIN
 10
0
 20
0
  9
$EXTMAX
 10
1189
 20
841
  9
$LIMMIN
 10
0
 20
0
  9
$LIMMAX
 10
1189
 20
841
  9
$LTSCALE
 40
1
  0
ENDSEC
  0
SECTION
  2
TABLES
  0
TABLE
  2
LTYPE
 70
     9
  0
LTYPE
  2
CONTINUOUS
 70
    64
  3
実線
 72
    65
 73
     0
 40
0.0
  0
LTYPE
  2
DASHED1
 70
    64
  3
--  --  --  --  --  --  --  --  
 72
    65
 73
     2
 40
2.5
 49
1.25
 49
-1.25
  0
LTYPE
  2
DASHED2
 70
    64
  3
----    ----    ----    ----    
 72
    65
 73
     2
 40
5.0
 49
2.5
 49
-2.5
  0
LTYPE
  2
DASHED3
 70
    64
  3
------  ------  ------  ------  
 72
    65
 73
     2
 40
5.0
 49
3.75
 49
-1.25
  0
LTYPE
  2
CENTER1
 70
    64
  3
----- - ----- - ----- - ----- - 
 72
    65
 73
     4
 40
10.0
 49
6.25
 49
-1.25
 49
1.25
 49
-1.25
  0
LTYPE
  2
CENTER2
 70
    64
  3
----------  --  ----------  --  
 72
    65
 73
     4
 40
20.0
 49
12.5
 49
-2.5
 49
2.5
 49
-2.5
  0
LTYPE
  2
PHANTOM1
 70
    64
  3
--- - - --- - - --- - - --- - - 
 72
    65
 73
     6
 40
10.0
 49
3.25
 49
-1.25
 49
1.25
 49
-1.25
 49
1.25
 49
-1.25
  0
LTYPE
  2
PHANTOM2
 70
    64
  3
--------  -  -  --------  -  -  
 72
    65
 73
     6
 40
20.0
 49
10.0
 49
-2.5
 49
1.25
 49
-2.5
 49
1.25
 49
-2.5
  0
LTYPE
  2
DOT
 70
    64
  3
-   -   -   -   -   -   -   -   
 72
    65
 73
     2
 40
2.5
 49
0.625
 49
-1.875
  0
LTYPE
  2
DUMMY
 70
    64
  3
ダミー
 72
    65
 73
     0
 40
0.0
  0
LTYPE
  2
RAND1
 70
    64
  3
ランダム線1
 72
    65
 73
     4
 40
10.0
 49
1.0
 49
-2.0
 49
3.0
 49
-4.0
  0
LTYPE
  2
RAND2
 70
    64
  3
ランダム線2
 72
    65
 73
     4
 40
14.0
 49
2.0
 49
-3.0
 49
4.0
 49
-5.0
  0
LTYPE
  2
RAND3
 70
    64
  3
ランダム線3
 72
    65
 73
     4
 40
18.0
 49
3.0
 49
-4.0
 49
5.0
 49
-6.0
  0
LTYPE
  2
RAND4
 70
    64
  3
ランダム線4
 72
    65
 73
     4
 40
22.0
 49
4.0
 49
-5.0
 49
6.0
 49
-7.0
  0
LTYPE
  2
RAND5
 70
    64
  3
ランダム線5
 72
    65
 73
     4
 40
26.0
 49
5.0
 49
-6.0
 49
7.0
 49
-8.0
  0
LTYPE
  2
LONG1
 70
    64
  3
----------  --  ----------  --  
 72
    65
 73
     4
 40
40.0
 49
32.5
 49
-2.5
 49
2.5
 49
-2.5
  0
LTYPE
  2
LONG2
 70
    64
  3
--------  -  -  --------  -  -  
 72
    65
 73
     6
 40
40.0
 49
30.0
 49
-2.5
 49
1.25
 49
-2.5
 49
1.25
 49
-2.5
  0
LTYPE
  2
LONG3
 70
    64
  3
+++++++++++++++..+++++++++++++++
 72
    65
 73
     2
 40
40.0
 49
37.5
 49
-2.5
  0
LTYPE
  2
LONG4
 70
    64
  3
+++++++++++++++..+++++++++++++++
 72
    65
 73
     2
 40
80.0
 49
75.0
 49
-5.0
  0
LTYPE
  2
LONG5
 70
    64
  3
----------  --  ----------  --  
 72
    65
 73
     4
 40
60.0
 49
37.5
 49
-7.5
 49
7.5
 49
-7.5
  0
LTYPE
  2
dashed
 70
   64
  3
-------   -------------   ------
 72
   65
 73
    2
 40
7.5
 49
6
 49
-1.5
  0
LTYPE
  2
dashed_spaced
 70
   64
  3
----        --------        ----
 72
   65
 73
    2
 40
12
 49
6
 49
-6
  0
LTYPE
  2
long_dashed_dotted
 70
   64
  3
------------- --- --------------
 72
   65
 73
    4
 40
15.25
 49
12
 49
-1.5
 49
0.25
 49
-1.5
  0
LTYPE
  2
long_dashed_double-dotted
 70
   64
  3
----------- --- --- ------------
 72
   65
 73
    6
 40
17
 49
12
 49
-1.5
 49
0.25
 49
-1.5
 49
0.25
 49
-1.5
  0
LTYPE
  2
long_dashed_triplicate-dotted
 70
   64
  3
--------- --- --- --- ----------
 72
   65
 73
    8
 40
18.75
 49
12
 49
-1.5
 49
0.25
 49
-1.5
 49
0.25
 49
-1.5
 49
0.25
 49
-1.5
  0
LTYPE
  2
dotted
 70
   64
  3
   -       -       -       -    
 72
   65
 73
    2
 40
1.75
 49
0.25
 49
-1.5
  0
LTYPE
  2
chain
 70
   64
  3
-------------- -- --------------
 72
   65
 73
    4
 40
18.5
 49
12
 49
-1.5
 49
3.5
 49
-1.5
  0
LTYPE
  2
chain_double_dash
 70
   64
  3
------------ -- -- -------------
 72
   65
 73
    6
 40
23.5
 49
12
 49
-1.5
 49
3.5
 49
-1.5
 49
3.5
 49
-1.5
  0
LTYPE
  2
dashed_dotted
 70
   64
  3
-----------     -     ----------
 72
   65
 73
    4
 40
9.25
 49
6
 49
-1.5
 49
0.25
 49
-1.5
  0
LTYPE
  2
double-dashed_dotted
 70
   64
  3
------   -----------   -   -----
 72
   65
 73
    6
 40
16.75
 49
6
 49
-1.5
 49
6
 49
-1.5
 49
0.25
 49
-1.5
  0
LTYPE
  2
dashed_double-dotted
 70
   64
  3
---------    -    -    ---------
 72
   65
 73
    6
 40
11
 49
6
 49
-1.5
 49
0.25
 49
-1.5
 49
0.25
 49
-1.5
  0
LTYPE
  2
double-dashed_double-dotted
 70
   64
  3
-----   ---------   -   -   ----
 72
   65
 73
    8
 40
18.5
 49
6
 49
-1.5
 49
6
 49
-1.5
 49
0.25
 49
-1.5
 49
0.25
 49
-1.5
  0
LTYPE
  2
dashed_triplicate-dotted
 70
   64
  3
-------    -    -    -    ------
 72
   65
 73
    8
 40
12.75
 49
6
 49
-1.5
 49
0.25
 49
-1.5
 49
0.25
 49
-1.5
 49
0.25
 49
-1.5
  0
LTYPE
  2
double-dashed_triplicate-dotted
 70
   64
  3
-----  ---------  -  -  -  -----
 72
   65
 73
   10
 40
20.25
 49
6
 49
-1.5
 49
6
 49
-1.5
 49
0.25
 49
-1.5
 49
0.25
 49
-1.5
 49
0.25
 49
-1.5
  0
LTYPE
  2
undefined
 70
   64
  3
--------------------------------
 72
   65
 73
    0
 40
0
  0
ENDTAB
  0
TABLE
  2
STYLE
  5
3
100
AcDbSymbolTable
 70
     1
  0
STYLE
  5
10
100
AcDbSymbolTableRecord
100
AcDbTextStyleTableRecord
  2
STANDARD
 70
     0
 40
0.0
 41
1.0
 50
0.0
 71
     0
 42
0.2
  3
txt
  4
bigfont.shx
  0
STYLE
  5
26
100
AcDbSymbolTableRecord
100
AcDbTextStyleTableRecord
  2
TATEGAKI
 70
    68
 40
0.0
 41
1.0
 50
0.0
 71
     0
 42
1.0
  3
txt
  4
bigfont.shx
  0
ENDTAB
  0
TABLE
  2
LAYER
 70
    3
  0
LAYER
  2
_0-0_
 70
   64
 62
    7
  6
CONTINUOUS
  0
LAYER
  2
_0-1_
 70
   64
 62
    7
  6
CONTINUOUS
  0
LAYER
  2
ADD_LINE
 70
   64
 62
    7
  6
CONTINUOUS
  0
ENDTAB
  0
ENDSEC
  0
SECTION
  2
BLOCKS
  0
ENDSEC
  0
SECTION
  2
ENTITIES
  0
LINE
  8
_0-0_
  6
CONTINUOUS
 62
    7
 10
56.762408964577048
 20
12.683049268256525
 11
59.762408964577048
 21
15.683049268256525
  0
LINE
  8
_0-0_
  6
CONTINUOUS
 62
    7
 10
59.762408964577048
 20
15.683049268256525
 11
9.7624089645769345
 21
15.683049268256525
  0
LINE
  8
_0-0_
  6
CONTINUOUS
 62
    7
 10
9.7624089645769345
 20
15.683049268256525
 11
12.762408964576935
 21
12.683049268256525
  0
LINE
  8
_0-0_
  6
CONTINUOUS
 62
    7
 10
12.762408964576935
 20
12.683049268256525
 11
56.762408964577048
 21
12.683049268256525
  0
LINE
  8
_0-0_
  6
CONTINUOUS
 62
    7
 10
59.762408964577048
 20
15.683049268256525
 11
59.762408964577048
 21
25.683049268256525
  0
LINE
  8
_0-0_
  6
CONTINUOUS
 62
    7
 10
56.762408964577048
 20
28.683049268256525
 11
12.762408964576935
 21
28.683049268256525
  0
LINE
  8
_0-0_
  6
CONTINUOUS
 62
    7
 10
9.7624089645769345
 20
25.683049268256525
 11
9.7624089645769345
 21
15.683049268256525
  0
LINE
  8
_0-0_
  6
CONTINUOUS
 62
    7
 10
20.328648964577042
 20
28.683049268256525
 11
20.328648964577042
 21
38.099715462901656
  0
LINE
  8
_0-0_
  6
CONTINUOUS
 62
    7
 10
20.328648964577042
 20
38.099715462901656
 11
23.937088964577015
 21
40.183049268256525
  0
LINE
  8
_0-0_
  6
CONTINUOUS
 62
    7
 10
23.937088964577015
 20
40.183049268256525
 11
45.587728964576968
 21
40.183049268256525
  0
LINE
  8
_0-0_
  6
CONTINUOUS
 62
    7
 10
45.587728964576968
 20
40.183049268256525
 11
49.196168964576941
 21
38.099715462902111
  0
LINE
  8
_0-0_
  6
CONTINUOUS
 62
    7
 10
49.196168964576941
 20
38.099715462902111
 11
49.196168964576941
 21
28.683049268256525
  0
LINE
  8
_0-0_
  6
CONTINUOUS
 62
    7
 10
41.979288964576881
 20
28.683049268256525
 11
41.979288964576881
 21
38.099715462901656
  0
LINE
  8
_0-0_
  6
CONTINUOUS
 62
    7
 10
41.862408964576389
 20
110.18304926825653
 11
42.762408964576935
 21
109.28304926825643
  0
LINE
  8
_0-0_
  6
CONTINUOUS
 62
    7
 10
27.662408964576571
 20
110.18304926825653
 11
26.762408964576935
 21
109.28304926825643
  0
LINE
  8
_0-0_
  6
CONTINUOUS
 62
    7
 10
41.862408964576389
 20
110.18304926825653
 11
27.662408964576571
 21
110.18304926825653
  0
LINE
  8
_0-0_
  6
CONTINUOUS
 62
    7
 10
27.545528964576988
 20
38.099715462901656
 11
27.545528964576988
 21
28.683049268256525
  0
ARC
  8
_0-0_
  6
CONTINUOUS
 62
    7
 10
45.587728964576968
 20
36.016381657547242
 40
4.1666676107091662
 50
90
 51
150.00000000000068
  0
ARC
  8
_0-0_
  6
CONTINUOUS
 62
    7
 10
34.762408964576935
 20
26.64137953345147
 40
13.541669734805117
 50
57.795772496028
 51
122.20422750397205
  0
ARC
  8
_0-0_
  6
CONTINUOUS
 62
    7
 10
23.937088964577015
 20
36.016381657547242
 40
4.1666676107091662
 50
29.999999999999336
 51
90
  0
ARC
  8
_0-0_
  6
CONTINUOUS
 62
    7
 10
56.762408964577048
 20
25.683049268256525
 40
3.0000000000000004
 50
0
 51
90
  0
ARC
  8
_0-0_
  6
CONTINUOUS
 62
    7
 10
12.762408964576935
 20
25.683049268256525
 40
3.0000000000000004
 50
90
 51
180
  0
LINE
  8
_0-0_
  6
CONTINUOUS
 62
    7
 10
343.35320737750993
 20
12.683049268256525
 11
307.35320737750993
 21
12.683049268256525
  0
LINE
  8
_0-0_
  6
CONTINUOUS
 62
    7
 10
307.35320737750993
 20
12.683049268256525
 11
307.35320737750993
 21
16.683049268256525
  0
LINE
  8
_0-0_
  6
CONTINUOUS
 62
    7
 10
305.35320737750993
 20
16.683049268256525
 11
345.35320737750993
 21
16.683049268256525
  0
LINE
  8
_0-0_
  6
CONTINUOUS
 62
    7
 10
345.35320737750993
 20
16.683049268256525
 11
345.35320737750993
 21
20.683049268256525
  0
LINE
  8
_0-0_
  6
CONTINUOUS
 62
    7
 10
343.35320737750993
 20
16.683049268256525
 11
343.35320737750993
 21
12.683049268256525
  0
LINE
  8
_0-0_
  6
CONTINUOUS
 62
    7
 10
340.35320737750993
 20
25.683049268256525
 11
310.35320737750993
 21
25.683049268256525
  0
LINE
  8
_0-0_
  6
CONTINUOUS
 62
    7
 10
316.11560737751046
 20
26.397579268256266
 11
317.35320737750993
 21
25.683049268256525
  0
LINE
  8
_0-0_
  6
CONTINUOUS
 62
    7
 10
316.11560737751046
 20
26.397579268256266
 11
316.11560737751046
 21
32.683049268256525
  0
LINE
  8
_0-0_
  6
CONTINUOUS
 62
    7
 10
316.11560737751046
 20
32.683049268256525
 11
334.59081737751006
 21
32.683049268256525
  0
LINE
  8
_0-0_
  6
CONTINUOUS
 62
    7
 10
334.59081737751006
 20
32.683049268256525
 11
334.59081737751006
 21
26.397579268256266
  0
LINE
  8
_0-0_
  6
CONTINUOUS
 62
    7
 10
334.59081737751006
 20
26.397579268256266
 11
333.35320737750993
 21
25.683049268256525
  0
LINE
  8
_0-0_
  6
CONTINUOUS
 62
    7
 10
329.97201737750987
 20
26.397579268256266
 11
329.97201737750987
 21
32.683049268256525
  0
LINE
  8
_0-0_
  6
CONTINUOUS
 62
    7
 10
329.65321737750986
 20
82.683049268256525
 11
330.35320737750993
 21
81.983049268256252
  0
LINE
  8
_0-0_
  6
CONTINUOUS
 62
    7
 10
321.05320737750975
 20
82.683049268256525
 11
320.35320737750993
 21
81.983049268256252
  0
LINE
  8
_0-0_
  6
CONTINUOUS
 62
    7
 10
320.73440737750974
 20
32.683049268256525
 11
320.73440737750974
 21
26.397579268256266
  0
LINE
  8
_0-0_
  6
CONTINUOUS
 62
    7
 10
321.05320737750975
 20
82.683049268256525
 11
329.65321737750986
 21
82.683049268256525
  0
LINE
  8
_0-0_
  6
CONTINUOUS
 62
    7
 10
305.35320737750993
 20
20.683049268256525
 11
305.35320737750993
 21
16.683049268256525
  0
ARC
  8
_0-0_
  6
CONTINUOUS
 62
    7
 10
310.35320737750993
 20
20.683049268256525
 40
5
 50
90
 51
180
  0
ARC
  8
_0-0_
  6
CONTINUOUS
 62
    7
 10
340.35320737750993
 20
20.683049268256525
 40
5
 50
0
 51
90
  0
ARC
  8
_0-0_
  6
CONTINUOUS
 62
    7
 10
318.42500737750964
 20
29.772359268255912
 40
4.0893164000000004
 50
235.61575999999997
 51
304.38424999999995
  0
ARC
  8
_0-0_
  6
CONTINUOUS
 62
    7
 10
332.28141737750997
 20
29.772359268255912
 40
4.0893164000000004
 50
235.61575999999997
 51
304.38424999999995
  0
ARC
  8
_0-0_
  6
CONTINUOUS
 62
    7
 10
325.35320737750993
 20
40.968519268256784
 40
15.285468
 50
252.41205000000008
 51
287.58796000000007
  0
LINE
  8
_0-0_
  6
CONTINUOUS
 62
    7
 10
254.1520861171104
 20
16.683049268256525
 11
214.1520861171104
 21
16.683049268256525
  0
LINE
  8
_0-0_
  6
CONTINUOUS
 62
    7
 10
214.1520861171104
 20
16.683049268256525
 11
214.1520861171104
 21
20.683049268256525
  0
LINE
  8
_0-0_
  6
CONTINUOUS
 62
    7
 10
216.1520861171104
 20
16.683049268256525
 11
216.1520861171104
 21
12.683049268256525
  0
LINE
  8
_0-0_
  6
CONTINUOUS
 62
    7
 10
216.1520861171104
 20
12.683049268256525
 11
252.1520861171104
 21
12.683049268256525
  0
LINE
  8
_0-0_
  6
CONTINUOUS
 62
    7
 10
252.1520861171104
 20
12.683049268256525
 11
252.1520861171104
 21
16.683049268256525
  0
LINE
  8
_0-0_
  6
CONTINUOUS
 62
    7
 10
254.1520861171104
 20
16.683049268256525
 11
254.1520861171104
 21
20.683049268256525
  0
LINE
  8
_0-0_
  6
CONTINUOUS
 62
    7
 10
249.1520861171104
 20
25.683049268256525
 11
219.1520861171104
 21
25.683049268256525
  0
LINE
  8
_0-0_
  6
CONTINUOUS
 62
    7
 10
224.91447611711027
 20
26.397579268256266
 11
224.91447611711027
 21
32.683049268256525
  0
LINE
  8
_0-0_
  6
CONTINUOUS
 62
    7
 10
224.91447611711027
 20
32.683049268256525
 11
243.38968611711078
 21
32.683049268256525
  0
LINE
  8
_0-0_
  6
CONTINUOUS
 62
    7
 10
243.38968611711078
 20
32.683049268256525
 11
243.38968611711078
 21
26.397579268256266
  0
LINE
  8
_0-0_
  6
CONTINUOUS
 62
    7
 10
243.38968611711078
 20
26.397579268256266
 11
242.1520861171104
 21
25.683049268256525
  0
LINE
  8
_0-0_
  6
CONTINUOUS
 62
    7
 10
238.77088611711059
 20
26.397579268256266
 11
238.77088611711059
 21
32.683049268256525
  0
LINE
  8
_0-0_
  6
CONTINUOUS
 62
    7
 10
229.53327611711046
 20
32.683049268256525
 11
229.53327611711046
 21
26.397579268256266
  0
LINE
  8
_0-0_
  6
CONTINUOUS
 62
    7
 10
226.1520861171104
 20
25.683049268256525
 11
224.91447611711027
 21
26.397579268256266
  0
ARC
  8
_0-0_
  6
CONTINUOUS
 62
    7
 10
249.1520861171104
 20
20.683049268256525
 40
5
 50
0
 51
90
  0
ARC
  8
_0-0_
  6
CONTINUOUS
 62
    7
 10
219.1520861171104
 20
20.683049268256525
 40
5
 50
90
 51
180
  0
ARC
  8
_0-0_
  6
CONTINUOUS
 62
    7
 10
241.08028611711069
 20
29.772359268255912
 40
4.0893164000000004
 50
235.61575000000005
 51
304.38424000000003
  0
ARC
  8
_0-0_
  6
CONTINUOUS
 62
    7
 10
227.22387611711036
 20
29.772359268255912
 40
4.0893164000000004
 50
235.61575000000005
 51
304.38424000000003
  0
ARC
  8
_0-0_
  6
CONTINUOUS
 62
    7
 10
234.1520861171104
 20
40.968519268256784
 40
15.285468
 50
252.41203999999999
 51
287.58794999999998
  0
LINE
  8
_0-0_
  6
CONTINUOUS
 62
    7
 10
111.20945691647142
 20
25.683049268256525
 11
111.20945691647142
 21
15.683049268256525
  0
LINE
  8
_0-0_
  6
CONTINUOUS
 62
    7
 10
161.20945691647233
 20
15.683049268256525
 11
158.20945691647324
 21
12.683049268256525
  0
LINE
  8
_0-0_
  6
CONTINUOUS
 62
    7
 10
158.20945691647324
 20
12.683049268256525
 11
114.20945691647233
 21
12.683049268256525
  0
LINE
  8
_0-0_
  6
CONTINUOUS
 62
    7
 10
114.20945691647233
 20
12.683049268256525
 11
111.20945691647142
 21
15.683049268256525
  0
LINE
  8
_0-0_
  6
CONTINUOUS
 62
    7
 10
114.20945691647233
 20
28.683049268256525
 11
158.20945691647324
 21
28.683049268256525
  0
LINE
  8
_0-0_
  6
CONTINUOUS
 62
    7
 10
161.20945691647233
 20
25.683049268256525
 11
161.20945691647233
 21
15.683049268256525
  0
LINE
  8
_0-0_
  6
CONTINUOUS
 62
    7
 10
147.17911196032622
 20
28.683049268256525
 11
147.17911196032622
 21
37.045868224631647
  0
LINE
  8
_0-0_
  6
CONTINUOUS
 62
    7
 10
144.43669843951324
 20
38.183049506675559
 11
127.98221540728576
 21
38.183049506675559
  0
LINE
  8
_0-0_
  6
CONTINUOUS
 62
    7
 10
130.20945691647324
 20
107.28304926825643
 11
131.10945691647197
 21
108.18304926825653
  0
LINE
  8
_0-0_
  6
CONTINUOUS
 62
    7
 10
131.10945691647197
 20
108.18304926825653
 11
141.30945691647179
 21
108.18304926825653
  0
LINE
  8
_0-0_
  6
CONTINUOUS
 62
    7
 10
141.30945691647179
 20
108.18304926825653
 11
142.20945691647233
 21
107.28304926825643
  0
LINE
  8
_0-0_
  6
CONTINUOUS
 62
    7
 10
130.72462940493591
 20
37.045868224631647
 11
130.72462940493591
 21
28.683049268256525
  0
LINE
  8
_0-0_
  6
CONTINUOUS
 62
    7
 10
125.23980188647278
 20
28.683049268256525
 11
125.23980188647278
 21
37.045868224631647
  0
LINE
  8
_0-0_
  6
CONTINUOUS
 62
    7
 10
141.69428444186309
 20
37.045868224631647
 11
141.69428444186309
 21
28.683049268256525
  0
LINE
  8
_0-0_
  6
CONTINUOUS
 62
    7
 10
130.72449862741638
 20
37.045867722509797
 11
130.05707484527665
 21
37.564123223214153
  0
LINE
  8
_0-0_
  6
CONTINUOUS
 62
    7
 10
130.05707484527665
 20
37.564123223214153
 11
129.32660750904296
 21
37.931985677064972
  0
LINE
  8
_0-0_
  6
CONTINUOUS
 62
    7
 10
129.32660750904296
 20
37.931985677064972
 11
128.55529149909268
 21
38.138277769549518
  0
LINE
  8
_0-0_
  6
CONTINUOUS
 62
    7
 10
128.55529149909268
 20
38.138277769549518
 11
127.76656286208339
 21
38.176731419826353
  0
LINE
  8
_0-0_
  6
CONTINUOUS
 62
    7
 10
127.76656286208339
 20
38.176731419826353
 11
126.98438671853449
 21
38.046178233190346
  0
LINE
  8
_0-0_
  6
CONTINUOUS
 62
    7
 10
126.98438671853449
 20
38.046178233190346
 11
126.2325290947677
 21
37.750585002154367
  0
LINE
  8
_0-0_
  6
CONTINUOUS
 62
    7
 10
126.2325290947677
 20
37.750585002154367
 11
125.53383480422275
 21
37.298933177465983
  0
LINE
  8
_0-0_
  6
CONTINUOUS
 62
    7
 10
125.53383480422275
 20
37.298933177465983
 11
125.23993314685771
 21
37.045868620584145
  0
LINE
  8
_0-0_
  6
CONTINUOUS
 62
    7
 10
147.17898165964385
 20
37.045867722509797
 11
146.51155787750412
 21
37.564123223214153
  0
LINE
  8
_0-0_
  6
CONTINUOUS
 62
    7
 10
146.51155787750412
 20
37.564123223214153
 11
145.78109054127043
 21
37.931985677064972
  0
LINE
  8
_0-0_
  6
CONTINUOUS
 62
    7
 10
145.78109054127043
 20
37.931985677064972
 11
145.00977453132015
 21
38.138277769549518
  0
LINE
  8
_0-0_
  6
CONTINUOUS
 62
    7
 10
145.00977453132015
 20
38.138277769549518
 11
144.22104589431086
 21
38.176731419826353
  0
LINE
  8
_0-0_
  6
CONTINUOUS
 62
    7
 10
144.22104589431086
 20
38.176731419826353
 11
143.43886975076197
 21
38.046178233190346
  0
LINE
  8
_0-0_
  6
CONTINUOUS
 62
    7
 10
143.43886975076197
 20
38.046178233190346
 11
142.68701212699517
 21
37.750585002154367
  0
LINE
  8
_0-0_
  6
CONTINUOUS
 62
    7
 10
142.68701212699517
 20
37.750585002154367
 11
141.98831783645022
 21
37.298933177465983
  0
LINE
  8
_0-0_
  6
CONTINUOUS
 62
    7
 10
141.98831783645022
 20
37.298933177465983
 11
141.69441617908518
 21
37.045868620584145
  0
ARC
  8
_0-0_
  6
CONTINUOUS
 62
    7
 10
136.20945692339996
 20
24.387305325995783
 40
13.795743942260742
 50
66.573394775390625
 51
113.4265899658203
  0
ARC
  8
_0-0_
  6
CONTINUOUS
 62
    7
 10
158.20945691647324
 20
25.683049268256525
 40
3.0000000000000004
 50
0
 51
90
  0
ARC
  8
_0-0_
  6
CONTINUOUS
 62
    7
 10
114.20945691647233
 20
25.683049268256525
 40
3.0000000000000004
 50
90
 51
180
  0
LINE
  8
_0-0_
  6
CONTINUOUS
 62
    7
 10
111.20945691647142
 20
15.683049268256525
 11
161.20945691647233
 21
15.683049268256525
  0
LINE
  8
_0-0_
  6
CONTINUOUS
 62
    7
 10
20.906002752723907
 20
51.043520993719937
 11
20.906002752723907
 21
62.68304926825607
  0
LINE
  8
_0-0_
  6
CONTINUOUS
 62
    7
 10
24.370104544105743
 20
49.68304926825607
 11
45.154713385048126
 21
49.68304926825607
  0
LINE
  8
_0-0_
  6
CONTINUOUS
 62
    7
 10
48.618815176429962
 20
51.043520993719937
 11
48.618815176429962
 21
62.68304926825607
  0
LINE
  8
_0-0_
  6
CONTINUOUS
 62
    7
 10
27.834205858650421
 20
51.043520993719937
 11
27.834205858650421
 21
62.68304926825607
  0
LINE
  8
_0-0_
  6
CONTINUOUS
 62
    7
 10
41.690612070503448
 20
51.043520993719937
 11
41.690612070503448
 21
62.68304926825607
  0
ARC
  8
_0-0_
  6
CONTINUOUS
 62
    7
 10
34.762408964576935
 20
68.004222936163785
 40
18.321172714233398
 50
247.78068542480463
 51
292.21929931640619
  0
LINE
  8
_0-0_
  6
CONTINUOUS
 62
    7
 10
20.906002439544409
 20
51.043522595037985
 11
22.431227287403544
 21
50.098123708287801
  0
LINE
  8
_0-0_
  6
CONTINUOUS
 62
    7
 10
22.431227287403544
 20
50.098123708287801
 11
24.015363939588269
 21
49.696792585653156
  0
LINE
  8
_0-0_
  6
CONTINUOUS
 62
    7
 10
24.015363939588269
 20
49.696792585653156
 11
25.610279205533971
 21
49.85172347021205
  0
LINE
  8
_0-0_
  6
CONTINUOUS
 62
    7
 10
25.610279205533971
 20
49.85172347021205
 11
27.167512391950822
 21
50.558208865435972
  0
LINE
  8
_0-0_
  6
CONTINUOUS
 62
    7
 10
27.167512391950822
 20
50.558208865435972
 11
27.834204390213245
 21
51.043520749946197
  0
LINE
  8
_0-0_
  6
CONTINUOUS
 62
    7
 10
41.690611280486792
 20
51.043522595037985
 11
43.215836128345927
 21
50.098123708287801
  0
LINE
  8
_0-0_
  6
CONTINUOUS
 62
    7
 10
43.215836128345927
 20
50.098123708287801
 11
44.799972780530652
 21
49.696792585653156
  0
LINE
  8
_0-0_
  6
CONTINUOUS
 62
    7
 10
44.799972780530652
 20
49.696792585653156
 11
46.394888046476353
 21
49.85172347021205
  0
LINE
  8
_0-0_
  6
CONTINUOUS
 62
    7
 10
46.394888046476353
 20
49.85172347021205
 11
47.952121232893205
 21
50.558208865435972
  0
LINE
  8
_0-0_
  6
CONTINUOUS
 62
    7
 10
47.952121232893205
 20
50.558208865435972
 11
48.618813231155627
 21
51.043520749946197
  0
LINE
  8
_0-0_
  6
CONTINUOUS
 62
    7
 10
20.906002752723907
 20
62.68304926825607
 11
48.618815176429962
 21
62.68304926825607
  0
LINE
  8
_0-0_
  6
CONTINUOUS
 62
    7
 10
125.23980187954606
 20
53.820230550299527
 11
125.23980187954606
 21
62.68304926825607
  0
LINE
  8
_0-0_
  6
CONTINUOUS
 62
    7
 10
130.7246293980092
 20
53.820230550299527
 11
130.7246293980092
 21
62.68304926825607
  0
LINE
  8
_0-0_
  6
CONTINUOUS
 62
    7
 10
141.69428443493547
 20
53.820230550299527
 11
141.69428443493547
 21
62.68304926825607
  0
LINE
  8
_0-0_
  6
CONTINUOUS
 62
    7
 10
147.1791119533986
 20
53.820230550299527
 11
147.1791119533986
 21
62.68304926825607
  0
LINE
  8
_0-0_
  6
CONTINUOUS
 62
    7
 10
127.98221540035905
 20
52.68304926825607
 11
144.43669843258562
 21
52.68304926825607
  0
ARC
  8
_0-0_
  6
CONTINUOUS
 62
    7
 10
136.20945691647233
 20
66.478793448935392
 40
13.795743942260742
 50
246.57339477539065
 51
293.42658996582037
  0
LINE
  8
_0-0_
  6
CONTINUOUS
 62
    7
 10
125.23993218022844
 20
53.820231052420922
 11
125.90735596236817
 21
53.301975551716566
  0
LINE
  8
_0-0_
  6
CONTINUOUS
 62
    7
 10
125.90735596236817
 20
53.301975551716566
 11
126.63782329860186
 21
52.934113097865747
  0
LINE
  8
_0-0_
  6
CONTINUOUS
 62
    7
 10
126.63782329860186
 20
52.934113097865747
 11
127.40913930855214
 21
52.727821005381202
  0
LINE
  8
_0-0_
  6
CONTINUOUS
 62
    7
 10
127.40913930855214
 20
52.727821005381202
 11
128.19786794556143
 21
52.689367355104366
  0
LINE
  8
_0-0_
  6
CONTINUOUS
 62
    7
 10
128.19786794556143
 20
52.689367355104366
 11
128.98004408911032
 21
52.819920541740373
  0
LINE
  8
_0-0_
  6
CONTINUOUS
 62
    7
 10
128.98004408911032
 20
52.819920541740373
 11
129.73190171287712
 21
53.115513772776353
  0
LINE
  8
_0-0_
  6
CONTINUOUS
 62
    7
 10
129.73190171287712
 20
53.115513772776353
 11
130.43059600342207
 21
53.567165597464736
  0
LINE
  8
_0-0_
  6
CONTINUOUS
 62
    7
 10
130.43059600342207
 20
53.567165597464736
 11
130.72449766078711
 21
53.820230154346575
  0
LINE
  8
_0-0_
  6
CONTINUOUS
 62
    7
 10
141.694415212455
 20
53.820231052420922
 11
142.36183899459473
 21
53.301975551716566
  0
LINE
  8
_0-0_
  6
CONTINUOUS
 62
    7
 10
142.36183899459473
 20
53.301975551716566
 11
143.09230633082842
 21
52.934113097865747
  0
LINE
  8
_0-0_
  6
CONTINUOUS
 62
    7
 10
143.09230633082842
 20
52.934113097865747
 11
143.8636223407787
 21
52.727821005381202
  0
LINE
  8
_0-0_
  6
CONTINUOUS
 62
    7
 10
143.8636223407787
 20
52.727821005381202
 11
144.65235097778799
 21
52.689367355104366
  0
LINE
  8
_0-0_
  6
CONTINUOUS
 62
    7
 10
144.65235097778799
 20
52.689367355104366
 11
145.43452712133688
 21
52.819920541740373
  0
LINE
  8
_0-0_
  6
CONTINUOUS
 62
    7
 10
145.43452712133688
 20
52.819920541740373
 11
146.18638474510368
 21
53.115513772776353
  0
LINE
  8
_0-0_
  6
CONTINUOUS
 62
    7
 10
146.18638474510368
 20
53.115513772776353
 11
146.88507903564863
 21
53.567165597464736
  0
LINE
  8
_0-0_
  6
CONTINUOUS
 62
    7
 10
146.88507903564863
 20
53.567165597464736
 11
147.17898069301367
 21
53.820230154346575
  0
LINE
  8
_0-0_
  6
CONTINUOUS
 62
    7
 10
125.23980187954606
 20
62.68304926825607
 11
147.1791119533986
 21
62.68304926825607
  0
LINE
  8
_0-0_
  6
CONTINUOUS
 62
    7
 10
224.33713135941997
 20
55.586576051246027
 11
224.33713135941997
 21
62.683049268256525
  0
LINE
  8
_0-0_
  6
CONTINUOUS
 62
    7
 10
226.79087004884258
 20
54.683049268256525
 11
241.51330218537822
 21
54.683049268256525
  0
LINE
  8
_0-0_
  6
CONTINUOUS
 62
    7
 10
229.24460873826519
 20
55.586576051246027
 11
229.24460873826519
 21
62.683049268256525
  0
LINE
  8
_0-0_
  6
CONTINUOUS
 62
    7
 10
239.05956349595562
 20
55.586576051246027
 11
239.05956349595562
 21
62.683049268256525
  0
LINE
  8
_0-0_
  6
CONTINUOUS
 62
    7
 10
243.96704087480083
 20
55.586576051246027
 11
243.96704087480083
 21
62.683049268256525
  0
ARC
  8
_0-0_
  6
CONTINUOUS
 62
    7
 10
234.1520861171104
 20
68.462214536200861
 40
13.779165267944336
 50
249.13592529296875
 51
290.86405944824219
  0
LINE
  8
_0-0_
  6
CONTINUOUS
 62
    7
 10
224.33731320181698
 20
55.586576462244466
 11
224.93688194194687
 21
55.173622976493391
  0
LINE
  8
_0-0_
  6
CONTINUOUS
 62
    7
 10
224.93688194194687
 20
55.173622976493391
 11
225.5927831725416
 21
54.881028234809435
  0
LINE
  8
_0-0_
  6
CONTINUOUS
 62
    7
 10
225.5927831725416
 20
54.881028234809435
 11
226.2850876666115
 21
54.717682580358542
  0
LINE
  8
_0-0_
  6
CONTINUOUS
 62
    7
 10
226.2850876666115
 20
54.717682580358542
 11
226.99276010242727
 21
54.688549188194315
  0
LINE
  8
_0-0_
  6
CONTINUOUS
 62
    7
 10
226.99276010242727
 20
54.688549188194315
 11
227.69429821112612
 21
54.794513261695556
  0
LINE
  8
_0-0_
  6
CONTINUOUS
 62
    7
 10
227.69429821112612
 20
54.794513261695556
 11
228.36838611227074
 21
55.032355136109175
  0
LINE
  8
_0-0_
  6
CONTINUOUS
 62
    7
 10
228.36838611227074
 20
55.032355136109175
 11
228.99454198608976
 21
55.394848106435006
  0
LINE
  8
_0-0_
  6
CONTINUOUS
 62
    7
 10
228.99454198608976
 20
55.394848106435006
 11
229.24442603350451
 21
55.586575746244478
  0
LINE
  8
_0-0_
  6
CONTINUOUS
 62
    7
 10
239.05974533835263
 20
55.586576462244466
 11
239.65931407848251
 21
55.173622976493391
  0
LINE
  8
_0-0_
  6
CONTINUOUS
 62
    7
 10
239.65931407848251
 20
55.173622976493391
 11
240.31521530907725
 21
54.881028234809435
  0
LINE
  8
_0-0_
  6
CONTINUOUS
 62
    7
 10
240.31521530907725
 20
54.881028234809435
 11
241.00751980314715
 21
54.717682580358542
  0
LINE
  8
_0-0_
  6
CONTINUOUS
 62
    7
 10
241.00751980314715
 20
54.717682580358542
 11
241.71519223896291
 21
54.688549188194315
  0
LINE
  8
_0-0_
  6
CONTINUOUS
 62
    7
 10
241.71519223896291
 20
54.688549188194315
 11
242.41673034766177
 21
54.794513261695556
  0
LINE
  8
_0-0_
  6
CONTINUOUS
 62
    7
 10
242.41673034766177
 20
54.794513261695556
 11
243.09081824880639
 21
55.032355136109175
  0
LINE
  8
_0-0_
  6
CONTINUOUS
 62
    7
 10
243.09081824880639
 20
55.032355136109175
 11
243.7169741226254
 21
55.394848106435006
  0
LINE
  8
_0-0_
  6
CONTINUOUS
 62
    7
 10
243.7169741226254
 20
55.394848106435006
 11
243.96685817004015
 21
55.586575746244478
  0
LINE
  8
_0-0_
  6
CONTINUOUS
 62
    7
 10
315.5382526198195
 20
45.586576051246027
 11
315.5382526198195
 21
52.683049268256525
  0
LINE
  8
_0-0_
  6
CONTINUOUS
 62
    7
 10
317.99199130924211
 20
44.683049268256525
 11
332.71442344577775
 21
44.683049268256525
  0
LINE
  8
_0-0_
  6
CONTINUOUS
 62
    7
 10
320.44572999866472
 20
45.586576051246027
 11
320.44572999866472
 21
52.683049268256525
  0
LINE
  8
_0-0_
  6
CONTINUOUS
 62
    7
 10
330.26068475635515
 20
45.586576051246027
 11
330.26068475635515
 21
52.683049268256525
  0
LINE
  8
_0-0_
  6
CONTINUOUS
 62
    7
 10
335.16816213520036
 20
45.586576051246027
 11
335.16816213520036
 21
52.683049268256525
  0
ARC
  8
_0-0_
  6
CONTINUOUS
 62
    7
 10
325.35320737750993
 20
58.462214536200861
 40
13.779165267944336
 50
249.13592529296875
 51
290.86405944824219
  0
LINE
  8
_0-0_
  6
CONTINUOUS
 62
    7
 10
315.53843446221651
 20
45.586576462244466
 11
316.1380032023464
 21
45.173622976493391
  0
LINE
  8
_0-0_
  6
CONTINUOUS
 62
    7
 10
316.1380032023464
 20
45.173622976493391
 11
316.79390443294113
 21
44.881028234809435
  0
LINE
  8
_0-0_
  6
CONTINUOUS
 62
    7
 10
316.79390443294113
 20
44.881028234809435
 11
317.48620892701103
 21
44.717682580358542
  0
LINE
  8
_0-0_
  6
CONTINUOUS
 62
    7
 10
317.48620892701103
 20
44.717682580358542
 11
318.1938813628268
 21
44.688549188194315
  0
LINE
  8
_0-0_
  6
CONTINUOUS
 62
    7
 10
318.1938813628268
 20
44.688549188194315
 11
318.89541947152566
 21
44.794513261695556
  0
LINE
  8
_0-0_
  6
CONTINUOUS
 62
    7
 10
318.89541947152566
 20
44.794513261695556
 11
319.56950737267027
 21
45.032355136109175
  0
LINE
  8
_0-0_
  6
CONTINUOUS
 62
    7
 10
319.56950737267027
 20
45.032355136109175
 11
320.19566324648929
 21
45.394848106435006
  0
LINE
  8
_0-0_
  6
CONTINUOUS
 62
    7
 10
320.19566324648929
 20
45.394848106435006
 11
320.44554729390404
 21
45.586575746244478
  0
LINE
  8
_0-0_
  6
CONTINUOUS
 62
    7
 10
330.26086659875216
 20
45.586576462244466
 11
330.86043533888204
 21
45.173622976493391
  0
LINE
  8
_0-0_
  6
CONTINUOUS
 62
    7
 10
330.86043533888204
 20
45.173622976493391
 11
331.51633656947678
 21
44.881028234809435
  0
LINE
  8
_0-0_
  6
CONTINUOUS
 62
    7
 10
331.51633656947678
 20
44.881028234809435
 11
332.20864106354668
 21
44.717682580358542
  0
LINE
  8
_0-0_
  6
CONTINUOUS
 62
    7
 10
332.20864106354668
 20
44.717682580358542
 11
332.91631349936245
 21
44.688549188194315
  0
LINE
  8
_0-0_
  6
CONTINUOUS
 62
    7
 10
332.91631349936245
 20
44.688549188194315
 11
333.6178516080613
 21
44.794513261695556
  0
LINE
  8
_0-0_
  6
CONTINUOUS
 62
    7
 10
333.6178516080613
 20
44.794513261695556
 11
334.29193950920592
 21
45.032355136109175
  0
LINE
  8
_0-0_
  6
CONTINUOUS
 62
    7
 10
334.29193950920592
 20
45.032355136109175
 11
334.91809538302493
 21
45.394848106435006
  0
LINE
  8
_0-0_
  6
CONTINUOUS
 62
    7
 10
334.91809538302493
 20
45.394848106435006
 11
335.16797943043969
 21
45.586575746244478
  0
LINE
  8
_0-0_
  6
CONTINUOUS
 62
    7
 10
224.33713135941997
 20
62.683049268256525
 11
243.96704087480083
 21
62.683049268256525
  0
LINE
  8
_0-0_
  6
CONTINUOUS
 62
    7
 10
315.5382526198195
 20
52.683049268256525
 11
335.16816213520036
 21
52.683049268256525
  0
LINE
  8
_0-0_
  6
CONTINUOUS
 62
    7
 10
26.762408964576935
 20
109.28304926825643
 11
26.762408964576935
 21
62.68304926825607
  0
LINE
  8
_0-0_
  6
CONTINUOUS
 62
    7
 10
26.762408964576935
 20
49.68304926825607
 11
26.762408964576935
 21
40.183049268256525
  0
LINE
  8
_0-0_
  6
CONTINUOUS
 62
    7
 10
42.762408964576935
 20
109.28304926825643
 11
42.762408964576935
 21
62.68304926825607
  0
LINE
  8
_0-0_
  6
CONTINUOUS
 62
    7
 10
42.762408964576935
 20
49.68304926825607
 11
42.762408964576935
 21
40.183049268256525
  0
LINE
  8
_0-0_
  6
CONTINUOUS
 62
    7
 10
130.20945691647324
 20
38.183049268256525
 11
130.20945691647324
 21
52.68304926825607
  0
LINE
  8
_0-0_
  6
CONTINUOUS
 62
    7
 10
130.20945691647324
 20
62.68304926825607
 11
130.20945691647324
 21
107.28304926825643
  0
LINE
  8
_0-0_
  6
CONTINUOUS
 62
    7
 10
142.20945691647233
 20
107.28304926825643
 11
142.20945691647233
 21
62.68304926825607
  0
LINE
  8
_0-0_
  6
CONTINUOUS
 62
    7
 10
142.20945691647233
 20
52.68304926825607
 11
142.20945691647233
 21
38.183049268256525
  0
LINE
  8
_0-0_
  6
CONTINUOUS
 62
    7
 10
229.1520861171104
 20
111.98304926825625
 11
229.1520861171104
 21
62.683049268256525
  0
LINE
  8
_0-0_
  6
CONTINUOUS
 62
    7
 10
229.1520861171104
 20
54.683049268256525
 11
229.1520861171104
 21
32.683049268256525
  0
LINE
  8
_0-0_
  6
CONTINUOUS
 62
    7
 10
239.1520861171104
 20
111.98304926825625
 11
239.1520861171104
 21
62.683049268256525
  0
LINE
  8
_0-0_
  6
CONTINUOUS
 62
    7
 10
239.1520861171104
 20
54.683049268256525
 11
239.1520861171104
 21
32.683049268256525
  0
LINE
  8
_0-0_
  6
CONTINUOUS
 62
    7
 10
320.35320737750993
 20
81.983049268256252
 11
320.35320737750993
 21
52.683049268256525
  0
LINE
  8
_0-0_
  6
CONTINUOUS
 62
    7
 10
320.35320737750993
 20
44.683049268256525
 11
320.35320737750993
 21
32.683049268256525
  0
LINE
  8
_0-0_
  6
CONTINUOUS
 62
    7
 10
330.35320737750993
 20
81.983049268256252
 11
330.35320737750993
 21
52.683049268256525
  0
LINE
  8
_0-0_
  6
CONTINUOUS
 62
    7
 10
330.35320737750993
 20
44.683049268256525
 11
330.35320737750993
 21
32.683049268256525
  0
CIRCLE
  8
_0-0_
  6
CONTINUOUS
 62
    7
 10
34.762408964576935
 20
159.38749321331409
 40
25
  0
CIRCLE
  8
_0-0_
  6
CONTINUOUS
 62
    7
 10
34.762408964576935
 20
159.38749321331409
 40
22
  0
LINE
  8
_0-0_
  6
CONTINUOUS
 62
    7
 10
34.762408964576935
 20
145.53108700146106
 11
46.762408964576935
 21
152.45929010738803
  0
LINE
  8
_0-0_
  6
CONTINUOUS
 62
    7
 10
46.762408964576935
 20
152.45929010738803
 11
46.762408964576935
 21
166.31569631924108
  0
LINE
  8
_0-0_
  6
CONTINUOUS
 62
    7
 10
46.762408964576935
 20
166.31569631924108
 11
34.762408964576935
 21
173.2438994251676
  0
LINE
  8
_0-0_
  6
CONTINUOUS
 62
    7
 10
34.762408964576935
 20
173.2438994251676
 11
22.762408964576935
 21
166.31569631924108
  0
LINE
  8
_0-0_
  6
CONTINUOUS
 62
    7
 10
22.762408964576935
 20
166.31569631924108
 11
22.762408964576935
 21
152.45929010738803
  0
LINE
  8
_0-0_
  6
CONTINUOUS
 62
    7
 10
22.762408964576935
 20
152.45929010738803
 11
34.762408964576935
 21
145.53108700146106
  0
CIRCLE
  8
_0-0_
  6
CONTINUOUS
 62
    7
 10
34.762408964576935
 20
159.38749321331454
 40
11.5
  0
CIRCLE
  8
_0-0_
  6
CONTINUOUS
 62
    7
 10
34.762408964576935
 20
159.38749321331454
 40
8
  0
CIRCLE
  8
_0-0_
  6
CONTINUOUS
 62
    7
 10
136.20945696457699
 20
159.38749321331409
 40
25.000000048104653
  0
CIRCLE
  8
_0-0_
  6
CONTINUOUS
 62
    7
 10
234.152086114577
 20
159.38749321331409
 40
19.999999997466603
  0
CIRCLE
  8
_0-0_
  6
CONTINUOUS
 62
    7
 10
325.35320737457704
 20
159.38749321331409
 40
19.999999997067135
  0
CIRCLE
  8
_0-0_
  6
CONTINUOUS
 62
    7
 10
136.20945696457699
 20
159.38749321331409
 40
22.000000048104653
  0
CIRCLE
  8
_0-0_
  6
CONTINUOUS
 62
    7
 10
234.152086114577
 20
159.38749321331409
 40
14.999999997466603
  0
CIRCLE
  8
_0-0_
  6
CONTINUOUS
 62
    7
 10
325.35320737457704
 20
159.38749321331409
 40
14.999999997067135
  0
LINE
  8
_0-0_
  6
CONTINUOUS
 62
    7
 10
136.20945696457699
 20
148.41783817638827
 11
145.70945696457699
 21
153.90266569485141
  0
LINE
  8
_0-0_
  6
CONTINUOUS
 62
    7
 10
145.70945696457699
 20
153.90266569485141
 11
145.70945696457699
 21
164.87232073177771
  0
LINE
  8
_0-0_
  6
CONTINUOUS
 62
    7
 10
145.70945696457699
 20
164.87232073177771
 11
136.20945696457699
 21
170.35714825024084
  0
LINE
  8
_0-0_
  6
CONTINUOUS
 62
    7
 10
136.20945696457699
 20
170.35714825024084
 11
126.70945696457699
 21
164.87232073177771
  0
LINE
  8
_0-0_
  6
CONTINUOUS
 62
    7
 10
126.70945696457699
 20
164.87232073177771
 11
126.70945696457699
 21
153.90266569485141
  0
LINE
  8
_0-0_
  6
CONTINUOUS
 62
    7
 10
126.70945696457699
 20
153.90266569485141
 11
136.20945696457699
 21
148.41783817638827
  0
CIRCLE
  8
_0-0_
  6
CONTINUOUS
 62
    7
 10
136.20945696457699
 20
159.38749321331454
 40
9
  0
LINE
  8
_0-0_
  6
CONTINUOUS
 62
    7
 10
234.152086114577
 20
149.57253845562366
 11
242.652086114577
 21
154.48001583446887
  0
LINE
  8
_0-0_
  6
CONTINUOUS
 62
    7
 10
242.652086114577
 20
154.48001583446887
 11
242.652086114577
 21
164.2949705921593
  0
LINE
  8
_0-0_
  6
CONTINUOUS
 62
    7
 10
242.652086114577
 20
164.2949705921593
 11
234.152086114577
 21
169.20244797100455
  0
LINE
  8
_0-0_
  6
CONTINUOUS
 62
    7
 10
234.152086114577
 20
169.20244797100455
 11
225.652086114577
 21
164.2949705921593
  0
LINE
  8
_0-0_
  6
CONTINUOUS
 62
    7
 10
225.652086114577
 20
164.2949705921593
 11
225.652086114577
 21
154.48001583446887
  0
LINE
  8
_0-0_
  6
CONTINUOUS
 62
    7
 10
225.652086114577
 20
154.48001583446887
 11
234.152086114577
 21
149.57253845562366
  0
CIRCLE
  8
_0-0_
  6
CONTINUOUS
 62
    7
 10
234.152086114577
 20
159.38749321331409
 40
8.25
  0
LINE
  8
_0-0_
  6
CONTINUOUS
 62
    7
 10
325.35320737457704
 20
149.57253845562366
 11
333.85320737457704
 21
154.48001583446887
  0
LINE
  8
_0-0_
  6
CONTINUOUS
 62
    7
 10
333.85320737457704
 20
154.48001583446887
 11
333.85320737457704
 21
164.2949705921593
  0
LINE
  8
_0-0_
  6
CONTINUOUS
 62
    7
 10
333.85320737457704
 20
164.2949705921593
 11
325.35320737457704
 21
169.20244797100455
  0
LINE
  8
_0-0_
  6
CONTINUOUS
 62
    7
 10
325.35320737457704
 20
169.20244797100455
 11
316.85320737457704
 21
164.2949705921593
  0
LINE
  8
_0-0_
  6
CONTINUOUS
 62
    7
 10
316.85320737457704
 20
164.2949705921593
 11
316.85320737457704
 21
154.48001583446887
  0
LINE
  8
_0-0_
  6
CONTINUOUS
 62
    7
 10
316.85320737457704
 20
154.48001583446887
 11
325.35320737457704
 21
149.57253845562366
  0
CIRCLE
  8
_0-0_
  6
CONTINUOUS
 62
    7
 10
325.35320737457704
 20
159.38749321331409
 40
8.25
  0
CIRCLE
  8
_0-0_
  6
CONTINUOUS
 62
    7
 10
136.20945696457699
 20
159.38749321331454
 40
6
  0
CIRCLE
  8
_0-0_
  6
CONTINUOUS
 62
    7
 10
234.152086114577
 20
159.38749321331409
 40
5
  0
CIRCLE
  8
_0-0_
  6
CONTINUOUS
 62
    7
 10
325.35320737457704
 20
159.38749321331409
 40
5
  0
LINE
  8
_0-0_
  6
CONTINUOUS
 62
    7
 10
238.45208611711058
 20
112.68304926825653
 11
239.1520861171104
 21
111.98304926825625
  0
LINE
  8
_0-0_
  6
CONTINUOUS
 62
    7
 10
229.85207611711047
 20
112.68304926825653
 11
229.1520861171104
 21
111.98304926825625
  0
LINE
  8
_0-0_
  6
CONTINUOUS
 62
    7
 10
238.45208611711058
 20
112.68304926825653
 11
229.85207611711047
 21
112.68304926825653
  0
LINE
  8
_0-1_
  6
CENTER1
 62
  152
 10
34.762408964576935
 20
110.18304926825653
 11
34.762408964576935
 21
12.683049268256525
  0
LINE
  8
_0-1_
  6
CONTINUOUS
 62
  152
 10
26.762408964576935
 20
109.28304926825643
 11
42.762408964576935
 21
109.28304926825643
  0
TEXT
  8
_0-1_
 62
    7
 10
12.215144698951917
 20
4.9176031536077858
 40
5
 41
1
 50
0
  1
AJ16
  0
LINE
  8
_0-1_
  6
CENTER1
 62
  152
 10
325.35320737750993
 20
12.683049268256525
 11
325.35320737750993
 21
82.683049268256525
  0
LINE
  8
_0-1_
  6
CONTINUOUS
 62
  152
 10
330.35320737750993
 20
81.983049268256252
 11
320.35320737750993
 21
81.983049268256252
  0
TEXT
  8
_0-1_
 62
    7
 10
306.31423314278169
 20
3.8853557460306547
 40
5
 41
1
 50
0
  1
AJ10-S
  0
LINE
  8
_0-1_
  6
CENTER1
 62
  152
 10
234.1520861171104
 20
12.683049268256525
 11
234.1520861171104
 21
112.68304926825653
  0
TEXT
  8
_0-1_
 62
    7
 10
216.42268806627294
 20
4.9176031536077858
 40
5
 41
1
 50
0
  1
AJ10-L
  0
LINE
  8
_0-1_
  6
CONTINUOUS
 62
  152
 10
142.20945691647233
 20
107.28304926825643
 11
130.20945691647324
 21
107.28304926825643
  0
LINE
  8
_0-1_
  6
CENTER1
 62
  152
 10
136.20945691647233
 20
12.683049268256525
 11
136.20945691647233
 21
108.18304926825653
  0
TEXT
  8
_0-1_
 62
    7
 10
113.80549372800147
 20
4.9176031536077858
 40
5
 41
1
 50
0
  1
AJ12
  0
LINE
  8
ADD_LINE
  6
DOT
 62
  152
 10
34.762408964576935
 20
62.683049268256525
 11
34.055302183390268
 21
63.390156049442737
  0
LINE
  8
ADD_LINE
  6
DOT
 62
  152
 10
34.762408964576935
 20
62.683049268256525
 11
35.469515745763601
 21
63.390156049442737
  0
LINE
  8
ADD_LINE
  6
DOT
 62
  152
 10
136.20945691647233
 20
62.683049268256525
 11
135.50235013528567
 21
63.390156049442737
  0
LINE
  8
ADD_LINE
  6
DOT
 62
  152
 10
136.20945691647233
 20
62.683049268256525
 11
136.916563697659
 21
63.390156049442737
  0
LINE
  8
ADD_LINE
  6
DOT
 62
  152
 10
234.1520861171104
 20
62.683049268256525
 11
233.44497933592373
 21
63.390156049442737
  0
LINE
  8
ADD_LINE
  6
DOT
 62
  152
 10
234.1520861171104
 20
62.683049268256525
 11
234.85919289829707
 21
63.390156049442737
  0
LINE
  8
ADD_LINE
  6
DOT
 62
  152
 10
325.35320737750993
 20
52.683049268256525
 11
324.64610059632327
 21
53.390156049442737
  0
LINE
  8
ADD_LINE
  6
DOT
 62
  152
 10
325.35320737750993
 20
52.683049268256525
 11
326.0603141586966
 21
53.390156049442737
  0
LINE
  8
_0-1_
  6
CONTINUOUS
 62
  152
 10
41.862408964576389
 20
40.183049268256525
 11
41.862408964576389
 21
49.68304926825607
  0
LINE
  8
_0-1_
  6
CONTINUOUS
 62
  152
 10
41.862408964576389
 20
62.68304926825607
 11
41.862408964576389
 21
110.18304926825653
  0
LINE
  8
_0-1_
  6
CONTINUOUS
 62
  152
 10
27.662408964576571
 20
40.183049268256525
 11
27.662408964576571
 21
49.68304926825607
  0
LINE
  8
_0-1_
  6
CONTINUOUS
 62
  152
 10
27.662408964576571
 20
62.68304926825607
 11
27.662408964576571
 21
110.18304926825653
  0
LINE
  8
_0-1_
  6
CONTINUOUS
 62
  152
 10
131.10945691647197
 20
108.18304926825653
 11
131.10945691647197
 21
62.68304926825607
  0
LINE
  8
_0-1_
  6
CONTINUOUS
 62
  152
 10
131.10945691647197
 20
52.68304926825607
 11
131.10945691647197
 21
38.183049268256525
  0
LINE
  8
_0-1_
  6
CONTINUOUS
 62
  152
 10
141.30945691647179
 20
38.183049268256525
 11
141.30945691647179
 21
52.68304926825607
  0
LINE
  8
_0-1_
  6
CONTINUOUS
 62
  152
 10
141.30945691647179
 20
62.68304926825607
 11
141.30945691647179
 21
108.18304926825653
  0
LINE
  8
_0-1_
  6
CONTINUOUS
 62
  152
 10
229.85207611711047
 20
32.683049268256525
 11
229.85207611711047
 21
54.683049268256525
  0
LINE
  8
_0-1_
  6
CONTINUOUS
 62
  152
 10
229.85207611711047
 20
62.683049268256525
 11
229.85207611711047
 21
112.68304926825653
  0
LINE
  8
_0-1_
  6
CONTINUOUS
 62
  152
 10
238.45208611711058
 20
32.683049268256525
 11
238.45208611711058
 21
54.683049268256525
  0
LINE
  8
_0-1_
  6
CONTINUOUS
 62
  152
 10
238.45208611711058
 20
62.683049268256525
 11
238.45208611711058
 21
112.68304926825653
  0
LINE
  8
_0-1_
  6
CONTINUOUS
 62
  152
 10
321.05320737750975
 20
32.683049268256525
 11
321.05320737750975
 21
44.683049268256525
  0
LINE
  8
_0-1_
  6
CONTINUOUS
 62
  152
 10
321.05320737750975
 20
52.683049268256525
 11
321.05320737750975
 21
82.683049268256525
  0
LINE
  8
_0-1_
  6
CONTINUOUS
 62
  152
 10
329.65321737750986
 20
32.683049268256525
 11
329.65321737750986
 21
44.683049268256525
  0
LINE
  8
_0-1_
  6
CONTINUOUS
 62
  152
 10
329.65321737750986
 20
52.683049268256525
 11
329.65321737750986
 21
82.683049268256525
  0
LINE
  8
_0-1_
  6
CENTER1
 62
  152
 10
34.762408964576935
 20
110.18304926825653
 11
34.762408964576935
 21
112.2338938999049
  0
CIRCLE
  8
_0-1_
  6
CONTINUOUS
 62
  152
 10
34.762408964576935
 20
159.38749321331454
 40
7.1500000953674316
  0
LINE
  8
_0-1_
  6
CENTER1
 62
  152
 10
34.762408964576935
 20
131.20533187273992
 11
34.762408964576935
 21
187.81975629218672
  0
LINE
  8
_0-1_
  6
CENTER1
 62
  152
 10
136.20945696457699
 20
131.20533187273992
 11
136.20945696457699
 21
187.81975629218672
  0
LINE
  8
_0-1_
  6
CENTER1
 62
  152
 10
234.152086114577
 20
131.20533187273992
 11
234.152086114577
 21
187.81975629218672
  0
LINE
  8
_0-1_
  6
CENTER1
 62
  152
 10
325.35320737457704
 20
131.20533187273992
 11
325.35320737457704
 21
187.81975629218672
  0
CIRCLE
  8
_0-1_
  6
CONTINUOUS
 62
  152
 10
136.20945696457699
 20
159.38749321331454
 40
5.25
  0
CIRCLE
  8
_0-1_
  6
CONTINUOUS
 62
  152
 10
234.152086114577
 20
159.38749321331409
 40
4.3499999046325684
  0
CIRCLE
  8
_0-1_
  6
CONTINUOUS
 62
  152
 10
325.35320737457704
 20
159.38749321331409
 40
4.3499999046325684
  0
LINE
  8
_0-1_
  6
CENTER1
 62
  152
 10
6.8591374639677269
 20
159.38749321331409
 11
64.620773886756524
 21
159.38749321331409
  0
LINE
  8
_0-1_
  6
CENTER1
 62
  152
 10
104.94540517981181
 20
159.38749321331409
 11
167.51810891041481
 21
159.38749321331409
  0
LINE
  8
_0-1_
  6
CENTER1
 62
  152
 10
207.14748793979669
 20
159.38749321331409
 11
261.37716450631928
 21
159.38749321331409
  0
LINE
  8
_0-1_
  6
CENTER1
 62
  152
 10
299.61603900835439
 20
159.38749321331409
 11
350.36945425651015
 21
159.38749321331409
  0
LINE
  8
_0-1_
  6
CONTINUOUS
 62
  152
 10
229.1520861171104
 20
111.98304926825625
 11
239.1520861171104
 21
111.98304926825625
  0
ENDSEC
  0
EOF
