  0
SECTION
  2
HEADER
  9
$ACADVER
  1
AC1009
  9
$INSBASE
 10
0
 20
0
 30
0
  9
$EXTMIN
 10
0
 20
0
  9
$EXTMAX
 10
1189
 20
841
  9
$LIMMIN
 10
0
 20
0
  9
$LIMMAX
 10
1189
 20
841
  9
$LTSCALE
 40
1
  0
ENDSEC
  0
SECTION
  2
TABLES
  0
TABLE
  2
LTYPE
 70
     9
  0
LTYPE
  2
CONTINUOUS
 70
    64
  3
実線
 72
    65
 73
     0
 40
0.0
  0
LTYPE
  2
DASHED1
 70
    64
  3
--  --  --  --  --  --  --  --  
 72
    65
 73
     2
 40
2.5
 49
1.25
 49
-1.25
  0
LTYPE
  2
DASHED2
 70
    64
  3
----    ----    ----    ----    
 72
    65
 73
     2
 40
5.0
 49
2.5
 49
-2.5
  0
LTYPE
  2
DASHED3
 70
    64
  3
------  ------  ------  ------  
 72
    65
 73
     2
 40
5.0
 49
3.75
 49
-1.25
  0
LTYPE
  2
CENTER1
 70
    64
  3
----- - ----- - ----- - ----- - 
 72
    65
 73
     4
 40
10.0
 49
6.25
 49
-1.25
 49
1.25
 49
-1.25
  0
LTYPE
  2
CENTER2
 70
    64
  3
----------  --  ----------  --  
 72
    65
 73
     4
 40
20.0
 49
12.5
 49
-2.5
 49
2.5
 49
-2.5
  0
LTYPE
  2
PHANTOM1
 70
    64
  3
--- - - --- - - --- - - --- - - 
 72
    65
 73
     6
 40
10.0
 49
3.25
 49
-1.25
 49
1.25
 49
-1.25
 49
1.25
 49
-1.25
  0
LTYPE
  2
PHANTOM2
 70
    64
  3
--------  -  -  --------  -  -  
 72
    65
 73
     6
 40
20.0
 49
10.0
 49
-2.5
 49
1.25
 49
-2.5
 49
1.25
 49
-2.5
  0
LTYPE
  2
DOT
 70
    64
  3
-   -   -   -   -   -   -   -   
 72
    65
 73
     2
 40
2.5
 49
0.625
 49
-1.875
  0
LTYPE
  2
DUMMY
 70
    64
  3
ダミー
 72
    65
 73
     0
 40
0.0
  0
LTYPE
  2
RAND1
 70
    64
  3
ランダム線1
 72
    65
 73
     4
 40
10.0
 49
1.0
 49
-2.0
 49
3.0
 49
-4.0
  0
LTYPE
  2
RAND2
 70
    64
  3
ランダム線2
 72
    65
 73
     4
 40
14.0
 49
2.0
 49
-3.0
 49
4.0
 49
-5.0
  0
LTYPE
  2
RAND3
 70
    64
  3
ランダム線3
 72
    65
 73
     4
 40
18.0
 49
3.0
 49
-4.0
 49
5.0
 49
-6.0
  0
LTYPE
  2
RAND4
 70
    64
  3
ランダム線4
 72
    65
 73
     4
 40
22.0
 49
4.0
 49
-5.0
 49
6.0
 49
-7.0
  0
LTYPE
  2
RAND5
 70
    64
  3
ランダム線5
 72
    65
 73
     4
 40
26.0
 49
5.0
 49
-6.0
 49
7.0
 49
-8.0
  0
LTYPE
  2
LONG1
 70
    64
  3
----------  --  ----------  --  
 72
    65
 73
     4
 40
40.0
 49
32.5
 49
-2.5
 49
2.5
 49
-2.5
  0
LTYPE
  2
LONG2
 70
    64
  3
--------  -  -  --------  -  -  
 72
    65
 73
     6
 40
40.0
 49
30.0
 49
-2.5
 49
1.25
 49
-2.5
 49
1.25
 49
-2.5
  0
LTYPE
  2
LONG3
 70
    64
  3
+++++++++++++++..+++++++++++++++
 72
    65
 73
     2
 40
40.0
 49
37.5
 49
-2.5
  0
LTYPE
  2
LONG4
 70
    64
  3
+++++++++++++++..+++++++++++++++
 72
    65
 73
     2
 40
80.0
 49
75.0
 49
-5.0
  0
LTYPE
  2
LONG5
 70
    64
  3
----------  --  ----------  --  
 72
    65
 73
     4
 40
60.0
 49
37.5
 49
-7.5
 49
7.5
 49
-7.5
  0
LTYPE
  2
dashed
 70
   64
  3
-------   -------------   ------
 72
   65
 73
    2
 40
7.5
 49
6
 49
-1.5
  0
LTYPE
  2
dashed_spaced
 70
   64
  3
----        --------        ----
 72
   65
 73
    2
 40
12
 49
6
 49
-6
  0
LTYPE
  2
long_dashed_dotted
 70
   64
  3
------------- --- --------------
 72
   65
 73
    4
 40
15.25
 49
12
 49
-1.5
 49
0.25
 49
-1.5
  0
LTYPE
  2
long_dashed_double-dotted
 70
   64
  3
----------- --- --- ------------
 72
   65
 73
    6
 40
17
 49
12
 49
-1.5
 49
0.25
 49
-1.5
 49
0.25
 49
-1.5
  0
LTYPE
  2
long_dashed_triplicate-dotted
 70
   64
  3
--------- --- --- --- ----------
 72
   65
 73
    8
 40
18.75
 49
12
 49
-1.5
 49
0.25
 49
-1.5
 49
0.25
 49
-1.5
 49
0.25
 49
-1.5
  0
LTYPE
  2
dotted
 70
   64
  3
   -       -       -       -    
 72
   65
 73
    2
 40
1.75
 49
0.25
 49
-1.5
  0
LTYPE
  2
chain
 70
   64
  3
-------------- -- --------------
 72
   65
 73
    4
 40
18.5
 49
12
 49
-1.5
 49
3.5
 49
-1.5
  0
LTYPE
  2
chain_double_dash
 70
   64
  3
------------ -- -- -------------
 72
   65
 73
    6
 40
23.5
 49
12
 49
-1.5
 49
3.5
 49
-1.5
 49
3.5
 49
-1.5
  0
LTYPE
  2
dashed_dotted
 70
   64
  3
-----------     -     ----------
 72
   65
 73
    4
 40
9.25
 49
6
 49
-1.5
 49
0.25
 49
-1.5
  0
LTYPE
  2
double-dashed_dotted
 70
   64
  3
------   -----------   -   -----
 72
   65
 73
    6
 40
16.75
 49
6
 49
-1.5
 49
6
 49
-1.5
 49
0.25
 49
-1.5
  0
LTYPE
  2
dashed_double-dotted
 70
   64
  3
---------    -    -    ---------
 72
   65
 73
    6
 40
11
 49
6
 49
-1.5
 49
0.25
 49
-1.5
 49
0.25
 49
-1.5
  0
LTYPE
  2
double-dashed_double-dotted
 70
   64
  3
-----   ---------   -   -   ----
 72
   65
 73
    8
 40
18.5
 49
6
 49
-1.5
 49
6
 49
-1.5
 49
0.25
 49
-1.5
 49
0.25
 49
-1.5
  0
LTYPE
  2
dashed_triplicate-dotted
 70
   64
  3
-------    -    -    -    ------
 72
   65
 73
    8
 40
12.75
 49
6
 49
-1.5
 49
0.25
 49
-1.5
 49
0.25
 49
-1.5
 49
0.25
 49
-1.5
  0
LTYPE
  2
double-dashed_triplicate-dotted
 70
   64
  3
-----  ---------  -  -  -  -----
 72
   65
 73
   10
 40
20.25
 49
6
 49
-1.5
 49
6
 49
-1.5
 49
0.25
 49
-1.5
 49
0.25
 49
-1.5
 49
0.25
 49
-1.5
  0
LTYPE
  2
undefined
 70
   64
  3
--------------------------------
 72
   65
 73
    0
 40
0
  0
ENDTAB
  0
TABLE
  2
STYLE
  5
3
100
AcDbSymbolTable
 70
     1
  0
STYLE
  5
10
100
AcDbSymbolTableRecord
100
AcDbTextStyleTableRecord
  2
STANDARD
 70
     0
 40
0.0
 41
1.0
 50
0.0
 71
     0
 42
0.2
  3
txt
  4
bigfont.shx
  0
STYLE
  5
26
100
AcDbSymbolTableRecord
100
AcDbTextStyleTableRecord
  2
TATEGAKI
 70
    68
 40
0.0
 41
1.0
 50
0.0
 71
     0
 42
1.0
  3
txt
  4
bigfont.shx
  0
ENDTAB
  0
TABLE
  2
LAYER
 70
    3
  0
LAYER
  2
_0-0_
 70
   64
 62
    7
  6
CONTINUOUS
  0
LAYER
  2
_0-1_
 70
   64
 62
    7
  6
CONTINUOUS
  0
LAYER
  2
ADD_LINE
 70
   64
 62
    7
  6
CONTINUOUS
  0
ENDTAB
  0
ENDSEC
  0
SECTION
  2
BLOCKS
  0
ENDSEC
  0
SECTION
  2
ENTITIES
  0
LINE
  8
_0-0_
  6
CONTINUOUS
 62
    7
 10
646.65720874846193
 20
117.85875855323695
 11
672.06062059280475
 21
117.85875855323695
  0
LINE
  8
_0-0_
  6
CONTINUOUS
 62
    7
 10
653.00806170954763
 20
117.85875855323695
 11
653.00806170954763
 21
110.05875855323706
  0
LINE
  8
_0-0_
  6
CONTINUOUS
 62
    7
 10
646.65720874846193
 20
110.05875855323706
 11
646.65720874846193
 21
117.85875855323695
  0
LINE
  8
_0-0_
  6
CONTINUOUS
 62
    7
 10
672.06062059280475
 20
117.85875855323695
 11
672.06062059280475
 21
110.05875855323706
  0
LINE
  8
_0-0_
  6
CONTINUOUS
 62
    7
 10
665.70976762954763
 20
110.05875855323706
 11
665.70976762954763
 21
117.85875855323695
  0
LINE
  8
_0-0_
  6
CONTINUOUS
 62
    7
 10
677.35891467063345
 20
108.05875855323717
 11
677.35891467063345
 21
107.65875855323696
  0
LINE
  8
_0-0_
  6
CONTINUOUS
 62
    7
 10
646.65720874846249
 20
110.05875855323706
 11
646.70545061184646
 21
109.71146219790324
  0
LINE
  8
_0-0_
  6
CONTINUOUS
 62
    7
 10
646.70545061184646
 20
109.71146219790324
 11
646.84871039739107
 21
109.37471826658577
  0
LINE
  8
_0-0_
  6
CONTINUOUS
 62
    7
 10
646.84871039739107
 20
109.37471826658577
 11
647.0826352290054
 21
109.05875855323711
  0
LINE
  8
_0-0_
  6
CONTINUOUS
 62
    7
 10
647.0826352290054
 20
109.05875855323711
 11
647.40011741905255
 21
108.77318333386404
  0
LINE
  8
_0-0_
  6
CONTINUOUS
 62
    7
 10
647.40011741905255
 20
108.77318333386404
 11
647.79151043184174
 21
108.52666966699917
  0
LINE
  8
_0-0_
  6
CONTINUOUS
 62
    7
 10
647.79151043184174
 20
108.52666966699917
 11
648.24492198873372
 21
108.32670774566827
  0
LINE
  8
_0-0_
  6
CONTINUOUS
 62
    7
 10
648.24492198873372
 20
108.32670774566827
 11
648.74657540900978
 21
108.17937331166536
  0
LINE
  8
_0-0_
  6
CONTINUOUS
 62
    7
 10
648.74657540900978
 20
108.17937331166536
 11
649.28122820734359
 21
108.08914304721276
  0
LINE
  8
_0-0_
  6
CONTINUOUS
 62
    7
 10
649.28122820734359
 20
108.08914304721276
 11
649.83263522900506
 21
108.05875855323717
  0
LINE
  8
_0-0_
  6
CONTINUOUS
 62
    7
 10
649.83263522900506
 20
108.05875855323717
 11
650.38404225066654
 21
108.08914304721276
  0
LINE
  8
_0-0_
  6
CONTINUOUS
 62
    7
 10
650.38404225066654
 20
108.08914304721276
 11
650.91869504900035
 21
108.17937331166536
  0
LINE
  8
_0-0_
  6
CONTINUOUS
 62
    7
 10
650.91869504900035
 20
108.17937331166536
 11
651.42034846927629
 21
108.32670774566827
  0
LINE
  8
_0-0_
  6
CONTINUOUS
 62
    7
 10
651.42034846927629
 20
108.32670774566827
 11
651.87376002616838
 21
108.52666966699917
  0
LINE
  8
_0-0_
  6
CONTINUOUS
 62
    7
 10
651.87376002616838
 20
108.52666966699917
 11
652.26515303895758
 21
108.77318333386404
  0
LINE
  8
_0-0_
  6
CONTINUOUS
 62
    7
 10
652.26515303895758
 20
108.77318333386404
 11
652.58263522900472
 21
109.05875855323711
  0
LINE
  8
_0-0_
  6
CONTINUOUS
 62
    7
 10
652.58263522900472
 20
109.05875855323711
 11
652.81656006061905
 21
109.37471826658577
  0
LINE
  8
_0-0_
  6
CONTINUOUS
 62
    7
 10
652.81656006061905
 20
109.37471826658577
 11
652.95981984616367
 21
109.71146219790324
  0
LINE
  8
_0-0_
  6
CONTINUOUS
 62
    7
 10
652.95981984616367
 20
109.71146219790324
 11
653.00806170954763
 21
110.05875855323706
  0
LINE
  8
_0-0_
  6
CONTINUOUS
 62
    7
 10
653.00806170954763
 20
110.05875855323706
 11
653.00806170954763
 21
110.05875869686588
  0
LINE
  8
_0-0_
  6
CONTINUOUS
 62
    7
 10
653.00806170954763
 20
110.05875869686588
 11
653.10454535710119
 21
109.71146233935002
  0
LINE
  8
_0-0_
  6
CONTINUOUS
 62
    7
 10
653.10454535710119
 20
109.71146233935002
 11
653.39106485134982
 21
109.37471840155268
  0
LINE
  8
_0-0_
  6
CONTINUOUS
 62
    7
 10
653.39106485134982
 20
109.37471840155268
 11
653.85891444244669
 21
109.0587586776233
  0
LINE
  8
_0-0_
  6
CONTINUOUS
 62
    7
 10
653.85891444244669
 20
109.0587586776233
 11
654.49387875730963
 21
108.7731834438901
  0
LINE
  8
_0-0_
  6
CONTINUOUS
 62
    7
 10
654.49387875730963
 20
108.7731834438901
 11
655.27666472653891
 21
108.52666975932203
  0
LINE
  8
_0-0_
  6
CONTINUOUS
 62
    7
 10
655.27666472653891
 20
108.52666975932203
 11
656.18348779456835
 21
108.32670781748271
  0
LINE
  8
_0-0_
  6
CONTINUOUS
 62
    7
 10
656.18348779456835
 20
108.32670781748271
 11
657.18679460135058
 21
108.17937336078927
  0
LINE
  8
_0-0_
  6
CONTINUOUS
 62
    7
 10
657.18679460135058
 20
108.17937336078927
 11
658.2561001772591
 21
108.08914307215366
  0
LINE
  8
_0-0_
  6
CONTINUOUS
 62
    7
 10
658.2561001772591
 20
108.08914307215366
 11
659.3589142134648
 21
108.05875855323717
  0
LINE
  8
_0-0_
  6
CONTINUOUS
 62
    7
 10
659.3589142134648
 20
108.05875855323717
 11
660.46172826352836
 21
108.08914302227186
  0
LINE
  8
_0-0_
  6
CONTINUOUS
 62
    7
 10
660.46172826352836
 20
108.08914302227186
 11
661.53103388058946
 21
108.17937326254139
  0
LINE
  8
_0-0_
  6
CONTINUOUS
 62
    7
 10
661.53103388058946
 20
108.17937326254139
 11
662.53434075456835
 21
108.32670767385389
  0
LINE
  8
_0-0_
  6
CONTINUOUS
 62
    7
 10
662.53434075456835
 20
108.32670767385389
 11
663.44116391379703
 21
108.52666957467636
  0
LINE
  8
_0-0_
  6
CONTINUOUS
 62
    7
 10
663.44116391379703
 20
108.52666957467636
 11
664.22394999545702
 21
108.77318322383798
  0
LINE
  8
_0-0_
  6
CONTINUOUS
 62
    7
 10
664.22394999545702
 20
108.77318322383798
 11
664.85891444056585
 21
109.05875842885092
  0
LINE
  8
_0-0_
  6
CONTINUOUS
 62
    7
 10
664.85891444056585
 20
109.05875842885092
 11
665.32676417576647
 21
109.37471813161881
  0
LINE
  8
_0-0_
  6
CONTINUOUS
 62
    7
 10
665.32676417576647
 20
109.37471813161881
 11
665.61328382359818
 21
109.71146205645641
  0
LINE
  8
_0-0_
  6
CONTINUOUS
 62
    7
 10
665.61328382359818
 20
109.71146205645641
 11
665.70976762954763
 21
110.05875840960823
  0
LINE
  8
_0-0_
  6
CONTINUOUS
 62
    7
 10
665.70976762954763
 20
110.05875840960823
 11
665.70976762954763
 21
110.05875855323706
  0
LINE
  8
_0-0_
  6
CONTINUOUS
 62
    7
 10
665.70976763171905
 20
110.05875869686588
 11
665.75800945550407
 21
109.71146233935002
  0
LINE
  8
_0-0_
  6
CONTINUOUS
 62
    7
 10
665.75800945550407
 20
109.71146233935002
 11
665.90126920265288
 21
109.37471840155268
  0
LINE
  8
_0-0_
  6
CONTINUOUS
 62
    7
 10
665.90126920265288
 20
109.37471840155268
 11
666.13519399824122
 21
109.0587586776233
  0
LINE
  8
_0-0_
  6
CONTINUOUS
 62
    7
 10
666.13519399824122
 20
109.0587586776233
 11
666.45267615572698
 21
108.7731834438901
  0
LINE
  8
_0-0_
  6
CONTINUOUS
 62
    7
 10
666.45267615572698
 20
108.7731834438901
 11
666.84406914040846
 21
108.52666975932203
  0
LINE
  8
_0-0_
  6
CONTINUOUS
 62
    7
 10
666.84406914040846
 20
108.52666975932203
 11
667.29748067450066
 21
108.32670781748271
  0
LINE
  8
_0-0_
  6
CONTINUOUS
 62
    7
 10
667.29748067450066
 20
108.32670781748271
 11
667.79913407797756
 21
108.17937336078927
  0
LINE
  8
_0-0_
  6
CONTINUOUS
 62
    7
 10
667.79913407797756
 20
108.17937336078927
 11
668.33378686602316
 21
108.08914307215366
  0
LINE
  8
_0-0_
  6
CONTINUOUS
 62
    7
 10
668.33378686602316
 20
108.08914307215366
 11
668.88519388422026
 21
108.05875855323717
  0
LINE
  8
_0-0_
  6
CONTINUOUS
 62
    7
 10
668.88519388422026
 20
108.05875855323717
 11
669.43660090934623
 21
108.08914302227186
  0
LINE
  8
_0-0_
  6
CONTINUOUS
 62
    7
 10
669.43660090934623
 20
108.08914302227186
 11
669.97125371796812
 21
108.17937326254139
  0
LINE
  8
_0-0_
  6
CONTINUOUS
 62
    7
 10
669.97125371796812
 20
108.17937326254139
 11
670.47290715504323
 21
108.32670767385389
  0
LINE
  8
_0-0_
  6
CONTINUOUS
 62
    7
 10
670.47290715504323
 20
108.32670767385389
 11
670.9263187347351
 21
108.52666957467636
  0
LINE
  8
_0-0_
  6
CONTINUOUS
 62
    7
 10
670.9263187347351
 20
108.52666957467636
 11
671.31771177563189
 21
108.77318322383798
  0
LINE
  8
_0-0_
  6
CONTINUOUS
 62
    7
 10
671.31771177563189
 20
108.77318322383798
 11
671.63519399824054
 21
109.05875842885092
  0
LINE
  8
_0-0_
  6
CONTINUOUS
 62
    7
 10
671.63519399824054
 20
109.05875842885092
 11
671.86911886588086
 21
109.37471813161881
  0
LINE
  8
_0-0_
  6
CONTINUOUS
 62
    7
 10
671.86911886588086
 20
109.37471813161881
 11
672.01237868982128
 21
109.71146205645641
  0
LINE
  8
_0-0_
  6
CONTINUOUS
 62
    7
 10
672.01237868982128
 20
109.71146205645641
 11
672.06062059280418
 21
110.05875840960823
  0
LINE
  8
_0-0_
  6
CONTINUOUS
 62
    7
 10
672.06062059280418
 20
110.05875840960823
 11
672.06062059280418
 21
110.05875855323706
  0
LINE
  8
_0-1_
  6
CONTINUOUS
 62
  152
 10
684.35891467063334
 20
104.65875855323719
 11
634.35891467063334
 21
104.65875855323719
  0
LINE
  8
_0-0_
  6
CONTINUOUS
 62
    7
 10
646.07985847927216
 20
148.88521173023935
 11
646.07985847927216
 21
144.18521173023908
  0
LINE
  8
_0-0_
  6
CONTINUOUS
 62
    7
 10
649.39962252711246
 20
142.18521173023919
 11
669.31820681415422
 21
142.18521173023919
  0
LINE
  8
_0-0_
  6
CONTINUOUS
 62
    7
 10
665.99844276631393
 20
144.18521173023908
 11
665.99844276631393
 21
148.88521173023935
  0
LINE
  8
_0-0_
  6
CONTINUOUS
 62
    7
 10
669.31820681415422
 20
150.88521173023923
 11
649.39962252711246
 21
150.88521173023923
  0
LINE
  8
_0-0_
  6
CONTINUOUS
 62
    7
 10
652.71938657495275
 20
148.88521173023935
 11
652.71938657495275
 21
144.18521173023908
  0
LINE
  8
_0-0_
  6
CONTINUOUS
 62
    7
 10
672.63797086199452
 20
144.18521173023908
 11
672.63797086199452
 21
148.88521173023935
  0
LINE
  8
_0-0_
  6
CONTINUOUS
 62
    7
 10
634.10891467063357
 20
96.85875855323718
 11
634.10891467063357
 21
93.858758553237067
  0
LINE
  8
_0-0_
  6
CONTINUOUS
 62
    7
 10
634.10891467063357
 20
93.858758553237067
 11
684.60891467063311
 21
93.858758553237067
  0
LINE
  8
_0-0_
  6
CONTINUOUS
 62
    7
 10
684.60891467063311
 20
93.858758553237067
 11
684.60891467063311
 21
96.85875855323718
  0
LINE
  8
_0-0_
  6
CONTINUOUS
 62
    7
 10
684.60891467063311
 20
96.85875855323718
 11
634.10891467063357
 21
96.85875855323718
  0
LINE
  8
_0-0_
  6
CONTINUOUS
 62
    7
 10
636.0589146706335
 20
93.858758553237067
 11
636.0589146706335
 21
90.858758553236953
  0
LINE
  8
_0-0_
  6
CONTINUOUS
 62
    7
 10
636.0589146706335
 20
90.858758553236953
 11
682.65891467063375
 21
90.858758553236953
  0
LINE
  8
_0-0_
  6
CONTINUOUS
 62
    7
 10
682.65891467063375
 20
90.858758553236953
 11
682.65891467063375
 21
93.858758553237067
  0
LINE
  8
_0-0_
  6
CONTINUOUS
 62
    7
 10
646.07985847927216
 20
144.18521173023908
 11
646.13029315462813
 21
143.83791537490526
  0
LINE
  8
_0-0_
  6
CONTINUOUS
 62
    7
 10
646.13029315462813
 20
143.83791537490526
 11
646.28006474860661
 21
143.50117144358774
  0
LINE
  8
_0-0_
  6
CONTINUOUS
 62
    7
 10
646.28006474860661
 20
143.50117144358774
 11
646.52462252711246
 21
143.18521173023913
  0
LINE
  8
_0-0_
  6
CONTINUOUS
 62
    7
 10
646.52462252711246
 20
143.18521173023913
 11
646.85653572579827
 21
142.89963651086606
  0
LINE
  8
_0-0_
  6
CONTINUOUS
 62
    7
 10
646.85653572579827
 20
142.89963651086606
 11
647.2657193300779
 21
142.65312284400125
  0
LINE
  8
_0-0_
  6
CONTINUOUS
 62
    7
 10
647.2657193300779
 20
142.65312284400125
 11
647.73974050319225
 21
142.45316092267029
  0
LINE
  8
_0-0_
  6
CONTINUOUS
 62
    7
 10
647.73974050319225
 20
142.45316092267029
 11
648.26419635166269
 21
142.30582648866738
  0
LINE
  8
_0-0_
  6
CONTINUOUS
 62
    7
 10
648.26419635166269
 20
142.30582648866738
 11
648.82315154992079
 21
142.21559622421478
  0
LINE
  8
_0-0_
  6
CONTINUOUS
 62
    7
 10
648.82315154992079
 20
142.21559622421478
 11
649.39962252711246
 21
142.18521173023919
  0
LINE
  8
_0-0_
  6
CONTINUOUS
 62
    7
 10
649.39962252711246
 20
142.18521173023919
 11
649.97609350430412
 21
142.21559622421478
  0
LINE
  8
_0-0_
  6
CONTINUOUS
 62
    7
 10
649.97609350430412
 20
142.21559622421478
 11
650.53504870256222
 21
142.30582648866738
  0
LINE
  8
_0-0_
  6
CONTINUOUS
 62
    7
 10
650.53504870256222
 20
142.30582648866738
 11
651.05950455103255
 21
142.45316092267029
  0
LINE
  8
_0-0_
  6
CONTINUOUS
 62
    7
 10
651.05950455103255
 20
142.45316092267029
 11
651.53352572414701
 21
142.65312284400125
  0
LINE
  8
_0-0_
  6
CONTINUOUS
 62
    7
 10
651.53352572414701
 20
142.65312284400125
 11
651.94270932842664
 21
142.89963651086606
  0
LINE
  8
_0-0_
  6
CONTINUOUS
 62
    7
 10
651.94270932842664
 20
142.89963651086606
 11
652.27462252711246
 21
143.18521173023913
  0
LINE
  8
_0-0_
  6
CONTINUOUS
 62
    7
 10
652.27462252711246
 20
143.18521173023913
 11
652.51918030561831
 21
143.50117144358774
  0
LINE
  8
_0-0_
  6
CONTINUOUS
 62
    7
 10
652.51918030561831
 20
143.50117144358774
 11
652.66895189959678
 21
143.83791537490526
  0
LINE
  8
_0-0_
  6
CONTINUOUS
 62
    7
 10
652.66895189959678
 20
143.83791537490526
 11
652.71938657495275
 21
144.18521166599436
  0
LINE
  8
_0-0_
  6
CONTINUOUS
 62
    7
 10
652.71938657495275
 20
144.18521173023908
 11
652.8202559256647
 21
143.83791537490526
  0
LINE
  8
_0-0_
  6
CONTINUOUS
 62
    7
 10
652.8202559256647
 20
143.83791537490526
 11
653.11979911362153
 21
143.50117144358774
  0
LINE
  8
_0-0_
  6
CONTINUOUS
 62
    7
 10
653.11979911362153
 20
143.50117144358774
 11
653.60891467063345
 21
143.18521173023913
  0
LINE
  8
_0-0_
  6
CONTINUOUS
 62
    7
 10
653.60891467063345
 20
143.18521173023913
 11
654.27274106800485
 21
142.89963651086606
  0
LINE
  8
_0-0_
  6
CONTINUOUS
 62
    7
 10
654.27274106800485
 20
142.89963651086606
 11
655.09110827656423
 21
142.65312284400125
  0
LINE
  8
_0-0_
  6
CONTINUOUS
 62
    7
 10
655.09110827656423
 20
142.65312284400125
 11
656.03915062279304
 21
142.45316092267029
  0
LINE
  8
_0-0_
  6
CONTINUOUS
 62
    7
 10
656.03915062279304
 20
142.45316092267029
 11
657.08806231973381
 21
142.30582648866738
  0
LINE
  8
_0-0_
  6
CONTINUOUS
 62
    7
 10
657.08806231973381
 20
142.30582648866738
 11
658.20597271625002
 21
142.21559622421478
  0
LINE
  8
_0-0_
  6
CONTINUOUS
 62
    7
 10
658.20597271625002
 20
142.21559622421478
 11
659.35891467063334
 21
142.18521173023919
  0
LINE
  8
_0-0_
  6
CONTINUOUS
 62
    7
 10
659.35891467063334
 20
142.18521173023919
 11
660.51185662501666
 21
142.21559622421478
  0
LINE
  8
_0-0_
  6
CONTINUOUS
 62
    7
 10
660.51185662501666
 20
142.21559622421478
 11
661.62976702153287
 21
142.30582648866738
  0
LINE
  8
_0-0_
  6
CONTINUOUS
 62
    7
 10
661.62976702153287
 20
142.30582648866738
 11
662.67867871847363
 21
142.45316092267029
  0
LINE
  8
_0-0_
  6
CONTINUOUS
 62
    7
 10
662.67867871847363
 20
142.45316092267029
 11
663.62672106470245
 21
142.65312284400125
  0
LINE
  8
_0-0_
  6
CONTINUOUS
 62
    7
 10
663.62672106470245
 20
142.65312284400125
 11
664.44508827326183
 21
142.89963651086606
  0
LINE
  8
_0-0_
  6
CONTINUOUS
 62
    7
 10
664.44508827326183
 20
142.89963651086606
 11
665.10891467063323
 21
143.18521173023913
  0
LINE
  8
_0-0_
  6
CONTINUOUS
 62
    7
 10
665.10891467063323
 20
143.18521173023913
 11
665.59803022764515
 21
143.50117144358774
  0
LINE
  8
_0-0_
  6
CONTINUOUS
 62
    7
 10
665.59803022764515
 20
143.50117144358774
 11
665.89757341560198
 21
143.83791537490526
  0
LINE
  8
_0-0_
  6
CONTINUOUS
 62
    7
 10
665.89757341560198
 20
143.83791537490526
 11
665.99844276631393
 21
144.18521173023908
  0
LINE
  8
_0-0_
  6
CONTINUOUS
 62
    7
 10
665.99844276631393
 20
144.18521166599436
 11
666.04887746018755
 21
143.83791531163655
  0
LINE
  8
_0-0_
  6
CONTINUOUS
 62
    7
 10
666.04887746018755
 20
143.83791531163655
 11
666.19864907212093
 21
143.50117138321752
  0
LINE
  8
_0-0_
  6
CONTINUOUS
 62
    7
 10
666.19864907212093
 20
143.50117138321752
 11
666.44320686747358
 21
143.18521167460159
  0
LINE
  8
_0-0_
  6
CONTINUOUS
 62
    7
 10
666.44320686747358
 20
143.18521167460159
 11
666.77512008138604
 21
142.89963646165177
  0
LINE
  8
_0-0_
  6
CONTINUOUS
 62
    7
 10
666.77512008138604
 20
142.89963646165177
 11
667.18430369880957
 21
142.65312280270552
  0
LINE
  8
_0-0_
  6
CONTINUOUS
 62
    7
 10
667.18430369880957
 20
142.65312280270552
 11
667.65832488258582
 21
142.45316089054791
  0
LINE
  8
_0-0_
  6
CONTINUOUS
 62
    7
 10
667.65832488258582
 20
142.45316089054791
 11
668.18278073891202
 21
142.30582646669438
  0
LINE
  8
_0-0_
  6
CONTINUOUS
 62
    7
 10
668.18278073891202
 20
142.30582646669438
 11
668.74173594198112
 21
142.2155962130588
  0
LINE
  8
_0-0_
  6
CONTINUOUS
 62
    7
 10
668.74173594198112
 20
142.2155962130588
 11
669.31820692079282
 21
142.18521173023919
  0
LINE
  8
_0-0_
  6
CONTINUOUS
 62
    7
 10
669.31820692079282
 20
142.18521173023919
 11
669.89467789636444
 21
142.21559623537075
  0
LINE
  8
_0-0_
  6
CONTINUOUS
 62
    7
 10
669.89467789636444
 20
142.21559623537075
 11
670.45363308981155
 21
142.30582651064037
  0
LINE
  8
_0-0_
  6
CONTINUOUS
 62
    7
 10
670.45363308981155
 20
142.30582651064037
 11
670.97808893042611
 21
142.45316095479268
  0
LINE
  8
_0-0_
  6
CONTINUOUS
 62
    7
 10
670.97808893042611
 20
142.45316095479268
 11
671.45211009287868
 21
142.65312288529691
  0
LINE
  8
_0-0_
  6
CONTINUOUS
 62
    7
 10
671.45211009287868
 20
142.65312288529691
 11
671.86129368401441
 21
142.89963656008035
  0
LINE
  8
_0-0_
  6
CONTINUOUS
 62
    7
 10
671.86129368401441
 20
142.89963656008035
 11
672.19320686747346
 21
143.18521178587667
  0
LINE
  8
_0-0_
  6
CONTINUOUS
 62
    7
 10
672.19320686747346
 20
143.18521178587667
 11
672.43776462913263
 21
143.50117150395806
  0
LINE
  8
_0-0_
  6
CONTINUOUS
 62
    7
 10
672.43776462913263
 20
143.50117150395806
 11
672.58753620515608
 21
143.83791543817392
  0
LINE
  8
_0-0_
  6
CONTINUOUS
 62
    7
 10
672.58753620515608
 20
143.83791543817392
 11
672.63797086199452
 21
144.18521173023908
  0
LINE
  8
_0-0_
  6
CONTINUOUS
 62
    7
 10
665.99844276631393
 20
148.88521173023935
 11
665.89757341560198
 21
149.23250808557316
  0
LINE
  8
_0-0_
  6
CONTINUOUS
 62
    7
 10
665.89757341560198
 20
149.23250808557316
 11
665.59803022764515
 21
149.56925201689069
  0
LINE
  8
_0-0_
  6
CONTINUOUS
 62
    7
 10
665.59803022764515
 20
149.56925201689069
 11
665.10891467063323
 21
149.88521173023929
  0
LINE
  8
_0-0_
  6
CONTINUOUS
 62
    7
 10
665.10891467063323
 20
149.88521173023929
 11
664.44508827326183
 21
150.17078694961236
  0
LINE
  8
_0-0_
  6
CONTINUOUS
 62
    7
 10
664.44508827326183
 20
150.17078694961236
 11
663.62672106470245
 21
150.41730061647718
  0
LINE
  8
_0-0_
  6
CONTINUOUS
 62
    7
 10
663.62672106470245
 20
150.41730061647718
 11
662.67867871847363
 21
150.61726253780813
  0
LINE
  8
_0-0_
  6
CONTINUOUS
 62
    7
 10
662.67867871847363
 20
150.61726253780813
 11
661.62976702153287
 21
150.76459697181105
  0
LINE
  8
_0-0_
  6
CONTINUOUS
 62
    7
 10
661.62976702153287
 20
150.76459697181105
 11
660.51185662501666
 21
150.85482723626365
  0
LINE
  8
_0-0_
  6
CONTINUOUS
 62
    7
 10
660.51185662501666
 20
150.85482723626365
 11
659.35891467063334
 21
150.88521173023923
  0
LINE
  8
_0-0_
  6
CONTINUOUS
 62
    7
 10
659.35891467063334
 20
150.88521173023923
 11
658.20597271625002
 21
150.85482723626365
  0
LINE
  8
_0-0_
  6
CONTINUOUS
 62
    7
 10
658.20597271625002
 20
150.85482723626365
 11
657.08806231973381
 21
150.76459697181105
  0
LINE
  8
_0-0_
  6
CONTINUOUS
 62
    7
 10
657.08806231973381
 20
150.76459697181105
 11
656.03915062279304
 21
150.61726253780813
  0
LINE
  8
_0-0_
  6
CONTINUOUS
 62
    7
 10
656.03915062279304
 20
150.61726253780813
 11
655.09110827656423
 21
150.41730061647718
  0
LINE
  8
_0-0_
  6
CONTINUOUS
 62
    7
 10
655.09110827656423
 20
150.41730061647718
 11
654.27274106800485
 21
150.17078694961236
  0
LINE
  8
_0-0_
  6
CONTINUOUS
 62
    7
 10
654.27274106800485
 20
150.17078694961236
 11
653.60891467063345
 21
149.88521173023929
  0
LINE
  8
_0-0_
  6
CONTINUOUS
 62
    7
 10
653.60891467063345
 20
149.88521173023929
 11
653.11979911362153
 21
149.56925201689069
  0
LINE
  8
_0-0_
  6
CONTINUOUS
 62
    7
 10
653.11979911362153
 20
149.56925201689069
 11
652.8202559256647
 21
149.23250808557316
  0
LINE
  8
_0-0_
  6
CONTINUOUS
 62
    7
 10
652.8202559256647
 20
149.23250808557316
 11
652.71938657495275
 21
148.88521173023935
  0
LINE
  8
_0-0_
  6
CONTINUOUS
 62
    7
 10
672.63797086199452
 20
148.88521173023935
 11
672.58753618663854
 21
149.23250808557316
  0
LINE
  8
_0-0_
  6
CONTINUOUS
 62
    7
 10
672.58753618663854
 20
149.23250808557316
 11
672.43776459266007
 21
149.56925201689069
  0
LINE
  8
_0-0_
  6
CONTINUOUS
 62
    7
 10
672.43776459266007
 20
149.56925201689069
 11
672.19320681415422
 21
149.88521173023929
  0
LINE
  8
_0-0_
  6
CONTINUOUS
 62
    7
 10
672.19320681415422
 20
149.88521173023929
 11
671.86129361546841
 21
150.17078694961236
  0
LINE
  8
_0-0_
  6
CONTINUOUS
 62
    7
 10
671.86129361546841
 20
150.17078694961236
 11
671.45211001118878
 21
150.41730061647718
  0
LINE
  8
_0-0_
  6
CONTINUOUS
 62
    7
 10
671.45211001118878
 20
150.41730061647718
 11
670.97808883807443
 21
150.61726253780813
  0
LINE
  8
_0-0_
  6
CONTINUOUS
 62
    7
 10
670.97808883807443
 20
150.61726253780813
 11
670.45363298960399
 21
150.76459697181105
  0
LINE
  8
_0-0_
  6
CONTINUOUS
 62
    7
 10
670.45363298960399
 20
150.76459697181105
 11
669.89467779134588
 21
150.85482723626365
  0
LINE
  8
_0-0_
  6
CONTINUOUS
 62
    7
 10
669.89467779134588
 20
150.85482723626365
 11
669.31820681415422
 21
150.88521173023923
  0
LINE
  8
_0-0_
  6
CONTINUOUS
 62
    7
 10
669.31820681415422
 20
150.88521173023923
 11
668.74173583696256
 21
150.85482723626365
  0
LINE
  8
_0-0_
  6
CONTINUOUS
 62
    7
 10
668.74173583696256
 20
150.85482723626365
 11
668.18278063870446
 21
150.76459697181105
  0
LINE
  8
_0-0_
  6
CONTINUOUS
 62
    7
 10
668.18278063870446
 20
150.76459697181105
 11
667.65832479023413
 21
150.61726253780813
  0
LINE
  8
_0-0_
  6
CONTINUOUS
 62
    7
 10
667.65832479023413
 20
150.61726253780813
 11
667.18430361711967
 21
150.41730061647718
  0
LINE
  8
_0-0_
  6
CONTINUOUS
 62
    7
 10
667.18430361711967
 20
150.41730061647718
 11
666.77512001284003
 21
150.17078694961236
  0
LINE
  8
_0-0_
  6
CONTINUOUS
 62
    7
 10
666.77512001284003
 20
150.17078694961236
 11
666.44320681415422
 21
149.88521173023929
  0
LINE
  8
_0-0_
  6
CONTINUOUS
 62
    7
 10
666.44320681415422
 20
149.88521173023929
 11
666.19864903564837
 21
149.56925201689069
  0
LINE
  8
_0-0_
  6
CONTINUOUS
 62
    7
 10
666.19864903564837
 20
149.56925201689069
 11
666.0488774416699
 21
149.23250808557316
  0
LINE
  8
_0-0_
  6
CONTINUOUS
 62
    7
 10
666.0488774416699
 20
149.23250808557316
 11
665.99844276631393
 21
148.88521179448406
  0
LINE
  8
_0-0_
  6
CONTINUOUS
 62
    7
 10
652.71938657495275
 20
148.88521179448406
 11
652.66895188107912
 21
149.23250814884187
  0
LINE
  8
_0-0_
  6
CONTINUOUS
 62
    7
 10
652.66895188107912
 20
149.23250814884187
 11
652.51918026914575
 21
149.5692520772609
  0
LINE
  8
_0-0_
  6
CONTINUOUS
 62
    7
 10
652.51918026914575
 20
149.5692520772609
 11
652.2746224737931
 21
149.88521178587683
  0
LINE
  8
_0-0_
  6
CONTINUOUS
 62
    7
 10
652.2746224737931
 20
149.88521178587683
 11
651.94270925988064
 21
150.17078699882666
  0
LINE
  8
_0-0_
  6
CONTINUOUS
 62
    7
 10
651.94270925988064
 20
150.17078699882666
 11
651.53352564245711
 21
150.4173006577729
  0
LINE
  8
_0-0_
  6
CONTINUOUS
 62
    7
 10
651.53352564245711
 20
150.4173006577729
 11
651.05950445868086
 21
150.61726256993052
  0
LINE
  8
_0-0_
  6
CONTINUOUS
 62
    7
 10
651.05950445868086
 20
150.61726256993052
 11
650.53504860235466
 21
150.76459699378404
  0
LINE
  8
_0-0_
  6
CONTINUOUS
 62
    7
 10
650.53504860235466
 20
150.76459699378404
 11
649.97609339928556
 21
150.85482724741962
  0
LINE
  8
_0-0_
  6
CONTINUOUS
 62
    7
 10
649.97609339928556
 20
150.85482724741962
 11
649.39962242047386
 21
150.88521173023923
  0
LINE
  8
_0-0_
  6
CONTINUOUS
 62
    7
 10
649.39962242047386
 20
150.88521173023923
 11
648.82315144490224
 21
150.85482722510767
  0
LINE
  8
_0-0_
  6
CONTINUOUS
 62
    7
 10
648.82315144490224
 20
150.85482722510767
 11
648.26419625145513
 21
150.76459694983805
  0
LINE
  8
_0-0_
  6
CONTINUOUS
 62
    7
 10
648.26419625145513
 20
150.76459694983805
 11
647.73974041084057
 21
150.61726250568574
  0
LINE
  8
_0-0_
  6
CONTINUOUS
 62
    7
 10
647.73974041084057
 20
150.61726250568574
 11
647.265719248388
 21
150.41730057518151
  0
LINE
  8
_0-0_
  6
CONTINUOUS
 62
    7
 10
647.265719248388
 20
150.41730057518151
 11
646.85653565725227
 21
150.17078690039807
  0
LINE
  8
_0-0_
  6
CONTINUOUS
 62
    7
 10
646.85653565725227
 20
150.17078690039807
 11
646.52462247379322
 21
149.88521167460175
  0
LINE
  8
_0-0_
  6
CONTINUOUS
 62
    7
 10
646.52462247379322
 20
149.88521167460175
 11
646.28006471213405
 21
149.56925195652036
  0
LINE
  8
_0-0_
  6
CONTINUOUS
 62
    7
 10
646.28006471213405
 20
149.56925195652036
 11
646.13029313611059
 21
149.2325080223045
  0
LINE
  8
_0-0_
  6
CONTINUOUS
 62
    7
 10
646.13029313611059
 20
149.2325080223045
 11
646.07985847927216
 21
148.88521173023935
  0
LINE
  8
_0-0_
  6
CONTINUOUS
 62
    7
 10
667.35891463585153
 20
142.18521173023919
 11
667.35891463585153
 21
117.85875855323695
  0
LINE
  8
_0-0_
  6
CONTINUOUS
 62
    7
 10
651.35891463585131
 20
117.85875855323695
 11
651.35891463585131
 21
142.18521173023919
  0
LINE
  8
_0-0_
  6
CONTINUOUS
 62
    7
 10
677.35891467063345
 20
108.05875855323717
 11
641.35891467063323
 21
108.05875855323717
  0
LINE
  8
_0-0_
  6
CONTINUOUS
 62
    7
 10
641.35891467063323
 20
108.05875855323717
 11
641.35891467063323
 21
107.65875855323696
  0
LINE
  8
_0-0_
  6
CONTINUOUS
 62
    7
 10
637.35891467063345
 20
107.65875855323696
 11
681.35891467033821
 21
107.65875855323696
  0
LINE
  8
_0-0_
  6
CONTINUOUS
 62
    7
 10
634.35891467063334
 20
104.65875855323719
 11
634.35891467063334
 21
96.85875855323718
  0
LINE
  8
_0-0_
  6
CONTINUOUS
 62
    7
 10
684.35891467063334
 20
96.85875855323718
 11
684.35891467063334
 21
104.65875855323719
  0
ARC
  8
_0-0_
  6
CONTINUOUS
 62
    7
 10
637.35891467063345
 20
104.65875855323719
 40
2.9999999999999858
 50
89.999999999999829
 51
180.0000000000002
  0
ARC
  8
_0-0_
  6
CONTINUOUS
 62
    7
 10
681.35891467063323
 20
104.65875855323719
 40
2.9999999999999933
 50
359.99999999999977
 51
90.000000000000199
  0
LINE
  8
_0-1_
  6
CONTINUOUS
 62
  152
 10
652.25891476595132
 20
142.18521173023919
 11
652.25891476595132
 21
120.15875855323696
  0
LINE
  8
_0-1_
  6
CONTINUOUS
 62
  152
 10
666.45891457525158
 20
120.15875855323696
 11
666.45891457525158
 21
142.18521173023919
  0
LINE
  8
_0-1_
  6
CONTINUOUS
 62
  152
 10
651.35891463585131
 20
120.15875855323696
 11
667.35891463585153
 21
120.15875855323696
  0
LINE
  8
_0-1_
  6
CONTINUOUS
 62
  152
 10
652.25891476595132
 20
120.15875855323696
 11
651.35891463585131
 21
119.63914323585306
  0
LINE
  8
_0-1_
  6
CONTINUOUS
 62
  152
 10
666.45891457525158
 20
120.15875855323696
 11
667.35891463585153
 21
119.63914327597888
  0
LINE
  8
_0-1_
  6
CONTINUOUS
 62
  152
 10
652.25891476595132
 20
150.88521173023923
 11
652.25891476595132
 21
240.85875868333665
  0
LINE
  8
_0-1_
  6
CONTINUOUS
 62
  152
 10
666.45891457525158
 20
150.88521173023923
 11
666.45891457525158
 21
240.85875861383661
  0
LINE
  8
_0-1_
  6
CONTINUOUS
 62
  152
 10
651.35891463585131
 20
239.95875855323661
 11
667.35891463585153
 21
239.95875855323661
  0
LINE
  8
_0-1_
  6
CENTER1
 62
  152
 10
659.35891467063334
 20
88.86796111191029
 11
659.35891467063334
 21
243.54099444327247
  0
LINE
  8
_0-0_
  6
CONTINUOUS
 62
    7
 10
666.45891463585122
 20
240.85875855323692
 11
652.25891463585162
 21
240.85875855323692
  0
LINE
  8
_0-0_
  6
CONTINUOUS
 62
    7
 10
652.25891463585162
 20
240.85875855323692
 11
651.35891463585131
 21
239.95875855323661
  0
LINE
  8
_0-0_
  6
CONTINUOUS
 62
    7
 10
651.35891463585131
 20
239.95875855323661
 11
651.35891463585131
 21
150.88521173023923
  0
LINE
  8
_0-0_
  6
CONTINUOUS
 62
    7
 10
667.35891463585153
 20
239.95875855323661
 11
666.45891463585122
 21
240.85875855323692
  0
LINE
  8
_0-0_
  6
CONTINUOUS
 62
    7
 10
667.35891463585153
 20
239.95875855323661
 11
667.35891463585153
 21
150.88521173023923
  0
TEXT
  8
_0-0_
 62
    7
 10
461.68647547047965
 20
81.975636018485261
 40
4.2999999999999998
 41
0.744186046511628
 50
0
  1
AJ1650-L100
  0
LINE
  8
_0-1_
  6
CENTER1
 62
  152
 10
643.82481948381451
 20
39.126481707302332
 11
675.32337072265307
 21
39.126481707302332
  0
LINE
  8
_0-1_
  6
CENTER1
 62
  152
 10
659.35891467063334
 20
54.182056473903458
 11
659.35891467063334
 21
23.955487865978398
  0
LINE
  8
_0-1_
  6
CENTER1
 62
  152
 10
82.448888275315312
 20
241.40782011229791
 11
82.448888275315312
 21
207.4093838545038
  0
LINE
  8
_0-1_
  6
CENTER1
 62
  152
 10
94.074964140765815
 20
230.60258514864043
 11
71.114139685923647
 21
230.60258514864043
  0
CIRCLE
  8
_0-1_
  6
CONTINUOUS
 62
  152
 10
82.448888275315312
 20
230.60258514864043
 40
5
  0
CIRCLE
  8
_0-1_
  6
CONTINUOUS
 62
  152
 10
82.448888275315312
 20
230.60258514864043
 40
8.5000000000001137
  0
CIRCLE
  8
_0-1_
  6
CONTINUOUS
 62
  152
 10
192.40610085751348
 20
230.60258514864043
 40
8.5000000000001137
  0
CIRCLE
  8
_0-1_
  6
CONTINUOUS
 62
  152
 10
192.40610085751348
 20
230.60258514864043
 40
5
  0
LINE
  8
_0-1_
  6
CENTER1
 62
  152
 10
192.40610085751348
 20
207.69062091913628
 11
192.40610085751348
 21
245.20452048483651
  0
LINE
  8
_0-1_
  6
CENTER1
 62
  152
 10
181.07135226812181
 20
230.60258514864043
 11
204.03217672296398
 21
230.60258514864043
  0
LINE
  8
_0-1_
  6
CENTER1
 62
  152
 10
337.54747560680107
 20
209.94051743619622
 11
337.54747560680107
 21
249.00122085737507
  0
LINE
  8
_0-1_
  6
CENTER1
 62
  152
 10
325.32828158111306
 20
230.60258514864043
 11
349.75157163606559
 21
230.60258514864043
  0
CIRCLE
  8
_0-1_
  6
CONTINUOUS
 62
  152
 10
337.54747560680107
 20
230.60258514864043
 40
9.5
  0
LINE
  8
_0-1_
  6
CONTINUOUS
 62
  152
 10
332.29747560680084
 20
110.85875855323695
 11
332.29747560680084
 21
126.1406810263681
  0
LINE
  8
_0-1_
  6
CONTINUOUS
 62
  152
 10
342.7974756068013
 20
110.85875855323695
 11
342.7974756068013
 21
126.1406810263681
  0
LINE
  8
_0-1_
  6
CONTINUOUS
 62
  152
 10
342.7974756068013
 20
133.34068102636809
 11
342.7974756068013
 21
190.6087585532367
  0
LINE
  8
_0-1_
  6
CONTINUOUS
 62
  152
 10
332.29747560680084
 20
133.34068102636809
 11
332.29747560680084
 21
190.60875855323667
  0
LINE
  8
_0-1_
  6
CENTER1
 62
  152
 10
337.54747560680107
 20
86.414429561998418
 11
337.54747560680107
 21
193.62876768751192
  0
LINE
  8
_0-1_
  6
CONTINUOUS
 62
  152
 10
343.5474756068013
 20
189.8587585532367
 11
331.54747560680084
 21
189.8587585532367
  0
LINE
  8
_0-1_
  6
CONTINUOUS
 62
  152
 10
317.54747560680107
 20
101.25875855323682
 11
357.54747560680107
 21
101.25875855323682
  0
LINE
  8
_0-1_
  6
CONTINUOUS
 62
  152
 10
78.148888084615351
 20
170.55875836253713
 11
78.148888084615351
 21
136.78419594599245
  0
LINE
  8
_0-1_
  6
CONTINUOUS
 62
  152
 10
87.448888275315312
 20
169.8587585532367
 11
77.448888275315312
 21
169.8587585532367
  0
LINE
  8
_0-1_
  6
CONTINUOUS
 62
  152
 10
86.748888466015273
 20
136.78419594599245
 11
86.748888466015273
 21
170.55875836253674
  0
LINE
  8
_0-1_
  6
CONTINUOUS
 62
  152
 10
78.148888084615351
 20
128.98419594599244
 11
78.148888084615351
 21
110.85875855323695
  0
LINE
  8
_0-1_
  6
CONTINUOUS
 62
  152
 10
86.748888466015273
 20
128.98419594599244
 11
86.748888466015273
 21
110.85875855323695
  0
LINE
  8
_0-1_
  6
CENTER1
 62
  152
 10
82.448888275315312
 20
174.78588435713522
 11
82.448888275315312
 21
86.583758553236976
  0
LINE
  8
_0-1_
  6
CENTER1
 62
  152
 10
192.40610085751348
 20
86.083758553236976
 11
192.40610085751348
 21
192.50381942898196
  0
LINE
  8
_0-1_
  6
CONTINUOUS
 62
  152
 10
188.10610066681352
 20
129.78419594599256
 11
188.10610066681352
 21
109.45875855323709
  0
LINE
  8
_0-1_
  6
CONTINUOUS
 62
  152
 10
196.70610104821344
 20
109.45875855323709
 11
196.70610104821344
 21
129.78419594599256
  0
LINE
  8
_0-1_
  6
CONTINUOUS
 62
  152
 10
187.40610085751348
 20
189.8587585532367
 11
197.40610085751348
 21
189.8587585532367
  0
LINE
  8
_0-1_
  6
CONTINUOUS
 62
  152
 10
188.10610066681352
 20
137.58419594599263
 11
188.10610066681352
 21
190.55875836253674
  0
LINE
  8
_0-1_
  6
CONTINUOUS
 62
  152
 10
196.70610104821344
 20
190.55875836253674
 11
196.70610104821344
 21
137.58419594599263
  0
LINE
  8
_0-1_
  6
CONTINUOUS
 62
  152
 10
172.40610085751348
 20
101.35875855323673
 11
212.40610085751348
 21
101.35875855323673
  0
LINE
  8
_0-1_
  6
CONTINUOUS
 62
  152
 10
102.44888827531531
 20
101.45875855323698
 11
62.448888275315312
 21
101.45875855323698
  0
LINE
  8
_0-0_
  6
CONTINUOUS
 62
    7
 10
77.448888275315312
 20
136.78419594599245
 11
77.448888275315312
 21
169.8587585532367
  0
LINE
  8
_0-0_
  6
CONTINUOUS
 62
    7
 10
77.448888275315312
 20
169.8587585532367
 11
78.448888275314971
 21
170.85875855323692
  0
LINE
  8
_0-0_
  6
CONTINUOUS
 62
    7
 10
78.448888275314971
 20
170.85875855323692
 11
86.448888275315085
 21
170.85875855323692
  0
LINE
  8
_0-0_
  6
CONTINUOUS
 62
    7
 10
86.448888275315085
 20
170.85875855323692
 11
87.448888275315312
 21
169.8587585532367
  0
LINE
  8
_0-0_
  6
CONTINUOUS
 62
    7
 10
87.448888275315312
 20
169.8587585532367
 11
87.448888275315312
 21
136.78419594599245
  0
LINE
  8
_0-0_
  6
CONTINUOUS
 62
    7
 10
75.087672343091526
 20
136.78419594599245
 11
89.810104207539098
 21
136.78419594599245
  0
LINE
  8
_0-0_
  6
CONTINUOUS
 62
    7
 10
77.541410987203108
 20
136.02500656743769
 11
77.504133183679187
 21
136.15683841952784
  0
LINE
  8
_0-0_
  6
CONTINUOUS
 62
    7
 10
77.504133183679187
 20
136.15683841952784
 11
77.393432440303854
 21
136.28466462750231
  0
LINE
  8
_0-0_
  6
CONTINUOUS
 62
    7
 10
77.393432440303854
 20
136.28466462750231
 11
77.212672343147233
 21
136.40460125671507
  0
LINE
  8
_0-0_
  6
CONTINUOUS
 62
    7
 10
77.212672343147233
 20
136.40460125671507
 11
76.967345196292626
 21
136.5130040933783
  0
LINE
  8
_0-0_
  6
CONTINUOUS
 62
    7
 10
76.967345196292626
 20
136.5130040933783
 11
76.664905140955398
 21
136.60657937215456
  0
LINE
  8
_0-0_
  6
CONTINUOUS
 62
    7
 10
76.664905140955398
 20
136.60657937215456
 11
76.31454166517517
 21
136.68248385554944
  0
LINE
  8
_0-0_
  6
CONTINUOUS
 62
    7
 10
76.31454166517517
 20
136.68248385554944
 11
75.926900385871022
 21
136.7384112242446
  0
LINE
  8
_0-0_
  6
CONTINUOUS
 62
    7
 10
75.926900385871022
 20
136.7384112242446
 11
75.513759587158461
 21
136.77266215344298
  0
LINE
  8
_0-0_
  6
CONTINUOUS
 62
    7
 10
75.513759587158461
 20
136.77266215344298
 11
75.087672343147233
 21
136.78419594599245
  0
LINE
  8
_0-0_
  6
CONTINUOUS
 62
    7
 10
75.087672343147233
 20
136.78419594599245
 11
74.661585099136005
 21
136.77266215344298
  0
LINE
  8
_0-0_
  6
CONTINUOUS
 62
    7
 10
74.661585099136005
 20
136.77266215344298
 11
74.248444300423444
 21
136.7384112242446
  0
LINE
  8
_0-0_
  6
CONTINUOUS
 62
    7
 10
74.248444300423444
 20
136.7384112242446
 11
73.860803021119295
 21
136.68248385554944
  0
LINE
  8
_0-0_
  6
CONTINUOUS
 62
    7
 10
73.860803021119295
 20
136.68248385554944
 11
73.510439545339068
 21
136.60657937215456
  0
LINE
  8
_0-0_
  6
CONTINUOUS
 62
    7
 10
73.510439545339068
 20
136.60657937215456
 11
73.207999490001839
 21
136.5130040933783
  0
LINE
  8
_0-0_
  6
CONTINUOUS
 62
    7
 10
73.207999490001839
 20
136.5130040933783
 11
72.962672343147233
 21
136.40460125671507
  0
LINE
  8
_0-0_
  6
CONTINUOUS
 62
    7
 10
72.962672343147233
 20
136.40460125671507
 11
72.781912245990611
 21
136.28466462750231
  0
LINE
  8
_0-0_
  6
CONTINUOUS
 62
    7
 10
72.781912245990611
 20
136.28466462750231
 11
72.671211502615279
 21
136.15683841952784
  0
LINE
  8
_0-0_
  6
CONTINUOUS
 62
    7
 10
72.671211502615279
 20
136.15683841952784
 11
72.633933699091358
 21
136.02500656743769
  0
LINE
  8
_0-0_
  6
CONTINUOUS
 62
    7
 10
82.448888275315085
 20
136.78419594599245
 11
81.589420911623165
 21
136.771430964915
  0
LINE
  8
_0-0_
  6
CONTINUOUS
 62
    7
 10
81.589420911623165
 20
136.771430964915
 11
80.757473656756474
 21
136.73598625622913
  0
LINE
  8
_0-0_
  6
CONTINUOUS
 62
    7
 10
80.757473656756474
 20
136.73598625622913
 11
79.978324807068702
 21
136.67893878947245
  0
LINE
  8
_0-0_
  6
CONTINUOUS
 62
    7
 10
79.978324807068702
 20
136.67893878947245
 11
79.27564840608909
 21
136.60202192305496
  0
LINE
  8
_0-0_
  6
CONTINUOUS
 62
    7
 10
79.27564840608909
 20
136.60202192305496
 11
78.670794920690014
 21
136.50757273704085
  0
LINE
  8
_0-0_
  6
CONTINUOUS
 62
    7
 10
78.670794920690014
 20
136.50757273704085
 11
78.18214251795473
 21
136.39846102215358
  0
LINE
  8
_0-0_
  6
CONTINUOUS
 62
    7
 10
78.18214251795473
 20
136.39846102215358
 11
77.824538653870377
 21
136.27800208263687
  0
LINE
  8
_0-0_
  6
CONTINUOUS
 62
    7
 10
77.824538653870377
 20
136.27800208263687
 11
77.608848940890653
 21
136.14985600241278
  0
LINE
  8
_0-0_
  6
CONTINUOUS
 62
    7
 10
77.608848940890653
 20
136.14985600241278
 11
77.541410987203108
 21
136.02500656743769
  0
LINE
  8
_0-0_
  6
CONTINUOUS
 62
    7
 10
92.263842851538755
 20
136.02500656743769
 11
92.226565048014777
 21
136.15683841952784
  0
LINE
  8
_0-0_
  6
CONTINUOUS
 62
    7
 10
92.226565048014777
 20
136.15683841952784
 11
92.115864304639388
 21
136.28466462750231
  0
LINE
  8
_0-0_
  6
CONTINUOUS
 62
    7
 10
92.115864304639388
 20
136.28466462750231
 11
91.935104207482823
 21
136.40460125671507
  0
LINE
  8
_0-0_
  6
CONTINUOUS
 62
    7
 10
91.935104207482823
 20
136.40460125671507
 11
91.68977706062816
 21
136.5130040933783
  0
LINE
  8
_0-0_
  6
CONTINUOUS
 62
    7
 10
91.68977706062816
 20
136.5130040933783
 11
91.387337005291045
 21
136.60657937215456
  0
LINE
  8
_0-0_
  6
CONTINUOUS
 62
    7
 10
91.387337005291045
 20
136.60657937215456
 11
91.03697352951076
 21
136.68248385554944
  0
LINE
  8
_0-0_
  6
CONTINUOUS
 62
    7
 10
91.03697352951076
 20
136.68248385554944
 11
90.649332250206555
 21
136.7384112242446
  0
LINE
  8
_0-0_
  6
CONTINUOUS
 62
    7
 10
90.649332250206555
 20
136.7384112242446
 11
90.236191451494051
 21
136.77266215344298
  0
LINE
  8
_0-0_
  6
CONTINUOUS
 62
    7
 10
90.236191451494051
 20
136.77266215344298
 11
89.810104207482823
 21
136.78419594599245
  0
LINE
  8
_0-0_
  6
CONTINUOUS
 62
    7
 10
89.810104207482823
 20
136.78419594599245
 11
89.384016963471595
 21
136.77266215344298
  0
LINE
  8
_0-0_
  6
CONTINUOUS
 62
    7
 10
89.384016963471595
 20
136.77266215344298
 11
88.97087616475909
 21
136.7384112242446
  0
LINE
  8
_0-0_
  6
CONTINUOUS
 62
    7
 10
88.97087616475909
 20
136.7384112242446
 11
88.583234885454885
 21
136.68248385554944
  0
LINE
  8
_0-0_
  6
CONTINUOUS
 62
    7
 10
88.583234885454885
 20
136.68248385554944
 11
88.232871409674601
 21
136.60657937215456
  0
LINE
  8
_0-0_
  6
CONTINUOUS
 62
    7
 10
88.232871409674601
 20
136.60657937215456
 11
87.930431354337486
 21
136.5130040933783
  0
LINE
  8
_0-0_
  6
CONTINUOUS
 62
    7
 10
87.930431354337486
 20
136.5130040933783
 11
87.685104207482823
 21
136.40460125671507
  0
LINE
  8
_0-0_
  6
CONTINUOUS
 62
    7
 10
87.685104207482823
 20
136.40460125671507
 11
87.504344110326258
 21
136.28466462750231
  0
LINE
  8
_0-0_
  6
CONTINUOUS
 62
    7
 10
87.504344110326258
 20
136.28466462750231
 11
87.393643366950869
 21
136.15683841952784
  0
LINE
  8
_0-0_
  6
CONTINUOUS
 62
    7
 10
87.393643366950869
 20
136.15683841952784
 11
87.356365563426891
 21
136.02500656743769
  0
LINE
  8
_0-0_
  6
CONTINUOUS
 62
    7
 10
87.356365563426891
 20
136.02500656743769
 11
87.281107142433427
 21
136.15684416848796
  0
LINE
  8
_0-0_
  6
CONTINUOUS
 62
    7
 10
87.281107142433427
 20
136.15684416848796
 11
87.05761856849233
 21
136.28467595074346
  0
LINE
  8
_0-0_
  6
CONTINUOUS
 62
    7
 10
87.05761856849233
 20
136.28467595074346
 11
86.692690428832066
 21
136.40461781018621
  0
LINE
  8
_0-0_
  6
CONTINUOUS
 62
    7
 10
86.692690428832066
 20
136.40461781018621
 11
86.197410880313782
 21
136.51302537411061
  0
LINE
  8
_0-0_
  6
CONTINUOUS
 62
    7
 10
86.197410880313782
 20
136.51302537411061
 11
85.586828741395493
 21
136.60660473354369
  0
LINE
  8
_0-0_
  6
CONTINUOUS
 62
    7
 10
85.586828741395493
 20
136.60660473354369
 11
84.879496241398897
 21
136.68251252700247
  0
LINE
  8
_0-0_
  6
CONTINUOUS
 62
    7
 10
84.879496241398897
 20
136.68251252700247
 11
84.096905320408837
 21
136.73844233459397
  0
LINE
  8
_0-0_
  6
CONTINUOUS
 62
    7
 10
84.096905320408837
 20
136.73844233459397
 11
83.262834607549507
 21
136.77269475741639
  0
LINE
  8
_0-0_
  6
CONTINUOUS
 62
    7
 10
83.262834607549507
 20
136.77269475741639
 11
82.448888275315085
 21
136.78419594599245
  0
LINE
  8
_0-0_
  6
CONTINUOUS
 62
    7
 10
77.54141098720288
 20
239.10258514864037
 11
87.356365563426607
 21
239.10258514864037
  0
LINE
  8
_0-0_
  6
CONTINUOUS
 62
    7
 10
87.356365563426607
 20
239.10258514864037
 11
92.263842851539039
 21
230.60258514864043
  0
LINE
  8
_0-0_
  6
CONTINUOUS
 62
    7
 10
92.263842851539039
 20
230.60258514864043
 11
87.356365563426607
 21
222.10258514864049
  0
LINE
  8
_0-0_
  6
CONTINUOUS
 62
    7
 10
87.356365563426607
 20
222.10258514864049
 11
77.54141098720288
 21
222.10258514864049
  0
LINE
  8
_0-0_
  6
CONTINUOUS
 62
    7
 10
77.54141098720288
 20
222.10258514864049
 11
72.633933699091585
 21
230.60258514864043
  0
LINE
  8
_0-0_
  6
CONTINUOUS
 62
    7
 10
72.633933699091585
 20
230.60258514864043
 11
77.54141098720288
 21
239.10258514864037
  0
LINE
  8
_0-0_
  6
CONTINUOUS
 62
    7
 10
182.59114628128975
 20
130.54338532454733
 11
182.59114628128975
 21
136.82500656743787
  0
LINE
  8
_0-0_
  6
CONTINUOUS
 62
    7
 10
185.04488492528969
 20
137.58419594599263
 11
199.76731678973727
 21
137.58419594599263
  0
LINE
  8
_0-0_
  6
CONTINUOUS
 62
    7
 10
197.40610085751348
 20
137.58419594599263
 11
197.40610085751348
 21
189.8587585532367
  0
LINE
  8
_0-0_
  6
CONTINUOUS
 62
    7
 10
197.40610085751348
 20
189.8587585532367
 11
196.40610085751325
 21
190.85875855323692
  0
LINE
  8
_0-0_
  6
CONTINUOUS
 62
    7
 10
196.40610085751325
 20
190.85875855323692
 11
188.40610085751371
 21
190.85875855323692
  0
LINE
  8
_0-0_
  6
CONTINUOUS
 62
    7
 10
188.40610085751371
 20
190.85875855323692
 11
187.40610085751348
 21
189.8587585532367
  0
LINE
  8
_0-0_
  6
CONTINUOUS
 62
    7
 10
187.40610085751348
 20
189.8587585532367
 11
187.40610085751348
 21
137.58419594599263
  0
LINE
  8
_0-0_
  6
CONTINUOUS
 62
    7
 10
197.31357814562534
 20
136.82500656743787
 11
197.31357814562534
 21
130.54338532454733
  0
LINE
  8
_0-0_
  6
CONTINUOUS
 62
    7
 10
197.40610085751348
 20
129.78419594599256
 11
197.40610085751348
 21
109.45875855323709
  0
LINE
  8
_0-0_
  6
CONTINUOUS
 62
    7
 10
197.31357814562534
 20
109.45875855323709
 11
197.31357814562534
 21
105.13529774667791
  0
LINE
  8
_0-0_
  6
CONTINUOUS
 62
    7
 10
197.31357814562534
 20
105.13529774667791
 11
197.93257746637585
 21
104.98172228977967
  0
LINE
  8
_0-0_
  6
CONTINUOUS
 62
    7
 10
197.93257746637585
 20
104.98172228977967
 11
198.55302563680232
 21
104.8663823946664
  0
LINE
  8
_0-0_
  6
CONTINUOUS
 62
    7
 10
198.55302563680232
 20
104.8663823946664
 11
199.17269786070881
 21
104.79539031753018
  0
LINE
  8
_0-0_
  6
CONTINUOUS
 62
    7
 10
199.17269786070881
 20
104.79539031753018
 11
199.79233096046676
 21
104.77259227028821
  0
LINE
  8
_0-0_
  6
CONTINUOUS
 62
    7
 10
199.79233096046676
 20
104.77259227028821
 11
200.40326794615601
 21
104.79865761820759
  0
LINE
  8
_0-0_
  6
CONTINUOUS
 62
    7
 10
200.40326794615601
 20
104.79865761820759
 11
201.01240629047913
 21
104.87110515451047
  0
LINE
  8
_0-0_
  6
CONTINUOUS
 62
    7
 10
201.01240629047913
 20
104.87110515451047
 11
201.6179712906993
 21
104.98521523602778
  0
LINE
  8
_0-0_
  6
CONTINUOUS
 62
    7
 10
201.6179712906993
 20
104.98521523602778
 11
202.22105543373721
 21
105.13529774667791
  0
LINE
  8
_0-0_
  6
CONTINUOUS
 62
    7
 10
202.22105543373721
 20
105.13529774667791
 11
200.85610085751318
 21
104.75875855323682
  0
LINE
  8
_0-0_
  6
CONTINUOUS
 62
    7
 10
202.22105543373721
 20
105.13529774667791
 11
202.22105543373721
 21
109.45875855323709
  0
LINE
  8
_0-0_
  6
CONTINUOUS
 62
    7
 10
202.22105543373721
 20
109.45875855323709
 11
182.59114628128975
 21
109.45875855323709
  0
LINE
  8
_0-0_
  6
CONTINUOUS
 62
    7
 10
182.59114628128975
 20
109.45875855323709
 11
182.59114628128975
 21
105.13529774667791
  0
LINE
  8
_0-0_
  6
CONTINUOUS
 62
    7
 10
182.59114628128975
 20
105.13529774667791
 11
183.21014560203969
 21
104.98172228977967
  0
LINE
  8
_0-0_
  6
CONTINUOUS
 62
    7
 10
183.21014560203969
 20
104.98172228977967
 11
183.83059377246673
 21
104.8663823946664
  0
LINE
  8
_0-0_
  6
CONTINUOUS
 62
    7
 10
183.83059377246673
 20
104.8663823946664
 11
184.45026599637265
 21
104.79539031753018
  0
LINE
  8
_0-0_
  6
CONTINUOUS
 62
    7
 10
184.45026599637265
 20
104.79539031753018
 11
185.06989909613117
 21
104.77259227028821
  0
LINE
  8
_0-0_
  6
CONTINUOUS
 62
    7
 10
185.06989909613117
 20
104.77259227028821
 11
185.68083608182042
 21
104.79865761820759
  0
LINE
  8
_0-0_
  6
CONTINUOUS
 62
    7
 10
185.68083608182042
 20
104.79865761820759
 11
186.28997442614411
 21
104.87110515451047
  0
LINE
  8
_0-0_
  6
CONTINUOUS
 62
    7
 10
186.28997442614411
 20
104.87110515451047
 11
186.89553942636314
 21
104.98521523602778
  0
LINE
  8
_0-0_
  6
CONTINUOUS
 62
    7
 10
186.89553942636314
 20
104.98521523602778
 11
187.49862356940162
 21
105.13529774667791
  0
LINE
  8
_0-0_
  6
CONTINUOUS
 62
    7
 10
187.49862356940162
 20
105.13529774667791
 11
188.57628838684695
 21
104.99957333548946
  0
LINE
  8
_0-0_
  6
CONTINUOUS
 62
    7
 10
188.57628838684695
 20
104.99957333548946
 11
189.65635996981212
 21
104.89219425971487
  0
LINE
  8
_0-0_
  6
CONTINUOUS
 62
    7
 10
189.65635996981212
 20
104.89219425971487
 11
190.73612022653924
 21
104.81737811329549
  0
LINE
  8
_0-0_
  6
CONTINUOUS
 62
    7
 10
190.73612022653924
 20
104.81737811329549
 11
191.81656042662246
 21
104.77818477540313
  0
LINE
  8
_0-0_
  6
CONTINUOUS
 62
    7
 10
191.81656042662246
 20
104.77818477540313
 11
192.88539864547749
 21
104.77627650941668
  0
LINE
  8
_0-0_
  6
CONTINUOUS
 62
    7
 10
192.88539864547749
 20
104.77627650941668
 11
193.95242635784234
 21
104.81103700649794
  0
LINE
  8
_0-0_
  6
CONTINUOUS
 62
    7
 10
193.95242635784234
 20
104.81103700649794
 11
195.01456580897388
 21
104.88047901208108
  0
LINE
  8
_0-0_
  6
CONTINUOUS
 62
    7
 10
195.01456580897388
 20
104.88047901208108
 11
196.07325778729296
 21
104.98146850757405
  0
LINE
  8
_0-0_
  6
CONTINUOUS
 62
    7
 10
196.07325778729296
 20
104.98146850757405
 11
197.31357814562534
 21
105.13529774667791
  0
LINE
  8
_0-0_
  6
CONTINUOUS
 62
    7
 10
199.76731678973727
 20
129.78419594599256
 11
185.04488492528969
 21
129.78419594599256
  0
LINE
  8
_0-0_
  6
CONTINUOUS
 62
    7
 10
187.40610085751348
 20
129.78419594599256
 11
187.40610085751348
 21
109.45875855323709
  0
LINE
  8
_0-0_
  6
CONTINUOUS
 62
    7
 10
187.49862356940162
 20
109.45875855323709
 11
187.49862356940162
 21
105.13529774667791
  0
LINE
  8
_0-0_
  6
CONTINUOUS
 62
    7
 10
183.95610085751377
 20
104.75875855323682
 11
182.59114628128975
 21
105.13529774667791
  0
LINE
  8
_0-0_
  6
CONTINUOUS
 62
    7
 10
180.40610085751359
 20
104.75875855323682
 11
180.40610085751359
 21
104.35875855323684
  0
LINE
  8
_0-0_
  6
CONTINUOUS
 62
    7
 10
180.40610085751359
 20
104.75875855323682
 11
204.40610085751337
 21
104.75875855323682
  0
LINE
  8
_0-0_
  6
CONTINUOUS
 62
    7
 10
204.40610085751337
 20
104.75875855323682
 11
204.40610085751337
 21
104.35875855323684
  0
LINE
  8
_0-0_
  6
CONTINUOUS
 62
    7
 10
209.40610085751337
 20
104.35875855323684
 11
175.4061008577637
 21
104.35875855323684
  0
LINE
  8
_0-0_
  6
CONTINUOUS
 62
    7
 10
212.40610085751348
 20
96.358758553237067
 11
172.40610085751348
 21
96.358758553237067
  0
LINE
  8
_0-0_
  6
CONTINUOUS
 62
    7
 10
187.49862356940162
 20
239.10258514864037
 11
197.31357814562534
 21
239.10258514864037
  0
LINE
  8
_0-0_
  6
CONTINUOUS
 62
    7
 10
197.31357814562534
 20
239.10258514864037
 11
202.22105543373721
 21
230.60258514864043
  0
LINE
  8
_0-0_
  6
CONTINUOUS
 62
    7
 10
202.22105543373721
 20
230.60258514864043
 11
197.31357814562534
 21
222.10258514864049
  0
LINE
  8
_0-0_
  6
CONTINUOUS
 62
    7
 10
197.31357814562534
 20
222.10258514864049
 11
187.49862356940162
 21
222.10258514864049
  0
LINE
  8
_0-0_
  6
CONTINUOUS
 62
    7
 10
187.49862356940162
 20
222.10258514864049
 11
182.59114628128975
 21
230.60258514864043
  0
LINE
  8
_0-0_
  6
CONTINUOUS
 62
    7
 10
182.59114628128975
 20
230.60258514864043
 11
187.49862356940162
 21
239.10258514864037
  0
LINE
  8
_0-0_
  6
CONTINUOUS
 62
    7
 10
202.22105543373721
 20
136.82500656743787
 11
202.22105543373721
 21
130.54338532454733
  0
LINE
  8
_0-0_
  6
CONTINUOUS
 62
    7
 10
187.49862356940162
 20
130.54338532454733
 11
187.49862356940162
 21
136.82500656743787
  0
LINE
  8
_0-0_
  6
CONTINUOUS
 62
    7
 10
355.54747560680175
 20
90.858758553236953
 11
319.54747560680153
 21
90.858758553236953
  0
LINE
  8
_0-0_
  6
CONTINUOUS
 62
    7
 10
332.54747560680107
 20
190.85875855323692
 11
342.54747560680107
 21
190.85875855323692
  0
LINE
  8
_0-0_
  6
CONTINUOUS
 62
    7
 10
342.54747560680107
 20
190.85875855323692
 11
343.5474756068013
 21
189.8587585532367
  0
LINE
  8
_0-0_
  6
CONTINUOUS
 62
    7
 10
343.5474756068013
 20
189.8587585532367
 11
343.5474756068013
 21
133.34068102636809
  0
LINE
  8
_0-0_
  6
CONTINUOUS
 62
    7
 10
331.54747560680084
 20
189.8587585532367
 11
332.54747560680107
 21
190.85875855323692
  0
LINE
  8
_0-0_
  6
CONTINUOUS
 62
    7
 10
331.54747560680084
 20
189.8587585532367
 11
331.54747560680084
 21
133.34068102636809
  0
LINE
  8
_0-0_
  6
CONTINUOUS
 62
    7
 10
329.32023409068825
 20
133.34068102636809
 11
345.7747171229139
 21
133.34068102636809
  0
LINE
  8
_0-0_
  6
CONTINUOUS
 62
    7
 10
332.06264808833771
 20
240.1025850981878
 11
343.03230318352212
 21
240.1025850981878
  0
LINE
  8
_0-0_
  6
CONTINUOUS
 62
    7
 10
343.03230318352212
 20
240.1025851150055
 11
348.51713070198548
 21
230.60258518227553
  0
LINE
  8
_0-0_
  6
CONTINUOUS
 62
    7
 10
348.51713070198548
 20
230.60258518227553
 11
343.03230312526443
 21
221.10258521591018
  0
LINE
  8
_0-0_
  6
CONTINUOUS
 62
    7
 10
343.03230312526443
 20
221.10258519909249
 11
332.06264803008003
 21
221.10258519909249
  0
LINE
  8
_0-0_
  6
CONTINUOUS
 62
    7
 10
332.06264803008003
 20
221.10258518227508
 11
326.57782051161666
 21
230.60258511500504
  0
LINE
  8
_0-0_
  6
CONTINUOUS
 62
    7
 10
326.57782051161666
 20
230.60258511500504
 11
332.06264808833771
 21
240.10258508137039
  0
ARC
  8
_0-0_
  6
CONTINUOUS
 62
    7
 10
337.54747560680107
 20
119.54493684568843
 40
13.795743942260742
 50
66.573394775390625
 51
113.4265899658203
  0
LINE
  8
_0-0_
  6
CONTINUOUS
 62
    7
 10
348.51700034304457
 20
132.20349924220312
 11
347.84957656090472
 21
132.72175474290748
  0
LINE
  8
_0-0_
  6
CONTINUOUS
 62
    7
 10
347.84957656090472
 20
132.72175474290748
 11
347.11910922467109
 21
133.08961719675835
  0
LINE
  8
_0-0_
  6
CONTINUOUS
 62
    7
 10
347.11910922467109
 20
133.08961719675835
 11
346.34779321472081
 21
133.29590928924279
  0
LINE
  8
_0-0_
  6
CONTINUOUS
 62
    7
 10
346.34779321472081
 20
133.29590928924279
 11
345.55906457771147
 21
133.33436293951968
  0
LINE
  8
_0-0_
  6
CONTINUOUS
 62
    7
 10
345.55906457771147
 20
133.33436293951968
 11
344.77688843416263
 21
133.20380975288367
  0
LINE
  8
_0-0_
  6
CONTINUOUS
 62
    7
 10
344.77688843416263
 20
133.20380975288367
 11
344.02503081039583
 21
132.90821652184763
  0
LINE
  8
_0-0_
  6
CONTINUOUS
 62
    7
 10
344.02503081039583
 20
132.90821652184763
 11
343.32633651985094
 21
132.45656469715925
  0
LINE
  8
_0-0_
  6
CONTINUOUS
 62
    7
 10
343.32633651985094
 20
132.45656469715925
 11
343.03243486248584
 21
132.20350014027747
  0
LINE
  8
_0-0_
  6
CONTINUOUS
 62
    7
 10
332.06251731081892
 20
132.20349924220312
 11
331.39509352867907
 21
132.72175474290748
  0
LINE
  8
_0-0_
  6
CONTINUOUS
 62
    7
 10
331.39509352867907
 20
132.72175474290748
 11
330.66462619244544
 21
133.08961719675835
  0
LINE
  8
_0-0_
  6
CONTINUOUS
 62
    7
 10
330.66462619244544
 20
133.08961719675835
 11
329.89331018249516
 21
133.29590928924279
  0
LINE
  8
_0-0_
  6
CONTINUOUS
 62
    7
 10
329.89331018249516
 20
133.29590928924279
 11
329.10458154548581
 21
133.33436293951968
  0
LINE
  8
_0-0_
  6
CONTINUOUS
 62
    7
 10
329.10458154548581
 20
133.33436293951968
 11
328.32240540193698
 21
133.20380975288367
  0
LINE
  8
_0-0_
  6
CONTINUOUS
 62
    7
 10
328.32240540193698
 20
133.20380975288367
 11
327.57054777817018
 21
132.90821652184763
  0
LINE
  8
_0-0_
  6
CONTINUOUS
 62
    7
 10
327.57054777817018
 20
132.90821652184763
 11
326.87185348762529
 21
132.45656469715925
  0
LINE
  8
_0-0_
  6
CONTINUOUS
 62
    7
 10
326.87185348762529
 20
132.45656469715925
 11
326.57795183026019
 21
132.20350014027747
  0
LINE
  8
_0-0_
  6
CONTINUOUS
 62
    7
 10
187.4986235694019
 20
130.54338532454733
 11
187.57388199039536
 21
130.41154772349705
  0
LINE
  8
_0-0_
  6
CONTINUOUS
 62
    7
 10
187.57388199039536
 20
130.41154772349705
 11
187.79737056433646
 21
130.28371594124155
  0
LINE
  8
_0-0_
  6
CONTINUOUS
 62
    7
 10
187.79737056433646
 20
130.28371594124155
 11
188.16229870399673
 21
130.16377408179881
  0
LINE
  8
_0-0_
  6
CONTINUOUS
 62
    7
 10
188.16229870399673
 20
130.16377408179881
 11
188.65757825251501
 21
130.0553665178744
  0
LINE
  8
_0-0_
  6
CONTINUOUS
 62
    7
 10
188.65757825251501
 20
130.0553665178744
 11
189.2681603914333
 21
129.96178715844133
  0
LINE
  8
_0-0_
  6
CONTINUOUS
 62
    7
 10
189.2681603914333
 20
129.96178715844133
 11
189.97549289142989
 21
129.88587936498254
  0
LINE
  8
_0-0_
  6
CONTINUOUS
 62
    7
 10
189.97549289142989
 20
129.88587936498254
 11
190.75808381241995
 21
129.82994955739105
  0
LINE
  8
_0-0_
  6
CONTINUOUS
 62
    7
 10
190.75808381241995
 20
129.82994955739105
 11
191.59215452527928
 21
129.79569713456863
  0
LINE
  8
_0-0_
  6
CONTINUOUS
 62
    7
 10
191.59215452527928
 20
129.79569713456863
 11
192.40610085751376
 21
129.78419594599256
  0
LINE
  8
_0-0_
  6
CONTINUOUS
 62
    7
 10
182.59114628128947
 20
130.54338532454733
 11
182.62842408481345
 21
130.41155347245717
  0
LINE
  8
_0-0_
  6
CONTINUOUS
 62
    7
 10
182.62842408481345
 20
130.41155347245717
 11
182.73912482818878
 21
130.28372726448271
  0
LINE
  8
_0-0_
  6
CONTINUOUS
 62
    7
 10
182.73912482818878
 20
130.28372726448271
 11
182.9198849253454
 21
130.16379063526995
  0
LINE
  8
_0-0_
  6
CONTINUOUS
 62
    7
 10
182.9198849253454
 20
130.16379063526995
 11
183.16521207220006
 21
130.05538779860672
  0
LINE
  8
_0-0_
  6
CONTINUOUS
 62
    7
 10
183.16521207220006
 20
130.05538779860672
 11
183.46765212753724
 21
129.96181251983046
  0
LINE
  8
_0-0_
  6
CONTINUOUS
 62
    7
 10
183.46765212753724
 20
129.96181251983046
 11
183.81801560331746
 21
129.88590803643558
  0
LINE
  8
_0-0_
  6
CONTINUOUS
 62
    7
 10
183.81801560331746
 20
129.88590803643558
 11
184.20565688262167
 21
129.82998066774041
  0
LINE
  8
_0-0_
  6
CONTINUOUS
 62
    7
 10
184.20565688262167
 20
129.82998066774041
 11
184.61879768133417
 21
129.79572973854204
  0
LINE
  8
_0-0_
  6
CONTINUOUS
 62
    7
 10
184.61879768133417
 20
129.79572973854204
 11
185.0448849253454
 21
129.78419594599256
  0
LINE
  8
_0-0_
  6
CONTINUOUS
 62
    7
 10
185.0448849253454
 20
129.78419594599256
 11
185.47097216935663
 21
129.79572973854204
  0
LINE
  8
_0-0_
  6
CONTINUOUS
 62
    7
 10
185.47097216935663
 20
129.79572973854204
 11
185.88411296806913
 21
129.82998066774041
  0
LINE
  8
_0-0_
  6
CONTINUOUS
 62
    7
 10
185.88411296806913
 20
129.82998066774041
 11
186.27175424737334
 21
129.88590803643558
  0
LINE
  8
_0-0_
  6
CONTINUOUS
 62
    7
 10
186.27175424737334
 20
129.88590803643558
 11
186.62211772315356
 21
129.96181251983046
  0
LINE
  8
_0-0_
  6
CONTINUOUS
 62
    7
 10
186.62211772315356
 20
129.96181251983046
 11
186.92455777849074
 21
130.05538779860672
  0
LINE
  8
_0-0_
  6
CONTINUOUS
 62
    7
 10
186.92455777849074
 20
130.05538779860672
 11
187.1698849253454
 21
130.16379063526995
  0
LINE
  8
_0-0_
  6
CONTINUOUS
 62
    7
 10
187.1698849253454
 20
130.16379063526995
 11
187.35064502250196
 21
130.28372726448271
  0
LINE
  8
_0-0_
  6
CONTINUOUS
 62
    7
 10
187.35064502250196
 20
130.28372726448271
 11
187.46134576587735
 21
130.41155347245717
  0
LINE
  8
_0-0_
  6
CONTINUOUS
 62
    7
 10
187.46134576587735
 20
130.41155347245717
 11
187.49862356940133
 21
130.54338532454733
  0
LINE
  8
_0-0_
  6
CONTINUOUS
 62
    7
 10
192.4061008575132
 20
129.78419594599256
 11
193.26556822120511
 21
129.79696092707002
  0
LINE
  8
_0-0_
  6
CONTINUOUS
 62
    7
 10
193.26556822120511
 20
129.79696092707002
 11
194.09751547607175
 21
129.83240563575589
  0
LINE
  8
_0-0_
  6
CONTINUOUS
 62
    7
 10
194.09751547607175
 20
129.83240563575589
 11
194.87666432575952
 21
129.88945310251256
  0
LINE
  8
_0-0_
  6
CONTINUOUS
 62
    7
 10
194.87666432575952
 20
129.88945310251256
 11
195.57934072673913
 21
129.96636996893005
  0
LINE
  8
_0-0_
  6
CONTINUOUS
 62
    7
 10
195.57934072673913
 20
129.96636996893005
 11
196.18419421213821
 21
130.06081915494417
  0
LINE
  8
_0-0_
  6
CONTINUOUS
 62
    7
 10
196.18419421213821
 20
130.06081915494417
 11
196.67284661487349
 21
130.16993086983143
  0
LINE
  8
_0-0_
  6
CONTINUOUS
 62
    7
 10
196.67284661487349
 20
130.16993086983143
 11
197.0304504789579
 21
130.29038980934814
  0
LINE
  8
_0-0_
  6
CONTINUOUS
 62
    7
 10
197.0304504789579
 20
130.29038980934814
 11
197.24614019193757
 21
130.41853588957224
  0
LINE
  8
_0-0_
  6
CONTINUOUS
 62
    7
 10
197.24614019193757
 20
130.41853588957224
 11
197.31357814562506
 21
130.54338532454733
  0
LINE
  8
_0-0_
  6
CONTINUOUS
 62
    7
 10
197.31357814562563
 20
130.54338532454733
 11
197.3508559491496
 21
130.41155347245717
  0
LINE
  8
_0-0_
  6
CONTINUOUS
 62
    7
 10
197.3508559491496
 20
130.41155347245717
 11
197.46155669252494
 21
130.28372726448271
  0
LINE
  8
_0-0_
  6
CONTINUOUS
 62
    7
 10
197.46155669252494
 20
130.28372726448271
 11
197.64231678968156
 21
130.16379063526995
  0
LINE
  8
_0-0_
  6
CONTINUOUS
 62
    7
 10
197.64231678968156
 20
130.16379063526995
 11
197.88764393653622
 21
130.05538779860672
  0
LINE
  8
_0-0_
  6
CONTINUOUS
 62
    7
 10
197.88764393653622
 20
130.05538779860672
 11
198.19008399187339
 21
129.96181251983046
  0
LINE
  8
_0-0_
  6
CONTINUOUS
 62
    7
 10
198.19008399187339
 20
129.96181251983046
 11
198.54044746765362
 21
129.88590803643558
  0
LINE
  8
_0-0_
  6
CONTINUOUS
 62
    7
 10
198.54044746765362
 20
129.88590803643558
 11
198.92808874695783
 21
129.82998066774041
  0
LINE
  8
_0-0_
  6
CONTINUOUS
 62
    7
 10
198.92808874695783
 20
129.82998066774041
 11
199.34122954567033
 21
129.79572973854204
  0
LINE
  8
_0-0_
  6
CONTINUOUS
 62
    7
 10
199.34122954567033
 20
129.79572973854204
 11
199.76731678968156
 21
129.78419594599256
  0
LINE
  8
_0-0_
  6
CONTINUOUS
 62
    7
 10
199.76731678968156
 20
129.78419594599256
 11
200.19340403369279
 21
129.79572973854204
  0
LINE
  8
_0-0_
  6
CONTINUOUS
 62
    7
 10
200.19340403369279
 20
129.79572973854204
 11
200.60654483240529
 21
129.82998066774041
  0
LINE
  8
_0-0_
  6
CONTINUOUS
 62
    7
 10
200.60654483240529
 20
129.82998066774041
 11
200.9941861117095
 21
129.88590803643558
  0
LINE
  8
_0-0_
  6
CONTINUOUS
 62
    7
 10
200.9941861117095
 20
129.88590803643558
 11
201.34454958748972
 21
129.96181251983046
  0
LINE
  8
_0-0_
  6
CONTINUOUS
 62
    7
 10
201.34454958748972
 20
129.96181251983046
 11
201.6469896428269
 21
130.05538779860672
  0
LINE
  8
_0-0_
  6
CONTINUOUS
 62
    7
 10
201.6469896428269
 20
130.05538779860672
 11
201.89231678968156
 21
130.16379063526995
  0
LINE
  8
_0-0_
  6
CONTINUOUS
 62
    7
 10
201.89231678968156
 20
130.16379063526995
 11
202.07307688683812
 21
130.28372726448271
  0
LINE
  8
_0-0_
  6
CONTINUOUS
 62
    7
 10
202.07307688683812
 20
130.28372726448271
 11
202.18377763021351
 21
130.41155347245717
  0
LINE
  8
_0-0_
  6
CONTINUOUS
 62
    7
 10
202.18377763021351
 20
130.41155347245717
 11
202.22105543373749
 21
130.54338532454733
  0
ARC
  8
_0-0_
  6
CONTINUOUS
 62
    7
 10
175.40610085751359
 20
101.35875855323673
 40
2.9999999999999867
 50
89.99999999999946
 51
180.0000000000002
  0
ARC
  8
_0-0_
  6
CONTINUOUS
 62
    7
 10
209.40610085751337
 20
101.35875855323673
 40
2.9999999999999725
 50
359.99999999999977
 51
90.00000000000054
  0
LINE
  8
_0-0_
  6
CONTINUOUS
 62
    7
 10
187.49862356940133
 20
136.82500656743787
 11
187.46134576587735
 21
136.95683841952803
  0
LINE
  8
_0-0_
  6
CONTINUOUS
 62
    7
 10
187.46134576587735
 20
136.95683841952803
 11
187.35064502250202
 21
137.08466462750249
  0
LINE
  8
_0-0_
  6
CONTINUOUS
 62
    7
 10
187.35064502250202
 20
137.08466462750249
 11
187.1698849253454
 21
137.20460125671525
  0
LINE
  8
_0-0_
  6
CONTINUOUS
 62
    7
 10
187.1698849253454
 20
137.20460125671525
 11
186.92455777849074
 21
137.31300409337848
  0
LINE
  8
_0-0_
  6
CONTINUOUS
 62
    7
 10
186.92455777849074
 20
137.31300409337848
 11
186.62211772315356
 21
137.40657937215474
  0
LINE
  8
_0-0_
  6
CONTINUOUS
 62
    7
 10
186.62211772315356
 20
137.40657937215474
 11
186.27175424737334
 21
137.48248385554962
  0
LINE
  8
_0-0_
  6
CONTINUOUS
 62
    7
 10
186.27175424737334
 20
137.48248385554962
 11
185.88411296806913
 21
137.53841122424478
  0
LINE
  8
_0-0_
  6
CONTINUOUS
 62
    7
 10
185.88411296806913
 20
137.53841122424478
 11
185.47097216935663
 21
137.57266215344316
  0
LINE
  8
_0-0_
  6
CONTINUOUS
 62
    7
 10
185.47097216935663
 20
137.57266215344316
 11
185.0448849253454
 21
137.58419594599263
  0
LINE
  8
_0-0_
  6
CONTINUOUS
 62
    7
 10
185.0448849253454
 20
137.58419594599263
 11
184.61879768133417
 21
137.57266215344316
  0
LINE
  8
_0-0_
  6
CONTINUOUS
 62
    7
 10
184.61879768133417
 20
137.57266215344316
 11
184.20565688262167
 21
137.53841122424478
  0
LINE
  8
_0-0_
  6
CONTINUOUS
 62
    7
 10
184.20565688262167
 20
137.53841122424478
 11
183.81801560331746
 21
137.48248385554962
  0
LINE
  8
_0-0_
  6
CONTINUOUS
 62
    7
 10
183.81801560331746
 20
137.48248385554962
 11
183.46765212753724
 21
137.40657937215474
  0
LINE
  8
_0-0_
  6
CONTINUOUS
 62
    7
 10
183.46765212753724
 20
137.40657937215474
 11
183.16521207220006
 21
137.31300409337848
  0
LINE
  8
_0-0_
  6
CONTINUOUS
 62
    7
 10
183.16521207220006
 20
137.31300409337848
 11
182.9198849253454
 21
137.20460125671525
  0
LINE
  8
_0-0_
  6
CONTINUOUS
 62
    7
 10
182.9198849253454
 20
137.20460125671525
 11
182.73912482818884
 21
137.08466462750249
  0
LINE
  8
_0-0_
  6
CONTINUOUS
 62
    7
 10
182.73912482818884
 20
137.08466462750249
 11
182.62842408481345
 21
136.95683841952803
  0
LINE
  8
_0-0_
  6
CONTINUOUS
 62
    7
 10
182.62842408481345
 20
136.95683841952803
 11
182.59114628128947
 21
136.82500656743787
  0
LINE
  8
_0-0_
  6
CONTINUOUS
 62
    7
 10
192.40610085751376
 20
137.58419594599263
 11
191.54663349382184
 21
137.57143096491518
  0
LINE
  8
_0-0_
  6
CONTINUOUS
 62
    7
 10
191.54663349382184
 20
137.57143096491518
 11
190.71468623895521
 21
137.53598625622931
  0
LINE
  8
_0-0_
  6
CONTINUOUS
 62
    7
 10
190.71468623895521
 20
137.53598625622931
 11
189.93553738926744
 21
137.47893878947264
  0
LINE
  8
_0-0_
  6
CONTINUOUS
 62
    7
 10
189.93553738926744
 20
137.47893878947264
 11
189.23286098828783
 21
137.40202192305514
  0
LINE
  8
_0-0_
  6
CONTINUOUS
 62
    7
 10
189.23286098828783
 20
137.40202192305514
 11
188.62800750288875
 21
137.30757273704103
  0
LINE
  8
_0-0_
  6
CONTINUOUS
 62
    7
 10
188.62800750288875
 20
137.30757273704103
 11
188.13935510015347
 21
137.19846102215377
  0
LINE
  8
_0-0_
  6
CONTINUOUS
 62
    7
 10
188.13935510015347
 20
137.19846102215377
 11
187.78175123606906
 21
137.07800208263706
  0
LINE
  8
_0-0_
  6
CONTINUOUS
 62
    7
 10
187.78175123606906
 20
137.07800208263706
 11
187.56606152308939
 21
136.94985600241296
  0
LINE
  8
_0-0_
  6
CONTINUOUS
 62
    7
 10
187.56606152308939
 20
136.94985600241296
 11
187.4986235694019
 21
136.82500656743787
  0
LINE
  8
_0-0_
  6
CONTINUOUS
 62
    7
 10
202.22105543373749
 20
136.82500656743787
 11
202.18377763021351
 21
136.95683841952803
  0
LINE
  8
_0-0_
  6
CONTINUOUS
 62
    7
 10
202.18377763021351
 20
136.95683841952803
 11
202.07307688683818
 21
137.08466462750249
  0
LINE
  8
_0-0_
  6
CONTINUOUS
 62
    7
 10
202.07307688683818
 20
137.08466462750249
 11
201.89231678968156
 21
137.20460125671525
  0
LINE
  8
_0-0_
  6
CONTINUOUS
 62
    7
 10
201.89231678968156
 20
137.20460125671525
 11
201.6469896428269
 21
137.31300409337848
  0
LINE
  8
_0-0_
  6
CONTINUOUS
 62
    7
 10
201.6469896428269
 20
137.31300409337848
 11
201.34454958748972
 21
137.40657937215474
  0
LINE
  8
_0-0_
  6
CONTINUOUS
 62
    7
 10
201.34454958748972
 20
137.40657937215474
 11
200.9941861117095
 21
137.48248385554962
  0
LINE
  8
_0-0_
  6
CONTINUOUS
 62
    7
 10
200.9941861117095
 20
137.48248385554962
 11
200.60654483240529
 21
137.53841122424478
  0
LINE
  8
_0-0_
  6
CONTINUOUS
 62
    7
 10
200.60654483240529
 20
137.53841122424478
 11
200.19340403369279
 21
137.57266215344316
  0
LINE
  8
_0-0_
  6
CONTINUOUS
 62
    7
 10
200.19340403369279
 20
137.57266215344316
 11
199.76731678968156
 21
137.58419594599263
  0
LINE
  8
_0-0_
  6
CONTINUOUS
 62
    7
 10
199.76731678968156
 20
137.58419594599263
 11
199.34122954567033
 21
137.57266215344316
  0
LINE
  8
_0-0_
  6
CONTINUOUS
 62
    7
 10
199.34122954567033
 20
137.57266215344316
 11
198.92808874695783
 21
137.53841122424478
  0
LINE
  8
_0-0_
  6
CONTINUOUS
 62
    7
 10
198.92808874695783
 20
137.53841122424478
 11
198.54044746765362
 21
137.48248385554962
  0
LINE
  8
_0-0_
  6
CONTINUOUS
 62
    7
 10
198.54044746765362
 20
137.48248385554962
 11
198.19008399187339
 21
137.40657937215474
  0
LINE
  8
_0-0_
  6
CONTINUOUS
 62
    7
 10
198.19008399187339
 20
137.40657937215474
 11
197.88764393653622
 21
137.31300409337848
  0
LINE
  8
_0-0_
  6
CONTINUOUS
 62
    7
 10
197.88764393653622
 20
137.31300409337848
 11
197.64231678968156
 21
137.20460125671525
  0
LINE
  8
_0-0_
  6
CONTINUOUS
 62
    7
 10
197.64231678968156
 20
137.20460125671525
 11
197.46155669252499
 21
137.08466462750249
  0
LINE
  8
_0-0_
  6
CONTINUOUS
 62
    7
 10
197.46155669252499
 20
137.08466462750249
 11
197.3508559491496
 21
136.95683841952803
  0
LINE
  8
_0-0_
  6
CONTINUOUS
 62
    7
 10
197.3508559491496
 20
136.95683841952803
 11
197.31357814562563
 21
136.82500656743787
  0
LINE
  8
_0-0_
  6
CONTINUOUS
 62
    7
 10
197.31357814562506
 20
136.82500656743787
 11
197.23831972463159
 21
136.95684416848815
  0
LINE
  8
_0-0_
  6
CONTINUOUS
 62
    7
 10
197.23831972463159
 20
136.95684416848815
 11
197.0148311506905
 21
137.08467595074364
  0
LINE
  8
_0-0_
  6
CONTINUOUS
 62
    7
 10
197.0148311506905
 20
137.08467595074364
 11
196.64990301103023
 21
137.20461781018639
  0
LINE
  8
_0-0_
  6
CONTINUOUS
 62
    7
 10
196.64990301103023
 20
137.20461781018639
 11
196.15462346251195
 21
137.31302537411079
  0
LINE
  8
_0-0_
  6
CONTINUOUS
 62
    7
 10
196.15462346251195
 20
137.31302537411079
 11
195.54404132359366
 21
137.40660473354387
  0
LINE
  8
_0-0_
  6
CONTINUOUS
 62
    7
 10
195.54404132359366
 20
137.40660473354387
 11
194.83670882359706
 21
137.48251252700265
  0
LINE
  8
_0-0_
  6
CONTINUOUS
 62
    7
 10
194.83670882359706
 20
137.48251252700265
 11
194.054117902607
 21
137.53844233459415
  0
LINE
  8
_0-0_
  6
CONTINUOUS
 62
    7
 10
194.054117902607
 20
137.53844233459415
 11
193.22004718974767
 21
137.57269475741657
  0
LINE
  8
_0-0_
  6
CONTINUOUS
 62
    7
 10
193.22004718974767
 20
137.57269475741657
 11
192.4061008575132
 21
137.58419594599263
  0
TEXT
  8
_0-0_
 62
    7
 10
62.865639261414231
 20
81.975636018485261
 40
4.2999999999999998
 41
0.744186046511628
 50
0
  1
AJ1040-L80
  0
TEXT
  8
_0-0_
 62
    7
 10
172.57285184361263
 20
81.975636018485261
 40
4.2999999999999998
 41
0.744186046511628
 50
0
  1
AJ1040-L100
  0
TEXT
  8
_0-0_
 62
    7
 10
317.71422659290079
 20
81.975636018485261
 40
4.2999999999999998
 41
0.744186046511628
 50
0
  1
AJ1240-L100
  0
CIRCLE
  8
_0-0_
  6
CONTINUOUS
 62
    7
 10
82.448888275315312
 20
230.60258514864043
 40
4.3000001907348633
  0
CIRCLE
  8
_0-0_
  6
CONTINUOUS
 62
    7
 10
192.40610085751348
 20
230.60258514864043
 40
4.3000001907348633
  0
CIRCLE
  8
_0-0_
  6
CONTINUOUS
 62
    7
 10
337.54747560680107
 20
230.60258514864043
 40
5.25
  0
CIRCLE
  8
_0-0_
  6
CONTINUOUS
 62
    7
 10
337.54747560680107
 20
230.60258514864043
 40
6.0000000000000009
  0
CIRCLE
  8
_0-0_
  6
CONTINUOUS
 62
    7
 10
337.54747560680107
 20
230.60258514864043
 40
12
  0
CIRCLE
  8
_0-0_
  6
CONTINUOUS
 62
    7
 10
337.54747560680107
 20
230.60258514864043
 40
20.000000049000001
  0
CIRCLE
  8
_0-0_
  6
CONTINUOUS
 62
    7
 10
192.40610085751348
 20
230.60258514864043
 40
12
  0
CIRCLE
  8
_0-0_
  6
CONTINUOUS
 62
    7
 10
192.40610085751348
 20
230.60258514864043
 40
19.999999982000002
  0
CIRCLE
  8
_0-0_
  6
CONTINUOUS
 62
    7
 10
82.448888275315312
 20
230.60258514864043
 40
12
  0
CIRCLE
  8
_0-0_
  6
CONTINUOUS
 62
    7
 10
82.448888275315312
 20
230.60258514864043
 40
20
  0
LINE
  8
_0-0_
  6
CONTINUOUS
 62
    7
 10
72.633933699091585
 20
110.85875855323695
 11
92.263842851539039
 21
110.85875855323695
  0
LINE
  8
_0-0_
  6
CONTINUOUS
 62
    7
 10
82.928186063279327
 20
105.27627650941679
 11
83.995213775643606
 21
105.31103700649805
  0
LINE
  8
_0-0_
  6
CONTINUOUS
 62
    7
 10
83.995213775643606
 20
105.31103700649805
 11
85.057353226775149
 21
105.3804790120812
  0
LINE
  8
_0-0_
  6
CONTINUOUS
 62
    7
 10
85.057353226775149
 20
105.3804790120812
 11
86.116045205094224
 21
105.48146850757416
  0
LINE
  8
_0-0_
  6
CONTINUOUS
 62
    7
 10
86.116045205094224
 20
105.48146850757416
 11
87.356365563426607
 21
105.63529774667802
  0
LINE
  8
_0-0_
  6
CONTINUOUS
 62
    7
 10
87.356365563426607
 20
105.63529774667802
 11
87.356365563426607
 21
110.85875855323695
  0
LINE
  8
_0-0_
  6
CONTINUOUS
 62
    7
 10
92.263842851539039
 20
110.85875855323695
 11
92.263842851539039
 21
105.63529774667802
  0
LINE
  8
_0-0_
  6
CONTINUOUS
 62
    7
 10
92.263842851539039
 20
105.63529774667802
 11
91.660758708500566
 21
105.4852152360279
  0
LINE
  8
_0-0_
  6
CONTINUOUS
 62
    7
 10
91.660758708500566
 20
105.4852152360279
 11
91.055193708280967
 21
105.37110515451059
  0
LINE
  8
_0-0_
  6
CONTINUOUS
 62
    7
 10
91.055193708280967
 20
105.37110515451059
 11
90.446055363957839
 21
105.2986576182077
  0
LINE
  8
_0-0_
  6
CONTINUOUS
 62
    7
 10
90.446055363957839
 20
105.2986576182077
 11
89.835118378268589
 21
105.27259227028833
  0
LINE
  8
_0-0_
  6
CONTINUOUS
 62
    7
 10
89.835118378268589
 20
105.27259227028833
 11
89.215485278510073
 21
105.29539031753029
  0
LINE
  8
_0-0_
  6
CONTINUOUS
 62
    7
 10
89.215485278510073
 20
105.29539031753029
 11
88.59581305460415
 21
105.36638239466652
  0
LINE
  8
_0-0_
  6
CONTINUOUS
 62
    7
 10
88.59581305460415
 20
105.36638239466652
 11
87.975364884177111
 21
105.48172228977978
  0
LINE
  8
_0-0_
  6
CONTINUOUS
 62
    7
 10
87.975364884177111
 20
105.48172228977978
 11
87.356365563426607
 21
105.63529774667802
  0
LINE
  8
_0-0_
  6
CONTINUOUS
 62
    7
 10
89.44888827531463
 20
104.85875855323695
 11
92.263842851539039
 21
105.63529774667802
  0
LINE
  8
_0-0_
  6
CONTINUOUS
 62
    7
 10
94.44888827531463
 20
104.85875855323695
 11
70.448888275314857
 21
104.85875855323695
  0
LINE
  8
_0-0_
  6
CONTINUOUS
 62
    7
 10
72.633933699091585
 20
105.63529774667802
 11
72.633933699091585
 21
110.85875855323695
  0
LINE
  8
_0-0_
  6
CONTINUOUS
 62
    7
 10
82.928186063279327
 20
105.27627650941679
 11
81.859347844424292
 21
105.27818477540325
  0
LINE
  8
_0-0_
  6
CONTINUOUS
 62
    7
 10
81.859347844424292
 20
105.27818477540325
 11
80.778907644340507
 21
105.3173781132956
  0
LINE
  8
_0-0_
  6
CONTINUOUS
 62
    7
 10
80.778907644340507
 20
105.3173781132956
 11
79.69914738761338
 21
105.39219425971498
  0
LINE
  8
_0-0_
  6
CONTINUOUS
 62
    7
 10
79.69914738761338
 20
105.39219425971498
 11
78.619075804648219
 21
105.49957333548957
  0
LINE
  8
_0-0_
  6
CONTINUOUS
 62
    7
 10
78.619075804648219
 20
105.49957333548957
 11
77.54141098720288
 21
105.63529774667802
  0
LINE
  8
_0-0_
  6
CONTINUOUS
 62
    7
 10
77.54141098720288
 20
105.63529774667802
 11
76.938326844164976
 21
105.4852152360279
  0
LINE
  8
_0-0_
  6
CONTINUOUS
 62
    7
 10
76.938326844164976
 20
105.4852152360279
 11
76.332761843945377
 21
105.37110515451059
  0
LINE
  8
_0-0_
  6
CONTINUOUS
 62
    7
 10
76.332761843945377
 20
105.37110515451059
 11
75.723623499621681
 21
105.2986576182077
  0
LINE
  8
_0-0_
  6
CONTINUOUS
 62
    7
 10
75.723623499621681
 20
105.2986576182077
 11
75.112686513932431
 21
105.27259227028833
  0
LINE
  8
_0-0_
  6
CONTINUOUS
 62
    7
 10
75.112686513932431
 20
105.27259227028833
 11
74.493053414174483
 21
105.29539031753029
  0
LINE
  8
_0-0_
  6
CONTINUOUS
 62
    7
 10
74.493053414174483
 20
105.29539031753029
 11
73.873381190267992
 21
105.36638239466652
  0
LINE
  8
_0-0_
  6
CONTINUOUS
 62
    7
 10
73.873381190267992
 20
105.36638239466652
 11
73.252933019841521
 21
105.48172228977978
  0
LINE
  8
_0-0_
  6
CONTINUOUS
 62
    7
 10
73.252933019841521
 20
105.48172228977978
 11
72.633933699091585
 21
105.63529774667802
  0
LINE
  8
_0-0_
  6
CONTINUOUS
 62
    7
 10
72.633933699091585
 20
105.63529774667802
 11
75.448888275314857
 21
104.85875855323695
  0
LINE
  8
_0-0_
  6
CONTINUOUS
 62
    7
 10
77.54141098720288
 20
105.63529774667802
 11
77.54141098720288
 21
110.85875855323695
  0
LINE
  8
_0-0_
  6
CONTINUOUS
 62
    7
 10
64.698888275314971
 20
90.858758553236953
 11
100.19888827531508
 21
90.858758553236953
  0
LINE
  8
_0-0_
  6
CONTINUOUS
 62
    7
 10
77.54141098720288
 20
129.74338532454721
 11
77.54141098720288
 21
136.02500656743769
  0
LINE
  8
_0-0_
  6
CONTINUOUS
 62
    7
 10
92.263842851539039
 20
136.02500656743769
 11
92.263842851539039
 21
129.74338532454721
  0
LINE
  8
_0-0_
  6
CONTINUOUS
 62
    7
 10
89.810104207539098
 20
128.98419594599244
 11
75.087672343091526
 21
128.98419594599244
  0
LINE
  8
_0-0_
  6
CONTINUOUS
 62
    7
 10
72.633933699091585
 20
129.74338532454721
 11
72.633933699091585
 21
136.02500656743769
  0
LINE
  8
_0-0_
  6
CONTINUOUS
 62
    7
 10
87.356365563426607
 20
136.02500656743769
 11
87.356365563426607
 21
129.74338532454721
  0
LINE
  8
_0-0_
  6
CONTINUOUS
 62
    7
 10
77.541410987203108
 20
129.74338532454721
 11
77.616669408196685
 21
129.61154772349693
  0
LINE
  8
_0-0_
  6
CONTINUOUS
 62
    7
 10
77.616669408196685
 20
129.61154772349693
 11
77.840157982137725
 21
129.48371594124143
  0
LINE
  8
_0-0_
  6
CONTINUOUS
 62
    7
 10
77.840157982137725
 20
129.48371594124143
 11
78.20508612179799
 21
129.36377408179868
  0
LINE
  8
_0-0_
  6
CONTINUOUS
 62
    7
 10
78.20508612179799
 20
129.36377408179868
 11
78.700365670316273
 21
129.25536651787428
  0
LINE
  8
_0-0_
  6
CONTINUOUS
 62
    7
 10
78.700365670316273
 20
129.25536651787428
 11
79.310947809234563
 21
129.1617871584412
  0
LINE
  8
_0-0_
  6
CONTINUOUS
 62
    7
 10
79.310947809234563
 20
129.1617871584412
 11
80.018280309231159
 21
129.08587936498242
  0
LINE
  8
_0-0_
  6
CONTINUOUS
 62
    7
 10
80.018280309231159
 20
129.08587936498242
 11
80.800871230221219
 21
129.02994955739092
  0
LINE
  8
_0-0_
  6
CONTINUOUS
 62
    7
 10
80.800871230221219
 20
129.02994955739092
 11
81.634941943080548
 21
128.9956971345685
  0
LINE
  8
_0-0_
  6
CONTINUOUS
 62
    7
 10
81.634941943080548
 20
128.9956971345685
 11
82.448888275315085
 21
128.98419594599244
  0
LINE
  8
_0-0_
  6
CONTINUOUS
 62
    7
 10
72.633933699091358
 20
129.74338532454721
 11
72.671211502615279
 21
129.61155347245705
  0
LINE
  8
_0-0_
  6
CONTINUOUS
 62
    7
 10
72.671211502615279
 20
129.61155347245705
 11
72.781912245990611
 21
129.48372726448258
  0
LINE
  8
_0-0_
  6
CONTINUOUS
 62
    7
 10
72.781912245990611
 20
129.48372726448258
 11
72.962672343147233
 21
129.36379063526982
  0
LINE
  8
_0-0_
  6
CONTINUOUS
 62
    7
 10
72.962672343147233
 20
129.36379063526982
 11
73.207999490001839
 21
129.25538779860659
  0
LINE
  8
_0-0_
  6
CONTINUOUS
 62
    7
 10
73.207999490001839
 20
129.25538779860659
 11
73.510439545339068
 21
129.16181251983033
  0
LINE
  8
_0-0_
  6
CONTINUOUS
 62
    7
 10
73.510439545339068
 20
129.16181251983033
 11
73.860803021119295
 21
129.08590803643546
  0
LINE
  8
_0-0_
  6
CONTINUOUS
 62
    7
 10
73.860803021119295
 20
129.08590803643546
 11
74.248444300423444
 21
129.02998066774029
  0
LINE
  8
_0-0_
  6
CONTINUOUS
 62
    7
 10
74.248444300423444
 20
129.02998066774029
 11
74.661585099136005
 21
128.99572973854191
  0
LINE
  8
_0-0_
  6
CONTINUOUS
 62
    7
 10
74.661585099136005
 20
128.99572973854191
 11
75.087672343147233
 21
128.98419594599244
  0
LINE
  8
_0-0_
  6
CONTINUOUS
 62
    7
 10
75.087672343147233
 20
128.98419594599244
 11
75.513759587158461
 21
128.99572973854191
  0
LINE
  8
_0-0_
  6
CONTINUOUS
 62
    7
 10
75.513759587158461
 20
128.99572973854191
 11
75.926900385871022
 21
129.02998066774029
  0
LINE
  8
_0-0_
  6
CONTINUOUS
 62
    7
 10
75.926900385871022
 20
129.02998066774029
 11
76.31454166517517
 21
129.08590803643546
  0
LINE
  8
_0-0_
  6
CONTINUOUS
 62
    7
 10
76.31454166517517
 20
129.08590803643546
 11
76.664905140955398
 21
129.16181251983033
  0
LINE
  8
_0-0_
  6
CONTINUOUS
 62
    7
 10
76.664905140955398
 20
129.16181251983033
 11
76.967345196292626
 21
129.25538779860659
  0
LINE
  8
_0-0_
  6
CONTINUOUS
 62
    7
 10
76.967345196292626
 20
129.25538779860659
 11
77.212672343147233
 21
129.36379063526982
  0
LINE
  8
_0-0_
  6
CONTINUOUS
 62
    7
 10
77.212672343147233
 20
129.36379063526982
 11
77.393432440303854
 21
129.48372726448258
  0
LINE
  8
_0-0_
  6
CONTINUOUS
 62
    7
 10
77.393432440303854
 20
129.48372726448258
 11
77.504133183679187
 21
129.61155347245705
  0
LINE
  8
_0-0_
  6
CONTINUOUS
 62
    7
 10
77.504133183679187
 20
129.61155347245705
 11
77.541410987203108
 21
129.74338532454721
  0
LINE
  8
_0-0_
  6
CONTINUOUS
 62
    7
 10
82.448888275315085
 20
128.98419594599244
 11
83.308355639006948
 21
128.99696092706989
  0
LINE
  8
_0-0_
  6
CONTINUOUS
 62
    7
 10
83.308355639006948
 20
128.99696092706989
 11
84.140302893873582
 21
129.03240563575577
  0
LINE
  8
_0-0_
  6
CONTINUOUS
 62
    7
 10
84.140302893873582
 20
129.03240563575577
 11
84.919451743561353
 21
129.08945310251244
  0
LINE
  8
_0-0_
  6
CONTINUOUS
 62
    7
 10
84.919451743561353
 20
129.08945310251244
 11
85.622128144540966
 21
129.16636996892993
  0
LINE
  8
_0-0_
  6
CONTINUOUS
 62
    7
 10
85.622128144540966
 20
129.16636996892993
 11
86.226981629940042
 21
129.26081915494404
  0
LINE
  8
_0-0_
  6
CONTINUOUS
 62
    7
 10
86.226981629940042
 20
129.26081915494404
 11
86.715634032675325
 21
129.36993086983131
  0
LINE
  8
_0-0_
  6
CONTINUOUS
 62
    7
 10
86.715634032675325
 20
129.36993086983131
 11
87.073237896759736
 21
129.49038980934802
  0
LINE
  8
_0-0_
  6
CONTINUOUS
 62
    7
 10
87.073237896759736
 20
129.49038980934802
 11
87.288927609739403
 21
129.61853588957212
  0
LINE
  8
_0-0_
  6
CONTINUOUS
 62
    7
 10
87.288927609739403
 20
129.61853588957212
 11
87.356365563426891
 21
129.74338532454721
  0
LINE
  8
_0-0_
  6
CONTINUOUS
 62
    7
 10
87.356365563426891
 20
129.74338532454721
 11
87.393643366950869
 21
129.61155347245705
  0
LINE
  8
_0-0_
  6
CONTINUOUS
 62
    7
 10
87.393643366950869
 20
129.61155347245705
 11
87.504344110326258
 21
129.48372726448258
  0
LINE
  8
_0-0_
  6
CONTINUOUS
 62
    7
 10
87.504344110326258
 20
129.48372726448258
 11
87.685104207482823
 21
129.36379063526982
  0
LINE
  8
_0-0_
  6
CONTINUOUS
 62
    7
 10
87.685104207482823
 20
129.36379063526982
 11
87.930431354337486
 21
129.25538779860659
  0
LINE
  8
_0-0_
  6
CONTINUOUS
 62
    7
 10
87.930431354337486
 20
129.25538779860659
 11
88.232871409674601
 21
129.16181251983033
  0
LINE
  8
_0-0_
  6
CONTINUOUS
 62
    7
 10
88.232871409674601
 20
129.16181251983033
 11
88.583234885454885
 21
129.08590803643546
  0
LINE
  8
_0-0_
  6
CONTINUOUS
 62
    7
 10
88.583234885454885
 20
129.08590803643546
 11
88.97087616475909
 21
129.02998066774029
  0
LINE
  8
_0-0_
  6
CONTINUOUS
 62
    7
 10
88.97087616475909
 20
129.02998066774029
 11
89.384016963471595
 21
128.99572973854191
  0
LINE
  8
_0-0_
  6
CONTINUOUS
 62
    7
 10
89.384016963471595
 20
128.99572973854191
 11
89.810104207482823
 21
128.98419594599244
  0
LINE
  8
_0-0_
  6
CONTINUOUS
 62
    7
 10
89.810104207482823
 20
128.98419594599244
 11
90.236191451494051
 21
128.99572973854191
  0
LINE
  8
_0-0_
  6
CONTINUOUS
 62
    7
 10
90.236191451494051
 20
128.99572973854191
 11
90.649332250206555
 21
129.02998066774029
  0
LINE
  8
_0-0_
  6
CONTINUOUS
 62
    7
 10
90.649332250206555
 20
129.02998066774029
 11
91.03697352951076
 21
129.08590803643546
  0
LINE
  8
_0-0_
  6
CONTINUOUS
 62
    7
 10
91.03697352951076
 20
129.08590803643546
 11
91.387337005291045
 21
129.16181251983033
  0
LINE
  8
_0-0_
  6
CONTINUOUS
 62
    7
 10
91.387337005291045
 20
129.16181251983033
 11
91.68977706062816
 21
129.25538779860659
  0
LINE
  8
_0-0_
  6
CONTINUOUS
 62
    7
 10
91.68977706062816
 20
129.25538779860659
 11
91.935104207482823
 21
129.36379063526982
  0
LINE
  8
_0-0_
  6
CONTINUOUS
 62
    7
 10
91.935104207482823
 20
129.36379063526982
 11
92.115864304639388
 21
129.48372726448258
  0
LINE
  8
_0-0_
  6
CONTINUOUS
 62
    7
 10
92.115864304639388
 20
129.48372726448258
 11
92.226565048014777
 21
129.61155347245705
  0
LINE
  8
_0-0_
  6
CONTINUOUS
 62
    7
 10
92.226565048014777
 20
129.61155347245705
 11
92.263842851538755
 21
129.74338532454721
  0
LINE
  8
_0-0_
  6
CONTINUOUS
 62
    7
 10
87.448888275315312
 20
110.85875855323695
 11
87.448888275315312
 21
128.98419594599244
  0
LINE
  8
_0-0_
  6
CONTINUOUS
 62
    7
 10
77.448888275315312
 20
110.85875855323695
 11
77.448888275315312
 21
128.98419594599244
  0
LINE
  8
_0-0_
  6
CONTINUOUS
 62
    7
 10
172.40610085751348
 20
93.858758553237067
 11
172.40610085751348
 21
101.35875855323673
  0
LINE
  8
_0-0_
  6
CONTINUOUS
 62
    7
 10
172.40610085751348
 20
93.858758553237067
 11
212.40610085751348
 21
93.858758553237067
  0
LINE
  8
_0-0_
  6
CONTINUOUS
 62
    7
 10
212.40610085751348
 20
101.35875855323673
 11
212.40610085751348
 21
93.858758553237067
  0
LINE
  8
_0-0_
  6
CONTINUOUS
 62
    7
 10
210.40610085751359
 20
93.858758553237067
 11
210.40610085751359
 21
90.858758553236953
  0
LINE
  8
_0-0_
  6
CONTINUOUS
 62
    7
 10
174.40610085751337
 20
93.858758553237067
 11
174.40610085751337
 21
90.858758553236953
  0
LINE
  8
_0-0_
  6
CONTINUOUS
 62
    7
 10
210.40610085751359
 20
90.858758553236953
 11
174.40610085751337
 21
90.858758553236953
  0
LINE
  8
_0-0_
  6
CONTINUOUS
 62
    7
 10
332.06264808833771
 20
127.27786230841144
 11
332.06264808833771
 21
132.20349974432463
  0
LINE
  8
_0-0_
  6
CONTINUOUS
 62
    7
 10
348.5171306437278
 20
132.20349974432463
 11
348.5171306437278
 21
127.27786230841144
  0
LINE
  8
_0-0_
  6
CONTINUOUS
 62
    7
 10
345.7747171229139
 20
126.1406810263681
 11
329.32023409068825
 21
126.1406810263681
  0
LINE
  8
_0-0_
  6
CONTINUOUS
 62
    7
 10
326.57782056987435
 20
127.27786230841144
 11
326.57782056987435
 21
132.20349974432463
  0
LINE
  8
_0-0_
  6
CONTINUOUS
 62
    7
 10
343.03230312526443
 20
132.20349974432463
 11
343.03230312526443
 21
127.27786230841144
  0
ARC
  8
_0-0_
  6
CONTINUOUS
 62
    7
 10
337.54747560680107
 20
139.93642520704742
 40
13.795743942260742
 50
246.57341003417969
 51
293.42660522460937
  0
LINE
  8
_0-0_
  6
CONTINUOUS
 62
    7
 10
343.03243486248584
 20
127.27786191245872
 11
343.69985875686331
 21
126.75960663032998
  0
LINE
  8
_0-0_
  6
CONTINUOUS
 62
    7
 10
343.69985875686331
 20
126.75960663032998
 11
344.43032617276424
 21
126.391744415701
  0
LINE
  8
_0-0_
  6
CONTINUOUS
 62
    7
 10
344.43032617276424
 20
126.391744415701
 11
345.20164222739083
 21
126.18545257581599
  0
LINE
  8
_0-0_
  6
CONTINUOUS
 62
    7
 10
345.20164222739083
 20
126.18545257581599
 11
345.99037087272796
 21
126.1469991838411
  0
LINE
  8
_0-0_
  6
CONTINUOUS
 62
    7
 10
345.99037087272796
 20
126.1469991838411
 11
346.77254698800311
 21
126.27755262663317
  0
LINE
  8
_0-0_
  6
CONTINUOUS
 62
    7
 10
346.77254698800311
 20
126.27755262663317
 11
347.52440454775376
 21
126.57314610389614
  0
LINE
  8
_0-0_
  6
CONTINUOUS
 62
    7
 10
347.52440454775376
 20
126.57314610389614
 11
348.22309874048523
 21
127.02479815740099
  0
LINE
  8
_0-0_
  6
CONTINUOUS
 62
    7
 10
348.22309874048523
 20
127.02479815740099
 11
348.51700034304457
 21
127.27786281053307
  0
LINE
  8
_0-0_
  6
CONTINUOUS
 62
    7
 10
326.57795183026019
 20
127.27786191245872
 11
327.24537572463765
 21
126.75960663032998
  0
LINE
  8
_0-0_
  6
CONTINUOUS
 62
    7
 10
327.24537572463765
 20
126.75960663032998
 11
327.97584314053859
 21
126.391744415701
  0
LINE
  8
_0-0_
  6
CONTINUOUS
 62
    7
 10
327.97584314053859
 20
126.391744415701
 11
328.74715919516518
 21
126.18545257581599
  0
LINE
  8
_0-0_
  6
CONTINUOUS
 62
    7
 10
328.74715919516518
 20
126.18545257581599
 11
329.53588784050231
 21
126.1469991838411
  0
LINE
  8
_0-0_
  6
CONTINUOUS
 62
    7
 10
329.53588784050231
 20
126.1469991838411
 11
330.31806395577746
 21
126.27755262663317
  0
LINE
  8
_0-0_
  6
CONTINUOUS
 62
    7
 10
330.31806395577746
 20
126.27755262663317
 11
331.06992151552811
 21
126.57314610389614
  0
LINE
  8
_0-0_
  6
CONTINUOUS
 62
    7
 10
331.06992151552811
 20
126.57314610389614
 11
331.76861570825957
 21
127.02479815740099
  0
LINE
  8
_0-0_
  6
CONTINUOUS
 62
    7
 10
331.76861570825957
 20
127.02479815740099
 11
332.06251731081892
 21
127.27786281053307
  0
LINE
  8
_0-0_
  6
CONTINUOUS
 62
    7
 10
70.448888275314857
 20
104.85875855323695
 11
70.448888275314857
 21
104.45875855323709
  0
LINE
  8
_0-0_
  6
CONTINUOUS
 62
    7
 10
94.44888827531463
 20
104.85875855323695
 11
94.44888827531463
 21
104.45875855323709
  0
LINE
  8
_0-0_
  6
CONTINUOUS
 62
    7
 10
99.44888827531463
 20
104.45875855323709
 11
65.448888275547915
 21
104.45875855323709
  0
ARC
  8
_0-0_
  6
CONTINUOUS
 62
    7
 10
65.448888275314857
 20
101.45875855323698
 40
2.9999999999999867
 50
89.99999999999973
 51
180.0000000000002
  0
ARC
  8
_0-0_
  6
CONTINUOUS
 62
    7
 10
99.448888275315198
 20
101.45875855323698
 40
2.999999999999944
 50
359.99999999999892
 51
90.000000000001094
  0
LINE
  8
_0-0_
  6
CONTINUOUS
 62
    7
 10
62.448888275315312
 20
96.458758553237089
 11
102.44888827531531
 21
96.458758553237089
  0
LINE
  8
_0-0_
  6
CONTINUOUS
 62
    7
 10
62.448888275315312
 20
101.45875855323698
 11
62.448888275315312
 21
93.958758553237089
  0
LINE
  8
_0-0_
  6
CONTINUOUS
 62
    7
 10
64.698888275314971
 20
93.958758553237089
 11
64.698888275314971
 21
90.858758553236953
  0
LINE
  8
_0-0_
  6
CONTINUOUS
 62
    7
 10
102.44888827531531
 20
93.958758553237089
 11
62.448888275315312
 21
93.958758553237089
  0
LINE
  8
_0-0_
  6
CONTINUOUS
 62
    7
 10
102.44888827531531
 20
93.958758553237089
 11
102.44888827531531
 21
101.45875855323698
  0
LINE
  8
_0-0_
  6
CONTINUOUS
 62
    7
 10
100.19888827531508
 20
90.858758553236953
 11
100.19888827531508
 21
93.958758553237089
  0
LINE
  8
_0-0_
  6
CONTINUOUS
 62
    7
 10
357.54747560680107
 20
96.258758553237158
 11
317.54747560680107
 21
96.258758553237158
  0
LINE
  8
_0-0_
  6
CONTINUOUS
 62
    7
 10
355.54747560680175
 20
93.758758553237158
 11
355.54747560680175
 21
90.858758553236953
  0
LINE
  8
_0-0_
  6
CONTINUOUS
 62
    7
 10
319.54747560680153
 20
90.858758553236953
 11
319.54747560680153
 21
93.758758553237158
  0
LINE
  8
_0-0_
  6
CONTINUOUS
 62
    7
 10
320.54747560705187
 20
104.25875855323693
 11
354.54747560680153
 21
104.25875855323693
  0
LINE
  8
_0-0_
  6
CONTINUOUS
 62
    7
 10
349.54747560680153
 20
104.25875855323693
 11
349.54747560680153
 21
104.65875855323691
  0
LINE
  8
_0-0_
  6
CONTINUOUS
 62
    7
 10
349.54747560680153
 20
104.65875855323691
 11
325.54747560680175
 21
104.65875855323691
  0
LINE
  8
_0-0_
  6
CONTINUOUS
 62
    7
 10
325.54747560680175
 20
104.65875855323691
 11
325.54747560680175
 21
104.25875855323693
  0
LINE
  8
_0-0_
  6
CONTINUOUS
 62
    7
 10
326.57782049219895
 20
105.42512116345688
 11
327.268862766442
 21
105.26471144663458
  0
LINE
  8
_0-0_
  6
CONTINUOUS
 62
    7
 10
327.268862766442
 20
105.26471144663458
 11
327.96132139078372
 21
105.14420945571817
  0
LINE
  8
_0-0_
  6
CONTINUOUS
 62
    7
 10
327.96132139078372
 20
105.14420945571817
 11
328.65302786274219
 21
105.06992269504633
  0
LINE
  8
_0-0_
  6
CONTINUOUS
 62
    7
 10
328.65302786274219
 20
105.06992269504633
 11
329.34470093624986
 21
105.0458878497393
  0
LINE
  8
_0-0_
  6
CONTINUOUS
 62
    7
 10
329.34470093624986
 20
105.0458878497393
 11
330.02787327855208
 21
105.07291162319416
  0
LINE
  8
_0-0_
  6
CONTINUOUS
 62
    7
 10
330.02787327855208
 20
105.07291162319416
 11
330.70928563700113
 21
105.14853177265093
  0
LINE
  8
_0-0_
  6
CONTINUOUS
 62
    7
 10
330.70928563700113
 20
105.14853177265093
 11
331.38718725358763
 21
105.26791010782301
  0
LINE
  8
_0-0_
  6
CONTINUOUS
 62
    7
 10
331.38718725358763
 20
105.26791010782301
 11
332.06264804950001
 21
105.42512116345688
  0
LINE
  8
_0-0_
  6
CONTINUOUS
 62
    7
 10
332.06264804950001
 20
105.42512116345688
 11
334.47333202018149
 21
105.17101834668335
  0
LINE
  8
_0-0_
  6
CONTINUOUS
 62
    7
 10
334.47333202018149
 20
105.17101834668335
 11
336.8864319762597
 21
105.05178335472795
  0
LINE
  8
_0-0_
  6
CONTINUOUS
 62
    7
 10
336.8864319762597
 20
105.05178335472795
 11
339.27571425151518
 21
105.08609298420185
  0
LINE
  8
_0-0_
  6
CONTINUOUS
 62
    7
 10
339.27571425151518
 20
105.08609298420185
 11
341.65023126020264
 21
105.26471274037942
  0
LINE
  8
_0-0_
  6
CONTINUOUS
 62
    7
 10
341.65023126020264
 20
105.26471274037942
 11
343.03230316410327
 21
105.42512116345688
  0
LINE
  8
_0-0_
  6
CONTINUOUS
 62
    7
 10
343.03230316410327
 20
105.42512116345688
 11
343.72334543834745
 21
105.26471144663458
  0
LINE
  8
_0-0_
  6
CONTINUOUS
 62
    7
 10
343.72334543834745
 20
105.26471144663458
 11
344.41580406268804
 21
105.14420945571817
  0
LINE
  8
_0-0_
  6
CONTINUOUS
 62
    7
 10
344.41580406268804
 20
105.14420945571817
 11
345.10751053464651
 21
105.06992269504633
  0
LINE
  8
_0-0_
  6
CONTINUOUS
 62
    7
 10
345.10751053464651
 20
105.06992269504633
 11
345.79918360815418
 21
105.0458878497393
  0
LINE
  8
_0-0_
  6
CONTINUOUS
 62
    7
 10
345.79918360815418
 20
105.0458878497393
 11
346.48235595045639
 21
105.07291162319416
  0
LINE
  8
_0-0_
  6
CONTINUOUS
 62
    7
 10
346.48235595045639
 20
105.07291162319416
 11
347.16376830890545
 21
105.14853177265093
  0
LINE
  8
_0-0_
  6
CONTINUOUS
 62
    7
 10
347.16376830890545
 20
105.14853177265093
 11
347.84166992549194
 21
105.26791010782301
  0
LINE
  8
_0-0_
  6
CONTINUOUS
 62
    7
 10
347.84166992549194
 20
105.26791010782301
 11
348.51713072140433
 21
105.42512116345688
  0
LINE
  8
_0-0_
  6
CONTINUOUS
 62
    7
 10
348.51713072140433
 20
105.42512116345688
 11
345.54747560680175
 21
104.65875855323691
  0
LINE
  8
_0-0_
  6
CONTINUOUS
 62
    7
 10
343.03230316410327
 20
105.42512116345688
 11
343.03230316410327
 21
110.85875855323695
  0
LINE
  8
_0-0_
  6
CONTINUOUS
 62
    7
 10
348.51713072140433
 20
110.85875855323695
 11
326.57782049219895
 21
110.85875855323695
  0
LINE
  8
_0-0_
  6
CONTINUOUS
 62
    7
 10
326.57782049219895
 20
110.85875855323695
 11
326.57782049219895
 21
105.42512116345688
  0
LINE
  8
_0-0_
  6
CONTINUOUS
 62
    7
 10
326.57782049219895
 20
105.42512116345688
 11
329.54747560680153
 21
104.65875855323691
  0
LINE
  8
_0-0_
  6
CONTINUOUS
 62
    7
 10
332.06264804950001
 20
105.42512116345688
 11
332.06264804950001
 21
110.85875855323695
  0
LINE
  8
_0-0_
  6
CONTINUOUS
 62
    7
 10
348.51713072140433
 20
110.85875855323695
 11
348.51713072140433
 21
105.42512116345688
  0
ARC
  8
_0-0_
  6
CONTINUOUS
 62
    7
 10
320.54747560680175
 20
101.25875855323682
 40
2.9999999999999867
 50
89.99999999999946
 51
180.0000000000002
  0
ARC
  8
_0-0_
  6
CONTINUOUS
 62
    7
 10
354.54747560680153
 20
101.25875855323682
 40
2.9999999999999725
 50
359.99999999999977
 51
90.00000000000054
  0
LINE
  8
_0-0_
  6
CONTINUOUS
 62
    7
 10
343.5474756068013
 20
126.1406810263681
 11
343.5474756068013
 21
110.85875855323695
  0
LINE
  8
_0-0_
  6
CONTINUOUS
 62
    7
 10
331.54747560680084
 20
126.1406810263681
 11
331.54747560680084
 21
110.85875855323695
  0
LINE
  8
_0-0_
  6
CONTINUOUS
 62
    7
 10
317.54747560680107
 20
93.758758553237158
 11
317.54747560680107
 21
101.25875855323682
  0
LINE
  8
_0-0_
  6
CONTINUOUS
 62
    7
 10
317.54747560680107
 20
93.758758553237158
 11
357.54747560680107
 21
93.758758553237158
  0
LINE
  8
_0-0_
  6
CONTINUOUS
 62
    7
 10
357.54747560680107
 20
101.25875855323682
 11
357.54747560680107
 21
93.758758553237158
  0
CIRCLE
  8
_0-0_
  6
CONTINUOUS
 62
    7
 10
659.35891467063334
 20
39.126481707302332
 40
7.0999999046325692
  0
CIRCLE
  8
_0-0_
  6
CONTINUOUS
 62
  152
 10
659.35891467063334
 20
39.126481707302332
 40
8
  0
LINE
  8
_0-0_
  6
CONTINUOUS
 62
    7
 10
653.29673684414229
 20
49.626481707302332
 11
665.42109249712439
 21
49.626481707302332
  0
LINE
  8
_0-0_
  6
CONTINUOUS
 62
    7
 10
653.2967368441424
 20
28.626481707302332
 11
665.42109249712428
 21
28.626481707302332
  0
LINE
  8
_0-0_
  6
CONTINUOUS
 62
    7
 10
653.29673684414229
 20
49.626481707302332
 11
647.23455901765124
 21
39.126481707302332
  0
LINE
  8
_0-0_
  6
CONTINUOUS
 62
    7
 10
653.2967368441424
 20
28.626481707302332
 11
647.23455901765124
 21
39.126481707302332
  0
LINE
  8
_0-0_
  6
CONTINUOUS
 62
    7
 10
665.42109249712439
 20
49.626481707302332
 11
671.48327032361544
 21
39.126481707302332
  0
LINE
  8
_0-0_
  6
CONTINUOUS
 62
    7
 10
665.42109249712428
 20
28.626481707302332
 11
671.48327032361544
 21
39.126481707302332
  0
CIRCLE
  8
_0-0_
  6
CONTINUOUS
 62
  152
 10
659.35891467063334
 20
39.126481707302332
 40
10.5
  0
TEXT
  8
_0-0_
 62
    7
 10
634.22566565673276
 20
81.975636018485261
 40
4.2999999999999998
 41
0.744186046511628
 50
0
  1
AJ1650-L150
  0
LINE
  8
_0-1_
  6
CENTER1
 62
  152
 10
659.35891467063334
 20
254.41549427572866
 11
659.35891467063334
 21
313.18622864323441
  0
LINE
  8
_0-1_
  6
CENTER1
 62
  152
 10
643.38624803149605
 20
281.46503139489505
 11
676.95610674421096
 21
281.46503139489505
  0
CIRCLE
  8
_0-1_
  6
CONTINUOUS
 62
  152
 10
659.35891467063334
 20
281.46503139489505
 40
8
  0
CIRCLE
  8
_0-1_
  6
CONTINUOUS
 62
  152
 10
659.35891467063334
 20
281.46503139489505
 40
11.5
  0
LINE
  8
_0-0_
  6
CONTINUOUS
 62
    7
 10
652.71938657495275
 20
292.96503139489516
 11
665.99844276631393
 21
292.96503139489516
  0
LINE
  8
_0-0_
  6
CONTINUOUS
 62
    7
 10
665.99844276631393
 20
292.96503139489516
 11
672.63797086199452
 21
281.46503139489505
  0
LINE
  8
_0-0_
  6
CONTINUOUS
 62
    7
 10
672.63797086199452
 20
281.46503139489505
 11
665.99844276631393
 21
269.96503139489499
  0
LINE
  8
_0-0_
  6
CONTINUOUS
 62
    7
 10
665.99844276631393
 20
269.96503139489499
 11
652.71938657495275
 21
269.96503139489499
  0
LINE
  8
_0-0_
  6
CONTINUOUS
 62
    7
 10
652.71938657495275
 20
269.96503139489499
 11
646.07985847927216
 21
281.46503139489505
  0
LINE
  8
_0-0_
  6
CONTINUOUS
 62
    7
 10
646.07985847927216
 20
281.46503139489505
 11
652.71938657495275
 21
292.96503139489516
  0
CIRCLE
  8
_0-0_
  6
CONTINUOUS
 62
    7
 10
659.35891467063334
 20
281.46503139489505
 40
25
  0
CIRCLE
  8
_0-0_
  6
CONTINUOUS
 62
    7
 10
659.35891467063334
 20
281.46503139489505
 40
7.0999999046325692
  0
CIRCLE
  8
_0-0_
  6
CONTINUOUS
 62
    7
 10
659.35891467063334
 20
281.46503139489505
 40
18
  0
LINE
  8
_0-0_
  6
CONTINUOUS
 62
    7
 10
474.11801856220882
 20
117.85875855323695
 11
499.52143040655164
 21
117.85875855323695
  0
LINE
  8
_0-0_
  6
CONTINUOUS
 62
    7
 10
480.46887152329452
 20
117.85875855323695
 11
480.46887152329452
 21
110.05875855323706
  0
LINE
  8
_0-0_
  6
CONTINUOUS
 62
    7
 10
474.11801856220882
 20
110.05875855323706
 11
474.11801856220882
 21
117.85875855323695
  0
LINE
  8
_0-0_
  6
CONTINUOUS
 62
    7
 10
499.52143040655164
 20
117.85875855323695
 11
499.52143040655164
 21
110.05875855323706
  0
LINE
  8
_0-0_
  6
CONTINUOUS
 62
    7
 10
493.17057744329452
 20
110.05875855323706
 11
493.17057744329452
 21
117.85875855323695
  0
LINE
  8
_0-0_
  6
CONTINUOUS
 62
    7
 10
504.81972448438034
 20
108.05875855323717
 11
504.81972448438034
 21
107.65875855323696
  0
LINE
  8
_0-0_
  6
CONTINUOUS
 62
    7
 10
474.11801856220939
 20
110.05875855323706
 11
474.16626042559335
 21
109.71146219790324
  0
LINE
  8
_0-0_
  6
CONTINUOUS
 62
    7
 10
474.16626042559335
 20
109.71146219790324
 11
474.30952021113796
 21
109.37471826658577
  0
LINE
  8
_0-0_
  6
CONTINUOUS
 62
    7
 10
474.30952021113796
 20
109.37471826658577
 11
474.5434450427523
 21
109.05875855323711
  0
LINE
  8
_0-0_
  6
CONTINUOUS
 62
    7
 10
474.5434450427523
 20
109.05875855323711
 11
474.86092723279944
 21
108.77318333386404
  0
LINE
  8
_0-0_
  6
CONTINUOUS
 62
    7
 10
474.86092723279944
 20
108.77318333386404
 11
475.25232024558863
 21
108.52666966699917
  0
LINE
  8
_0-0_
  6
CONTINUOUS
 62
    7
 10
475.25232024558863
 20
108.52666966699917
 11
475.70573180248061
 21
108.32670774566827
  0
LINE
  8
_0-0_
  6
CONTINUOUS
 62
    7
 10
475.70573180248061
 20
108.32670774566827
 11
476.20738522275667
 21
108.17937331166536
  0
LINE
  8
_0-0_
  6
CONTINUOUS
 62
    7
 10
476.20738522275667
 20
108.17937331166536
 11
476.74203802109048
 21
108.08914304721276
  0
LINE
  8
_0-0_
  6
CONTINUOUS
 62
    7
 10
476.74203802109048
 20
108.08914304721276
 11
477.29344504275196
 21
108.05875855323717
  0
LINE
  8
_0-0_
  6
CONTINUOUS
 62
    7
 10
477.29344504275196
 20
108.05875855323717
 11
477.84485206441343
 21
108.08914304721276
  0
LINE
  8
_0-0_
  6
CONTINUOUS
 62
    7
 10
477.84485206441343
 20
108.08914304721276
 11
478.37950486274724
 21
108.17937331166536
  0
LINE
  8
_0-0_
  6
CONTINUOUS
 62
    7
 10
478.37950486274724
 20
108.17937331166536
 11
478.88115828302318
 21
108.32670774566827
  0
LINE
  8
_0-0_
  6
CONTINUOUS
 62
    7
 10
478.88115828302318
 20
108.32670774566827
 11
479.33456983991528
 21
108.52666966699917
  0
LINE
  8
_0-0_
  6
CONTINUOUS
 62
    7
 10
479.33456983991528
 20
108.52666966699917
 11
479.72596285270447
 21
108.77318333386404
  0
LINE
  8
_0-0_
  6
CONTINUOUS
 62
    7
 10
479.72596285270447
 20
108.77318333386404
 11
480.04344504275161
 21
109.05875855323711
  0
LINE
  8
_0-0_
  6
CONTINUOUS
 62
    7
 10
480.04344504275161
 20
109.05875855323711
 11
480.27736987436595
 21
109.37471826658577
  0
LINE
  8
_0-0_
  6
CONTINUOUS
 62
    7
 10
480.27736987436595
 20
109.37471826658577
 11
480.42062965991056
 21
109.71146219790324
  0
LINE
  8
_0-0_
  6
CONTINUOUS
 62
    7
 10
480.42062965991056
 20
109.71146219790324
 11
480.46887152329452
 21
110.05875855323706
  0
LINE
  8
_0-0_
  6
CONTINUOUS
 62
    7
 10
480.46887152329452
 20
110.05875855323706
 11
480.46887152329452
 21
110.05875869686588
  0
LINE
  8
_0-0_
  6
CONTINUOUS
 62
    7
 10
480.46887152329452
 20
110.05875869686588
 11
480.56535517084808
 21
109.71146233935002
  0
LINE
  8
_0-0_
  6
CONTINUOUS
 62
    7
 10
480.56535517084808
 20
109.71146233935002
 11
480.85187466509672
 21
109.37471840155268
  0
LINE
  8
_0-0_
  6
CONTINUOUS
 62
    7
 10
480.85187466509672
 20
109.37471840155268
 11
481.31972425619358
 21
109.0587586776233
  0
LINE
  8
_0-0_
  6
CONTINUOUS
 62
    7
 10
481.31972425619358
 20
109.0587586776233
 11
481.95468857105652
 21
108.7731834438901
  0
LINE
  8
_0-0_
  6
CONTINUOUS
 62
    7
 10
481.95468857105652
 20
108.7731834438901
 11
482.7374745402858
 21
108.52666975932203
  0
LINE
  8
_0-0_
  6
CONTINUOUS
 62
    7
 10
482.7374745402858
 20
108.52666975932203
 11
483.64429760831524
 21
108.32670781748271
  0
LINE
  8
_0-0_
  6
CONTINUOUS
 62
    7
 10
483.64429760831524
 20
108.32670781748271
 11
484.64760441509748
 21
108.17937336078927
  0
LINE
  8
_0-0_
  6
CONTINUOUS
 62
    7
 10
484.64760441509748
 20
108.17937336078927
 11
485.71690999100599
 21
108.08914307215366
  0
LINE
  8
_0-0_
  6
CONTINUOUS
 62
    7
 10
485.71690999100599
 20
108.08914307215366
 11
486.81972402721169
 21
108.05875855323717
  0
LINE
  8
_0-0_
  6
CONTINUOUS
 62
    7
 10
486.81972402721169
 20
108.05875855323717
 11
487.92253807727525
 21
108.08914302227186
  0
LINE
  8
_0-0_
  6
CONTINUOUS
 62
    7
 10
487.92253807727525
 20
108.08914302227186
 11
488.99184369433635
 21
108.17937326254139
  0
LINE
  8
_0-0_
  6
CONTINUOUS
 62
    7
 10
488.99184369433635
 20
108.17937326254139
 11
489.99515056831524
 21
108.32670767385389
  0
LINE
  8
_0-0_
  6
CONTINUOUS
 62
    7
 10
489.99515056831524
 20
108.32670767385389
 11
490.90197372754392
 21
108.52666957467636
  0
LINE
  8
_0-0_
  6
CONTINUOUS
 62
    7
 10
490.90197372754392
 20
108.52666957467636
 11
491.68475980920391
 21
108.77318322383798
  0
LINE
  8
_0-0_
  6
CONTINUOUS
 62
    7
 10
491.68475980920391
 20
108.77318322383798
 11
492.31972425431275
 21
109.05875842885092
  0
LINE
  8
_0-0_
  6
CONTINUOUS
 62
    7
 10
492.31972425431275
 20
109.05875842885092
 11
492.78757398951336
 21
109.37471813161881
  0
LINE
  8
_0-0_
  6
CONTINUOUS
 62
    7
 10
492.78757398951336
 20
109.37471813161881
 11
493.07409363734507
 21
109.71146205645641
  0
LINE
  8
_0-0_
  6
CONTINUOUS
 62
    7
 10
493.07409363734507
 20
109.71146205645641
 11
493.17057744329452
 21
110.05875840960823
  0
LINE
  8
_0-0_
  6
CONTINUOUS
 62
    7
 10
493.17057744329452
 20
110.05875840960823
 11
493.17057744329452
 21
110.05875855323706
  0
LINE
  8
_0-0_
  6
CONTINUOUS
 62
    7
 10
493.17057744546594
 20
110.05875869686588
 11
493.21881926925096
 21
109.71146233935002
  0
LINE
  8
_0-0_
  6
CONTINUOUS
 62
    7
 10
493.21881926925096
 20
109.71146233935002
 11
493.36207901639978
 21
109.37471840155268
  0
LINE
  8
_0-0_
  6
CONTINUOUS
 62
    7
 10
493.36207901639978
 20
109.37471840155268
 11
493.59600381198811
 21
109.0587586776233
  0
LINE
  8
_0-0_
  6
CONTINUOUS
 62
    7
 10
493.59600381198811
 20
109.0587586776233
 11
493.91348596947387
 21
108.7731834438901
  0
LINE
  8
_0-0_
  6
CONTINUOUS
 62
    7
 10
493.91348596947387
 20
108.7731834438901
 11
494.30487895415536
 21
108.52666975932203
  0
LINE
  8
_0-0_
  6
CONTINUOUS
 62
    7
 10
494.30487895415536
 20
108.52666975932203
 11
494.75829048824755
 21
108.32670781748271
  0
LINE
  8
_0-0_
  6
CONTINUOUS
 62
    7
 10
494.75829048824755
 20
108.32670781748271
 11
495.25994389172445
 21
108.17937336078927
  0
LINE
  8
_0-0_
  6
CONTINUOUS
 62
    7
 10
495.25994389172445
 20
108.17937336078927
 11
495.79459667977005
 21
108.08914307215366
  0
LINE
  8
_0-0_
  6
CONTINUOUS
 62
    7
 10
495.79459667977005
 20
108.08914307215366
 11
496.34600369796715
 21
108.05875855323717
  0
LINE
  8
_0-0_
  6
CONTINUOUS
 62
    7
 10
496.34600369796715
 20
108.05875855323717
 11
496.89741072309312
 21
108.08914302227186
  0
LINE
  8
_0-0_
  6
CONTINUOUS
 62
    7
 10
496.89741072309312
 20
108.08914302227186
 11
497.43206353171502
 21
108.17937326254139
  0
LINE
  8
_0-0_
  6
CONTINUOUS
 62
    7
 10
497.43206353171502
 20
108.17937326254139
 11
497.93371696879012
 21
108.32670767385389
  0
LINE
  8
_0-0_
  6
CONTINUOUS
 62
    7
 10
497.93371696879012
 20
108.32670767385389
 11
498.387128548482
 21
108.52666957467636
  0
LINE
  8
_0-0_
  6
CONTINUOUS
 62
    7
 10
498.387128548482
 20
108.52666957467636
 11
498.77852158937878
 21
108.77318322383798
  0
LINE
  8
_0-0_
  6
CONTINUOUS
 62
    7
 10
498.77852158937878
 20
108.77318322383798
 11
499.09600381198743
 21
109.05875842885092
  0
LINE
  8
_0-0_
  6
CONTINUOUS
 62
    7
 10
499.09600381198743
 20
109.05875842885092
 11
499.32992867962776
 21
109.37471813161881
  0
LINE
  8
_0-0_
  6
CONTINUOUS
 62
    7
 10
499.32992867962776
 20
109.37471813161881
 11
499.47318850356817
 21
109.71146205645641
  0
LINE
  8
_0-0_
  6
CONTINUOUS
 62
    7
 10
499.47318850356817
 20
109.71146205645641
 11
499.52143040655108
 21
110.05875840960823
  0
LINE
  8
_0-0_
  6
CONTINUOUS
 62
    7
 10
499.52143040655108
 20
110.05875840960823
 11
499.52143040655108
 21
110.05875855323706
  0
LINE
  8
_0-1_
  6
CONTINUOUS
 62
  152
 10
511.81972448438023
 20
104.65875855323719
 11
461.81972448438023
 21
104.65875855323719
  0
LINE
  8
_0-0_
  6
CONTINUOUS
 62
    7
 10
473.54066829301905
 20
148.88521173023935
 11
473.54066829301905
 21
144.18521173023908
  0
LINE
  8
_0-0_
  6
CONTINUOUS
 62
    7
 10
476.86043234085935
 20
142.18521173023919
 11
496.77901662790111
 21
142.18521173023919
  0
LINE
  8
_0-0_
  6
CONTINUOUS
 62
    7
 10
493.45925258006082
 20
144.18521173023908
 11
493.45925258006082
 21
148.88521173023935
  0
LINE
  8
_0-0_
  6
CONTINUOUS
 62
    7
 10
496.77901662790111
 20
150.88521173023923
 11
476.86043234085935
 21
150.88521173023923
  0
LINE
  8
_0-0_
  6
CONTINUOUS
 62
    7
 10
480.18019638869964
 20
148.88521173023935
 11
480.18019638869964
 21
144.18521173023908
  0
LINE
  8
_0-0_
  6
CONTINUOUS
 62
    7
 10
500.09878067574141
 20
144.18521173023908
 11
500.09878067574141
 21
148.88521173023935
  0
LINE
  8
_0-0_
  6
CONTINUOUS
 62
    7
 10
461.56972448438046
 20
96.85875855323718
 11
461.56972448438046
 21
93.858758553237067
  0
LINE
  8
_0-0_
  6
CONTINUOUS
 62
    7
 10
461.56972448438046
 20
93.858758553237067
 11
512.06972448438
 21
93.858758553237067
  0
LINE
  8
_0-0_
  6
CONTINUOUS
 62
    7
 10
512.06972448438
 20
93.858758553237067
 11
512.06972448438
 21
96.85875855323718
  0
LINE
  8
_0-0_
  6
CONTINUOUS
 62
    7
 10
512.06972448438
 20
96.85875855323718
 11
461.56972448438046
 21
96.85875855323718
  0
LINE
  8
_0-0_
  6
CONTINUOUS
 62
    7
 10
463.51972448438039
 20
93.858758553237067
 11
463.51972448438039
 21
90.858758553236953
  0
LINE
  8
_0-0_
  6
CONTINUOUS
 62
    7
 10
463.51972448438039
 20
90.858758553236953
 11
510.11972448438064
 21
90.858758553236953
  0
LINE
  8
_0-0_
  6
CONTINUOUS
 62
    7
 10
510.11972448438064
 20
90.858758553236953
 11
510.11972448438064
 21
93.858758553237067
  0
LINE
  8
_0-0_
  6
CONTINUOUS
 62
    7
 10
473.54066829301905
 20
144.18521173023908
 11
473.59110296837503
 21
143.83791537490526
  0
LINE
  8
_0-0_
  6
CONTINUOUS
 62
    7
 10
473.59110296837503
 20
143.83791537490526
 11
473.7408745623535
 21
143.50117144358774
  0
LINE
  8
_0-0_
  6
CONTINUOUS
 62
    7
 10
473.7408745623535
 20
143.50117144358774
 11
473.98543234085935
 21
143.18521173023913
  0
LINE
  8
_0-0_
  6
CONTINUOUS
 62
    7
 10
473.98543234085935
 20
143.18521173023913
 11
474.31734553954516
 21
142.89963651086606
  0
LINE
  8
_0-0_
  6
CONTINUOUS
 62
    7
 10
474.31734553954516
 20
142.89963651086606
 11
474.72652914382479
 21
142.65312284400125
  0
LINE
  8
_0-0_
  6
CONTINUOUS
 62
    7
 10
474.72652914382479
 20
142.65312284400125
 11
475.20055031693914
 21
142.45316092267029
  0
LINE
  8
_0-0_
  6
CONTINUOUS
 62
    7
 10
475.20055031693914
 20
142.45316092267029
 11
475.72500616540958
 21
142.30582648866738
  0
LINE
  8
_0-0_
  6
CONTINUOUS
 62
    7
 10
475.72500616540958
 20
142.30582648866738
 11
476.28396136366769
 21
142.21559622421478
  0
LINE
  8
_0-0_
  6
CONTINUOUS
 62
    7
 10
476.28396136366769
 20
142.21559622421478
 11
476.86043234085935
 21
142.18521173023919
  0
LINE
  8
_0-0_
  6
CONTINUOUS
 62
    7
 10
476.86043234085935
 20
142.18521173023919
 11
477.43690331805101
 21
142.21559622421478
  0
LINE
  8
_0-0_
  6
CONTINUOUS
 62
    7
 10
477.43690331805101
 20
142.21559622421478
 11
477.99585851630911
 21
142.30582648866738
  0
LINE
  8
_0-0_
  6
CONTINUOUS
 62
    7
 10
477.99585851630911
 20
142.30582648866738
 11
478.52031436477944
 21
142.45316092267029
  0
LINE
  8
_0-0_
  6
CONTINUOUS
 62
    7
 10
478.52031436477944
 20
142.45316092267029
 11
478.9943355378939
 21
142.65312284400125
  0
LINE
  8
_0-0_
  6
CONTINUOUS
 62
    7
 10
478.9943355378939
 20
142.65312284400125
 11
479.40351914217354
 21
142.89963651086606
  0
LINE
  8
_0-0_
  6
CONTINUOUS
 62
    7
 10
479.40351914217354
 20
142.89963651086606
 11
479.73543234085935
 21
143.18521173023913
  0
LINE
  8
_0-0_
  6
CONTINUOUS
 62
    7
 10
479.73543234085935
 20
143.18521173023913
 11
479.9799901193652
 21
143.50117144358774
  0
LINE
  8
_0-0_
  6
CONTINUOUS
 62
    7
 10
479.9799901193652
 20
143.50117144358774
 11
480.12976171334367
 21
143.83791537490526
  0
LINE
  8
_0-0_
  6
CONTINUOUS
 62
    7
 10
480.12976171334367
 20
143.83791537490526
 11
480.18019638869964
 21
144.18521166599436
  0
LINE
  8
_0-0_
  6
CONTINUOUS
 62
    7
 10
480.18019638869964
 20
144.18521173023908
 11
480.28106573941159
 21
143.83791537490526
  0
LINE
  8
_0-0_
  6
CONTINUOUS
 62
    7
 10
480.28106573941159
 20
143.83791537490526
 11
480.58060892736842
 21
143.50117144358774
  0
LINE
  8
_0-0_
  6
CONTINUOUS
 62
    7
 10
480.58060892736842
 20
143.50117144358774
 11
481.06972448438034
 21
143.18521173023913
  0
LINE
  8
_0-0_
  6
CONTINUOUS
 62
    7
 10
481.06972448438034
 20
143.18521173023913
 11
481.73355088175174
 21
142.89963651086606
  0
LINE
  8
_0-0_
  6
CONTINUOUS
 62
    7
 10
481.73355088175174
 20
142.89963651086606
 11
482.55191809031112
 21
142.65312284400125
  0
LINE
  8
_0-0_
  6
CONTINUOUS
 62
    7
 10
482.55191809031112
 20
142.65312284400125
 11
483.49996043653994
 21
142.45316092267029
  0
LINE
  8
_0-0_
  6
CONTINUOUS
 62
    7
 10
483.49996043653994
 20
142.45316092267029
 11
484.5488721334807
 21
142.30582648866738
  0
LINE
  8
_0-0_
  6
CONTINUOUS
 62
    7
 10
484.5488721334807
 20
142.30582648866738
 11
485.66678252999691
 21
142.21559622421478
  0
LINE
  8
_0-0_
  6
CONTINUOUS
 62
    7
 10
485.66678252999691
 20
142.21559622421478
 11
486.81972448438023
 21
142.18521173023919
  0
LINE
  8
_0-0_
  6
CONTINUOUS
 62
    7
 10
486.81972448438023
 20
142.18521173023919
 11
487.97266643876355
 21
142.21559622421478
  0
LINE
  8
_0-0_
  6
CONTINUOUS
 62
    7
 10
487.97266643876355
 20
142.21559622421478
 11
489.09057683527976
 21
142.30582648866738
  0
LINE
  8
_0-0_
  6
CONTINUOUS
 62
    7
 10
489.09057683527976
 20
142.30582648866738
 11
490.13948853222053
 21
142.45316092267029
  0
LINE
  8
_0-0_
  6
CONTINUOUS
 62
    7
 10
490.13948853222053
 20
142.45316092267029
 11
491.08753087844934
 21
142.65312284400125
  0
LINE
  8
_0-0_
  6
CONTINUOUS
 62
    7
 10
491.08753087844934
 20
142.65312284400125
 11
491.90589808700872
 21
142.89963651086606
  0
LINE
  8
_0-0_
  6
CONTINUOUS
 62
    7
 10
491.90589808700872
 20
142.89963651086606
 11
492.56972448438012
 21
143.18521173023913
  0
LINE
  8
_0-0_
  6
CONTINUOUS
 62
    7
 10
492.56972448438012
 20
143.18521173023913
 11
493.05884004139205
 21
143.50117144358774
  0
LINE
  8
_0-0_
  6
CONTINUOUS
 62
    7
 10
493.05884004139205
 20
143.50117144358774
 11
493.35838322934887
 21
143.83791537490526
  0
LINE
  8
_0-0_
  6
CONTINUOUS
 62
    7
 10
493.35838322934887
 20
143.83791537490526
 11
493.45925258006082
 21
144.18521173023908
  0
LINE
  8
_0-0_
  6
CONTINUOUS
 62
    7
 10
493.45925258006082
 20
144.18521166599436
 11
493.50968727393445
 21
143.83791531163655
  0
LINE
  8
_0-0_
  6
CONTINUOUS
 62
    7
 10
493.50968727393445
 20
143.83791531163655
 11
493.65945888586782
 21
143.50117138321752
  0
LINE
  8
_0-0_
  6
CONTINUOUS
 62
    7
 10
493.65945888586782
 20
143.50117138321752
 11
493.90401668122047
 21
143.18521167460159
  0
LINE
  8
_0-0_
  6
CONTINUOUS
 62
    7
 10
493.90401668122047
 20
143.18521167460159
 11
494.23592989513293
 21
142.89963646165177
  0
LINE
  8
_0-0_
  6
CONTINUOUS
 62
    7
 10
494.23592989513293
 20
142.89963646165177
 11
494.64511351255646
 21
142.65312280270552
  0
LINE
  8
_0-0_
  6
CONTINUOUS
 62
    7
 10
494.64511351255646
 20
142.65312280270552
 11
495.11913469633271
 21
142.45316089054791
  0
LINE
  8
_0-0_
  6
CONTINUOUS
 62
    7
 10
495.11913469633271
 20
142.45316089054791
 11
495.64359055265891
 21
142.30582646669438
  0
LINE
  8
_0-0_
  6
CONTINUOUS
 62
    7
 10
495.64359055265891
 20
142.30582646669438
 11
496.20254575572801
 21
142.2155962130588
  0
LINE
  8
_0-0_
  6
CONTINUOUS
 62
    7
 10
496.20254575572801
 20
142.2155962130588
 11
496.77901673453971
 21
142.18521173023919
  0
LINE
  8
_0-0_
  6
CONTINUOUS
 62
    7
 10
496.77901673453971
 20
142.18521173023919
 11
497.35548771011133
 21
142.21559623537075
  0
LINE
  8
_0-0_
  6
CONTINUOUS
 62
    7
 10
497.35548771011133
 20
142.21559623537075
 11
497.91444290355844
 21
142.30582651064037
  0
LINE
  8
_0-0_
  6
CONTINUOUS
 62
    7
 10
497.91444290355844
 20
142.30582651064037
 11
498.438898744173
 21
142.45316095479268
  0
LINE
  8
_0-0_
  6
CONTINUOUS
 62
    7
 10
498.438898744173
 20
142.45316095479268
 11
498.91291990662558
 21
142.65312288529691
  0
LINE
  8
_0-0_
  6
CONTINUOUS
 62
    7
 10
498.91291990662558
 20
142.65312288529691
 11
499.3221034977613
 21
142.89963656008035
  0
LINE
  8
_0-0_
  6
CONTINUOUS
 62
    7
 10
499.3221034977613
 20
142.89963656008035
 11
499.65401668122036
 21
143.18521178587667
  0
LINE
  8
_0-0_
  6
CONTINUOUS
 62
    7
 10
499.65401668122036
 20
143.18521178587667
 11
499.89857444287952
 21
143.50117150395806
  0
LINE
  8
_0-0_
  6
CONTINUOUS
 62
    7
 10
499.89857444287952
 20
143.50117150395806
 11
500.04834601890298
 21
143.83791543817392
  0
LINE
  8
_0-0_
  6
CONTINUOUS
 62
    7
 10
500.04834601890298
 20
143.83791543817392
 11
500.09878067574141
 21
144.18521173023908
  0
LINE
  8
_0-0_
  6
CONTINUOUS
 62
    7
 10
493.45925258006082
 20
148.88521173023935
 11
493.35838322934887
 21
149.23250808557316
  0
LINE
  8
_0-0_
  6
CONTINUOUS
 62
    7
 10
493.35838322934887
 20
149.23250808557316
 11
493.05884004139205
 21
149.56925201689069
  0
LINE
  8
_0-0_
  6
CONTINUOUS
 62
    7
 10
493.05884004139205
 20
149.56925201689069
 11
492.56972448438012
 21
149.88521173023929
  0
LINE
  8
_0-0_
  6
CONTINUOUS
 62
    7
 10
492.56972448438012
 20
149.88521173023929
 11
491.90589808700872
 21
150.17078694961236
  0
LINE
  8
_0-0_
  6
CONTINUOUS
 62
    7
 10
491.90589808700872
 20
150.17078694961236
 11
491.08753087844934
 21
150.41730061647718
  0
LINE
  8
_0-0_
  6
CONTINUOUS
 62
    7
 10
491.08753087844934
 20
150.41730061647718
 11
490.13948853222053
 21
150.61726253780813
  0
LINE
  8
_0-0_
  6
CONTINUOUS
 62
    7
 10
490.13948853222053
 20
150.61726253780813
 11
489.09057683527976
 21
150.76459697181105
  0
LINE
  8
_0-0_
  6
CONTINUOUS
 62
    7
 10
489.09057683527976
 20
150.76459697181105
 11
487.97266643876355
 21
150.85482723626365
  0
LINE
  8
_0-0_
  6
CONTINUOUS
 62
    7
 10
487.97266643876355
 20
150.85482723626365
 11
486.81972448438023
 21
150.88521173023923
  0
LINE
  8
_0-0_
  6
CONTINUOUS
 62
    7
 10
486.81972448438023
 20
150.88521173023923
 11
485.66678252999691
 21
150.85482723626365
  0
LINE
  8
_0-0_
  6
CONTINUOUS
 62
    7
 10
485.66678252999691
 20
150.85482723626365
 11
484.5488721334807
 21
150.76459697181105
  0
LINE
  8
_0-0_
  6
CONTINUOUS
 62
    7
 10
484.5488721334807
 20
150.76459697181105
 11
483.49996043653994
 21
150.61726253780813
  0
LINE
  8
_0-0_
  6
CONTINUOUS
 62
    7
 10
483.49996043653994
 20
150.61726253780813
 11
482.55191809031112
 21
150.41730061647718
  0
LINE
  8
_0-0_
  6
CONTINUOUS
 62
    7
 10
482.55191809031112
 20
150.41730061647718
 11
481.73355088175174
 21
150.17078694961236
  0
LINE
  8
_0-0_
  6
CONTINUOUS
 62
    7
 10
481.73355088175174
 20
150.17078694961236
 11
481.06972448438034
 21
149.88521173023929
  0
LINE
  8
_0-0_
  6
CONTINUOUS
 62
    7
 10
481.06972448438034
 20
149.88521173023929
 11
480.58060892736842
 21
149.56925201689069
  0
LINE
  8
_0-0_
  6
CONTINUOUS
 62
    7
 10
480.58060892736842
 20
149.56925201689069
 11
480.28106573941159
 21
149.23250808557316
  0
LINE
  8
_0-0_
  6
CONTINUOUS
 62
    7
 10
480.28106573941159
 20
149.23250808557316
 11
480.18019638869964
 21
148.88521173023935
  0
LINE
  8
_0-0_
  6
CONTINUOUS
 62
    7
 10
500.09878067574141
 20
148.88521173023935
 11
500.04834600038544
 21
149.23250808557316
  0
LINE
  8
_0-0_
  6
CONTINUOUS
 62
    7
 10
500.04834600038544
 20
149.23250808557316
 11
499.89857440640696
 21
149.56925201689069
  0
LINE
  8
_0-0_
  6
CONTINUOUS
 62
    7
 10
499.89857440640696
 20
149.56925201689069
 11
499.65401662790111
 21
149.88521173023929
  0
LINE
  8
_0-0_
  6
CONTINUOUS
 62
    7
 10
499.65401662790111
 20
149.88521173023929
 11
499.3221034292153
 21
150.17078694961236
  0
LINE
  8
_0-0_
  6
CONTINUOUS
 62
    7
 10
499.3221034292153
 20
150.17078694961236
 11
498.91291982493567
 21
150.41730061647718
  0
LINE
  8
_0-0_
  6
CONTINUOUS
 62
    7
 10
498.91291982493567
 20
150.41730061647718
 11
498.43889865182132
 21
150.61726253780813
  0
LINE
  8
_0-0_
  6
CONTINUOUS
 62
    7
 10
498.43889865182132
 20
150.61726253780813
 11
497.91444280335088
 21
150.76459697181105
  0
LINE
  8
_0-0_
  6
CONTINUOUS
 62
    7
 10
497.91444280335088
 20
150.76459697181105
 11
497.35548760509278
 21
150.85482723626365
  0
LINE
  8
_0-0_
  6
CONTINUOUS
 62
    7
 10
497.35548760509278
 20
150.85482723626365
 11
496.77901662790111
 21
150.88521173023923
  0
LINE
  8
_0-0_
  6
CONTINUOUS
 62
    7
 10
496.77901662790111
 20
150.88521173023923
 11
496.20254565070945
 21
150.85482723626365
  0
LINE
  8
_0-0_
  6
CONTINUOUS
 62
    7
 10
496.20254565070945
 20
150.85482723626365
 11
495.64359045245135
 21
150.76459697181105
  0
LINE
  8
_0-0_
  6
CONTINUOUS
 62
    7
 10
495.64359045245135
 20
150.76459697181105
 11
495.11913460398102
 21
150.61726253780813
  0
LINE
  8
_0-0_
  6
CONTINUOUS
 62
    7
 10
495.11913460398102
 20
150.61726253780813
 11
494.64511343086656
 21
150.41730061647718
  0
LINE
  8
_0-0_
  6
CONTINUOUS
 62
    7
 10
494.64511343086656
 20
150.41730061647718
 11
494.23592982658693
 21
150.17078694961236
  0
LINE
  8
_0-0_
  6
CONTINUOUS
 62
    7
 10
494.23592982658693
 20
150.17078694961236
 11
493.90401662790111
 21
149.88521173023929
  0
LINE
  8
_0-0_
  6
CONTINUOUS
 62
    7
 10
493.90401662790111
 20
149.88521173023929
 11
493.65945884939526
 21
149.56925201689069
  0
LINE
  8
_0-0_
  6
CONTINUOUS
 62
    7
 10
493.65945884939526
 20
149.56925201689069
 11
493.50968725541679
 21
149.23250808557316
  0
LINE
  8
_0-0_
  6
CONTINUOUS
 62
    7
 10
493.50968725541679
 20
149.23250808557316
 11
493.45925258006082
 21
148.88521179448406
  0
LINE
  8
_0-0_
  6
CONTINUOUS
 62
    7
 10
480.18019638869964
 20
148.88521179448406
 11
480.12976169482602
 21
149.23250814884187
  0
LINE
  8
_0-0_
  6
CONTINUOUS
 62
    7
 10
480.12976169482602
 20
149.23250814884187
 11
479.97999008289264
 21
149.5692520772609
  0
LINE
  8
_0-0_
  6
CONTINUOUS
 62
    7
 10
479.97999008289264
 20
149.5692520772609
 11
479.73543228753999
 21
149.88521178587683
  0
LINE
  8
_0-0_
  6
CONTINUOUS
 62
    7
 10
479.73543228753999
 20
149.88521178587683
 11
479.40351907362754
 21
150.17078699882666
  0
LINE
  8
_0-0_
  6
CONTINUOUS
 62
    7
 10
479.40351907362754
 20
150.17078699882666
 11
478.994335456204
 21
150.4173006577729
  0
LINE
  8
_0-0_
  6
CONTINUOUS
 62
    7
 10
478.994335456204
 20
150.4173006577729
 11
478.52031427242775
 21
150.61726256993052
  0
LINE
  8
_0-0_
  6
CONTINUOUS
 62
    7
 10
478.52031427242775
 20
150.61726256993052
 11
477.99585841610156
 21
150.76459699378404
  0
LINE
  8
_0-0_
  6
CONTINUOUS
 62
    7
 10
477.99585841610156
 20
150.76459699378404
 11
477.43690321303245
 21
150.85482724741962
  0
LINE
  8
_0-0_
  6
CONTINUOUS
 62
    7
 10
477.43690321303245
 20
150.85482724741962
 11
476.86043223422075
 21
150.88521173023923
  0
LINE
  8
_0-0_
  6
CONTINUOUS
 62
    7
 10
476.86043223422075
 20
150.88521173023923
 11
476.28396125864913
 21
150.85482722510767
  0
LINE
  8
_0-0_
  6
CONTINUOUS
 62
    7
 10
476.28396125864913
 20
150.85482722510767
 11
475.72500606520202
 21
150.76459694983805
  0
LINE
  8
_0-0_
  6
CONTINUOUS
 62
    7
 10
475.72500606520202
 20
150.76459694983805
 11
475.20055022458746
 21
150.61726250568574
  0
LINE
  8
_0-0_
  6
CONTINUOUS
 62
    7
 10
475.20055022458746
 20
150.61726250568574
 11
474.72652906213489
 21
150.41730057518151
  0
LINE
  8
_0-0_
  6
CONTINUOUS
 62
    7
 10
474.72652906213489
 20
150.41730057518151
 11
474.31734547099916
 21
150.17078690039807
  0
LINE
  8
_0-0_
  6
CONTINUOUS
 62
    7
 10
474.31734547099916
 20
150.17078690039807
 11
473.98543228754011
 21
149.88521167460175
  0
LINE
  8
_0-0_
  6
CONTINUOUS
 62
    7
 10
473.98543228754011
 20
149.88521167460175
 11
473.74087452588094
 21
149.56925195652036
  0
LINE
  8
_0-0_
  6
CONTINUOUS
 62
    7
 10
473.74087452588094
 20
149.56925195652036
 11
473.59110294985749
 21
149.2325080223045
  0
LINE
  8
_0-0_
  6
CONTINUOUS
 62
    7
 10
473.59110294985749
 20
149.2325080223045
 11
473.54066829301905
 21
148.88521173023935
  0
LINE
  8
_0-0_
  6
CONTINUOUS
 62
    7
 10
494.81972444959843
 20
142.18521173023919
 11
494.81972444959843
 21
117.85875855323695
  0
LINE
  8
_0-0_
  6
CONTINUOUS
 62
    7
 10
478.8197244495982
 20
117.85875855323695
 11
478.8197244495982
 21
142.18521173023919
  0
LINE
  8
_0-0_
  6
CONTINUOUS
 62
    7
 10
504.81972448438034
 20
108.05875855323717
 11
468.81972448438012
 21
108.05875855323717
  0
LINE
  8
_0-0_
  6
CONTINUOUS
 62
    7
 10
468.81972448438012
 20
108.05875855323717
 11
468.81972448438012
 21
107.65875855323696
  0
LINE
  8
_0-0_
  6
CONTINUOUS
 62
    7
 10
464.81972448438034
 20
107.65875855323696
 11
508.8197244840851
 21
107.65875855323696
  0
LINE
  8
_0-0_
  6
CONTINUOUS
 62
    7
 10
461.81972448438023
 20
104.65875855323719
 11
461.81972448438023
 21
96.85875855323718
  0
LINE
  8
_0-0_
  6
CONTINUOUS
 62
    7
 10
511.81972448438023
 20
96.85875855323718
 11
511.81972448438023
 21
104.65875855323719
  0
ARC
  8
_0-0_
  6
CONTINUOUS
 62
    7
 10
464.81972448438034
 20
104.65875855323719
 40
2.9999999999999858
 50
89.999999999999829
 51
180.0000000000002
  0
ARC
  8
_0-0_
  6
CONTINUOUS
 62
    7
 10
508.81972448438012
 20
104.65875855323719
 40
2.9999999999999933
 50
359.99999999999977
 51
90.000000000000199
  0
LINE
  8
_0-1_
  6
CONTINUOUS
 62
  152
 10
479.71972457969821
 20
142.18521173023919
 11
479.71972457969821
 21
120.15875855323696
  0
LINE
  8
_0-1_
  6
CONTINUOUS
 62
  152
 10
493.91972438899847
 20
120.15875855323696
 11
493.91972438899847
 21
142.18521173023919
  0
LINE
  8
_0-1_
  6
CONTINUOUS
 62
  152
 10
478.8197244495982
 20
120.15875855323696
 11
494.81972444959843
 21
120.15875855323696
  0
LINE
  8
_0-1_
  6
CONTINUOUS
 62
  152
 10
479.71972457969821
 20
120.15875855323696
 11
478.8197244495982
 21
119.63914323585306
  0
LINE
  8
_0-1_
  6
CONTINUOUS
 62
  152
 10
493.91972438899847
 20
120.15875855323696
 11
494.81972444959843
 21
119.63914327597888
  0
LINE
  8
_0-1_
  6
CENTER1
 62
  152
 10
471.2856292975614
 20
39.126481707302332
 11
502.78418053639996
 21
39.126481707302332
  0
LINE
  8
_0-1_
  6
CENTER1
 62
  152
 10
486.81972448438023
 20
54.182056473903458
 11
486.81972448438023
 21
23.955487865978398
  0
CIRCLE
  8
_0-0_
  6
CONTINUOUS
 62
    7
 10
486.81972448438023
 20
39.126481707302332
 40
7.0999999046325692
  0
CIRCLE
  8
_0-0_
  6
CONTINUOUS
 62
  152
 10
486.81972448438023
 20
39.126481707302332
 40
8
  0
LINE
  8
_0-0_
  6
CONTINUOUS
 62
    7
 10
480.75754665788912
 20
49.626481707302332
 11
492.88190231087134
 21
49.626481707302332
  0
LINE
  8
_0-0_
  6
CONTINUOUS
 62
    7
 10
480.75754665788929
 20
28.626481707302332
 11
492.88190231087117
 21
28.626481707302332
  0
LINE
  8
_0-0_
  6
CONTINUOUS
 62
    7
 10
480.75754665788912
 20
49.626481707302332
 11
474.69536883139813
 21
39.126481707302332
  0
LINE
  8
_0-0_
  6
CONTINUOUS
 62
    7
 10
480.75754665788929
 20
28.626481707302332
 11
474.69536883139813
 21
39.126481707302332
  0
LINE
  8
_0-0_
  6
CONTINUOUS
 62
    7
 10
492.88190231087134
 20
49.626481707302332
 11
498.94408013736233
 21
39.126481707302332
  0
LINE
  8
_0-0_
  6
CONTINUOUS
 62
    7
 10
492.88190231087117
 20
28.626481707302332
 11
498.94408013736233
 21
39.126481707302332
  0
CIRCLE
  8
_0-0_
  6
CONTINUOUS
 62
  152
 10
486.81972448438023
 20
39.126481707302332
 40
10.5
  0
LINE
  8
_0-1_
  6
CONTINUOUS
 62
  152
 10
479.71972457969821
 20
150.88521173023923
 11
479.71972457969821
 21
190.85875868333665
  0
LINE
  8
_0-1_
  6
CONTINUOUS
 62
  152
 10
493.91972438899847
 20
150.88521173023923
 11
493.91972438899847
 21
190.85875861383661
  0
LINE
  8
_0-1_
  6
CONTINUOUS
 62
  152
 10
478.8197244495982
 20
189.95875855323661
 11
494.81972444959843
 21
189.95875855323661
  0
LINE
  8
_0-1_
  6
CENTER1
 62
  152
 10
486.81972448438023
 20
88.86796111191029
 11
486.81972448438023
 21
193.54099444327247
  0
LINE
  8
_0-0_
  6
CONTINUOUS
 62
    7
 10
493.91972444959811
 20
190.85875855323692
 11
479.71972444959852
 21
190.85875855323692
  0
LINE
  8
_0-0_
  6
CONTINUOUS
 62
    7
 10
479.71972444959852
 20
190.85875855323692
 11
478.8197244495982
 21
189.95875855323661
  0
LINE
  8
_0-0_
  6
CONTINUOUS
 62
    7
 10
478.8197244495982
 20
189.95875855323661
 11
478.8197244495982
 21
150.88521173023923
  0
LINE
  8
_0-0_
  6
CONTINUOUS
 62
    7
 10
494.81972444959843
 20
189.95875855323661
 11
493.91972444959811
 21
190.85875855323692
  0
LINE
  8
_0-0_
  6
CONTINUOUS
 62
    7
 10
494.81972444959843
 20
189.95875855323661
 11
494.81972444959843
 21
150.88521173023923
  0
LINE
  8
_0-1_
  6
CENTER1
 62
  152
 10
486.81972448438023
 20
204.41549427572866
 11
486.81972448438023
 21
263.18622864323441
  0
LINE
  8
_0-1_
  6
CENTER1
 62
  152
 10
470.84705784524294
 20
231.46503139489505
 11
504.41691655795785
 21
231.46503139489505
  0
CIRCLE
  8
_0-1_
  6
CONTINUOUS
 62
  152
 10
486.81972448438023
 20
231.46503139489505
 40
8
  0
CIRCLE
  8
_0-1_
  6
CONTINUOUS
 62
  152
 10
486.81972448438023
 20
231.46503139489505
 40
11.5
  0
LINE
  8
_0-0_
  6
CONTINUOUS
 62
    7
 10
480.18019638869964
 20
242.96503139489516
 11
493.45925258006082
 21
242.96503139489516
  0
LINE
  8
_0-0_
  6
CONTINUOUS
 62
    7
 10
493.45925258006082
 20
242.96503139489516
 11
500.09878067574141
 21
231.46503139489505
  0
LINE
  8
_0-0_
  6
CONTINUOUS
 62
    7
 10
500.09878067574141
 20
231.46503139489505
 11
493.45925258006082
 21
219.96503139489499
  0
LINE
  8
_0-0_
  6
CONTINUOUS
 62
    7
 10
493.45925258006082
 20
219.96503139489499
 11
480.18019638869964
 21
219.96503139489499
  0
LINE
  8
_0-0_
  6
CONTINUOUS
 62
    7
 10
480.18019638869964
 20
219.96503139489499
 11
473.54066829301905
 21
231.46503139489505
  0
LINE
  8
_0-0_
  6
CONTINUOUS
 62
    7
 10
473.54066829301905
 20
231.46503139489505
 11
480.18019638869964
 21
242.96503139489516
  0
CIRCLE
  8
_0-0_
  6
CONTINUOUS
 62
    7
 10
486.81972448438023
 20
231.46503139489505
 40
25
  0
CIRCLE
  8
_0-0_
  6
CONTINUOUS
 62
    7
 10
486.81972448438023
 20
231.46503139489505
 40
7.0999999046325692
  0
CIRCLE
  8
_0-0_
  6
CONTINUOUS
 62
    7
 10
486.81972448438023
 20
231.46503139489505
 40
18
  0
ENDSEC
  0
EOF
