  0
SECTION
  2
HEADER
  9
$ACADVER
  1
AC1009
  9
$INSBASE
 10
0
 20
0
 30
0
  9
$EXTMIN
 10
0
 20
0
  9
$EXTMAX
 10
1189
 20
841
  9
$LIMMIN
 10
0
 20
0
  9
$LIMMAX
 10
1189
 20
841
  9
$LTSCALE
 40
1
  0
ENDSEC
  0
SECTION
  2
TABLES
  0
TABLE
  2
LTYPE
 70
     9
  0
LTYPE
  2
CONTINUOUS
 70
    64
  3
実線
 72
    65
 73
     0
 40
0.0
  0
LTYPE
  2
DASHED1
 70
    64
  3
--  --  --  --  --  --  --  --  
 72
    65
 73
     2
 40
2.5
 49
1.25
 49
-1.25
  0
LTYPE
  2
DASHED2
 70
    64
  3
----    ----    ----    ----    
 72
    65
 73
     2
 40
5.0
 49
2.5
 49
-2.5
  0
LTYPE
  2
DASHED3
 70
    64
  3
------  ------  ------  ------  
 72
    65
 73
     2
 40
5.0
 49
3.75
 49
-1.25
  0
LTYPE
  2
CENTER1
 70
    64
  3
----- - ----- - ----- - ----- - 
 72
    65
 73
     4
 40
10.0
 49
6.25
 49
-1.25
 49
1.25
 49
-1.25
  0
LTYPE
  2
CENTER2
 70
    64
  3
----------  --  ----------  --  
 72
    65
 73
     4
 40
20.0
 49
12.5
 49
-2.5
 49
2.5
 49
-2.5
  0
LTYPE
  2
PHANTOM1
 70
    64
  3
--- - - --- - - --- - - --- - - 
 72
    65
 73
     6
 40
10.0
 49
3.25
 49
-1.25
 49
1.25
 49
-1.25
 49
1.25
 49
-1.25
  0
LTYPE
  2
PHANTOM2
 70
    64
  3
--------  -  -  --------  -  -  
 72
    65
 73
     6
 40
20.0
 49
10.0
 49
-2.5
 49
1.25
 49
-2.5
 49
1.25
 49
-2.5
  0
LTYPE
  2
DOT
 70
    64
  3
-   -   -   -   -   -   -   -   
 72
    65
 73
     2
 40
2.5
 49
0.625
 49
-1.875
  0
LTYPE
  2
DUMMY
 70
    64
  3
ダミー
 72
    65
 73
     0
 40
0.0
  0
LTYPE
  2
RAND1
 70
    64
  3
ランダム線1
 72
    65
 73
     4
 40
10.0
 49
1.0
 49
-2.0
 49
3.0
 49
-4.0
  0
LTYPE
  2
RAND2
 70
    64
  3
ランダム線2
 72
    65
 73
     4
 40
14.0
 49
2.0
 49
-3.0
 49
4.0
 49
-5.0
  0
LTYPE
  2
RAND3
 70
    64
  3
ランダム線3
 72
    65
 73
     4
 40
18.0
 49
3.0
 49
-4.0
 49
5.0
 49
-6.0
  0
LTYPE
  2
RAND4
 70
    64
  3
ランダム線4
 72
    65
 73
     4
 40
22.0
 49
4.0
 49
-5.0
 49
6.0
 49
-7.0
  0
LTYPE
  2
RAND5
 70
    64
  3
ランダム線5
 72
    65
 73
     4
 40
26.0
 49
5.0
 49
-6.0
 49
7.0
 49
-8.0
  0
LTYPE
  2
LONG1
 70
    64
  3
----------  --  ----------  --  
 72
    65
 73
     4
 40
40.0
 49
32.5
 49
-2.5
 49
2.5
 49
-2.5
  0
LTYPE
  2
LONG2
 70
    64
  3
--------  -  -  --------  -  -  
 72
    65
 73
     6
 40
40.0
 49
30.0
 49
-2.5
 49
1.25
 49
-2.5
 49
1.25
 49
-2.5
  0
LTYPE
  2
LONG3
 70
    64
  3
+++++++++++++++..+++++++++++++++
 72
    65
 73
     2
 40
40.0
 49
37.5
 49
-2.5
  0
LTYPE
  2
LONG4
 70
    64
  3
+++++++++++++++..+++++++++++++++
 72
    65
 73
     2
 40
80.0
 49
75.0
 49
-5.0
  0
LTYPE
  2
LONG5
 70
    64
  3
----------  --  ----------  --  
 72
    65
 73
     4
 40
60.0
 49
37.5
 49
-7.5
 49
7.5
 49
-7.5
  0
LTYPE
  2
dashed
 70
   64
  3
-------   -------------   ------
 72
   65
 73
    2
 40
7.5
 49
6
 49
-1.5
  0
LTYPE
  2
dashed_spaced
 70
   64
  3
----        --------        ----
 72
   65
 73
    2
 40
12
 49
6
 49
-6
  0
LTYPE
  2
long_dashed_dotted
 70
   64
  3
------------- --- --------------
 72
   65
 73
    4
 40
15.25
 49
12
 49
-1.5
 49
0.25
 49
-1.5
  0
LTYPE
  2
long_dashed_double-dotted
 70
   64
  3
----------- --- --- ------------
 72
   65
 73
    6
 40
17
 49
12
 49
-1.5
 49
0.25
 49
-1.5
 49
0.25
 49
-1.5
  0
LTYPE
  2
long_dashed_triplicate-dotted
 70
   64
  3
--------- --- --- --- ----------
 72
   65
 73
    8
 40
18.75
 49
12
 49
-1.5
 49
0.25
 49
-1.5
 49
0.25
 49
-1.5
 49
0.25
 49
-1.5
  0
LTYPE
  2
dotted
 70
   64
  3
   -       -       -       -    
 72
   65
 73
    2
 40
1.75
 49
0.25
 49
-1.5
  0
LTYPE
  2
chain
 70
   64
  3
-------------- -- --------------
 72
   65
 73
    4
 40
18.5
 49
12
 49
-1.5
 49
3.5
 49
-1.5
  0
LTYPE
  2
chain_double_dash
 70
   64
  3
------------ -- -- -------------
 72
   65
 73
    6
 40
23.5
 49
12
 49
-1.5
 49
3.5
 49
-1.5
 49
3.5
 49
-1.5
  0
LTYPE
  2
dashed_dotted
 70
   64
  3
-----------     -     ----------
 72
   65
 73
    4
 40
9.25
 49
6
 49
-1.5
 49
0.25
 49
-1.5
  0
LTYPE
  2
double-dashed_dotted
 70
   64
  3
------   -----------   -   -----
 72
   65
 73
    6
 40
16.75
 49
6
 49
-1.5
 49
6
 49
-1.5
 49
0.25
 49
-1.5
  0
LTYPE
  2
dashed_double-dotted
 70
   64
  3
---------    -    -    ---------
 72
   65
 73
    6
 40
11
 49
6
 49
-1.5
 49
0.25
 49
-1.5
 49
0.25
 49
-1.5
  0
LTYPE
  2
double-dashed_double-dotted
 70
   64
  3
-----   ---------   -   -   ----
 72
   65
 73
    8
 40
18.5
 49
6
 49
-1.5
 49
6
 49
-1.5
 49
0.25
 49
-1.5
 49
0.25
 49
-1.5
  0
LTYPE
  2
dashed_triplicate-dotted
 70
   64
  3
-------    -    -    -    ------
 72
   65
 73
    8
 40
12.75
 49
6
 49
-1.5
 49
0.25
 49
-1.5
 49
0.25
 49
-1.5
 49
0.25
 49
-1.5
  0
LTYPE
  2
double-dashed_triplicate-dotted
 70
   64
  3
-----  ---------  -  -  -  -----
 72
   65
 73
   10
 40
20.25
 49
6
 49
-1.5
 49
6
 49
-1.5
 49
0.25
 49
-1.5
 49
0.25
 49
-1.5
 49
0.25
 49
-1.5
  0
LTYPE
  2
undefined
 70
   64
  3
--------------------------------
 72
   65
 73
    0
 40
0
  0
LTYPE
  2
_
 70
   64
  3
                                
 72
   65
 73
    0
 40
0
  0
LTYPE
  2
__18
 70
   64
  3
                                
 72
   65
 73
    0
 40
0
  0
LTYPE
  2
__19
 70
   64
  3
                                
 72
   65
 73
    0
 40
0
  0
LTYPE
  2
__20
 70
   64
  3
                                
 72
   65
 73
    0
 40
0
  0
LTYPE
  2
__21
 70
   64
  3
                                
 72
   65
 73
    0
 40
0
  0
LTYPE
  2
__22
 70
   64
  3
                                
 72
   65
 73
    0
 40
0
  0
LTYPE
  2
__23
 70
   64
  3
                                
 72
   65
 73
    0
 40
0
  0
LTYPE
  2
__24
 70
   64
  3
                                
 72
   65
 73
    0
 40
0
  0
LTYPE
  2
__25
 70
   64
  3
                                
 72
   65
 73
    0
 40
0
  0
LTYPE
  2
__26
 70
   64
  3
                                
 72
   65
 73
    0
 40
0
  0
LTYPE
  2
__27
 70
   64
  3
                                
 72
   65
 73
    0
 40
0
  0
LTYPE
  2
__28
 70
   64
  3
                                
 72
   65
 73
    0
 40
0
  0
LTYPE
  2
__29
 70
   64
  3
                                
 72
   65
 73
    0
 40
0
  0
LTYPE
  2
__30
 70
   64
  3
                                
 72
   65
 73
    0
 40
0
  0
LTYPE
  2
__31
 70
   64
  3
                                
 72
   65
 73
    0
 40
0
  0
LTYPE
  2
__32
 70
   64
  3
                                
 72
   65
 73
    0
 40
0
  0
ENDTAB
  0
TABLE
  2
STYLE
  5
3
100
AcDbSymbolTable
 70
     1
  0
STYLE
  5
10
100
AcDbSymbolTableRecord
100
AcDbTextStyleTableRecord
  2
STANDARD
 70
     0
 40
0.0
 41
1.0
 50
0.0
 71
     0
 42
0.2
  3
txt
  4
bigfont.shx
  0
STYLE
  5
26
100
AcDbSymbolTableRecord
100
AcDbTextStyleTableRecord
  2
TATEGAKI
 70
    68
 40
0.0
 41
1.0
 50
0.0
 71
     0
 42
1.0
  3
txt
  4
bigfont.shx
  0
ENDTAB
  0
TABLE
  2
LAYER
 70
    4
  0
LAYER
  2
_0-0_
 70
   64
 62
    7
  6
CONTINUOUS
  0
LAYER
  2
_0-1_
 70
   64
 62
    7
  6
CONTINUOUS
  0
LAYER
  2
_0-f_
 70
   64
 62
    7
  6
CONTINUOUS
  0
LAYER
  2
ADD_LINE
 70
   64
 62
    7
  6
CONTINUOUS
  0
ENDTAB
  0
ENDSEC
  0
SECTION
  2
BLOCKS
  0
ENDSEC
  0
SECTION
  2
ENTITIES
  0
TEXT
  8
_0-f_
 62
    7
 10
13.246461047707271
 20
10.254220625628136
 40
4.2999999999999998
 41
0.744186046511628
 50
0
  1
AIFK-M16
  0
LINE
  8
_0-0_
  6
CONTINUOUS
 62
    7
 10
633.27939520407517
 20
143.4419390766368
 11
635.77939520407517
 21
144.88531478330947
  0
LINE
  8
_0-0_
  6
CONTINUOUS
 62
    7
 10
635.77939520407517
 20
144.88531478330947
 11
635.77939520407517
 21
147.77206619665481
  0
LINE
  8
_0-0_
  6
CONTINUOUS
 62
    7
 10
635.77939520407517
 20
147.77206619665481
 11
633.27939520407517
 21
149.21544190332747
  0
LINE
  8
_0-0_
  6
CONTINUOUS
 62
    7
 10
633.27939520407517
 20
149.21544190332747
 11
630.77939520407517
 21
147.77206619665481
  0
LINE
  8
_0-0_
  6
CONTINUOUS
 62
    7
 10
630.77939520407517
 20
147.77206619665481
 11
630.77939520407517
 21
144.88531478330947
  0
LINE
  8
_0-0_
  6
CONTINUOUS
 62
    7
 10
630.77939520407517
 20
144.88531478330947
 11
633.27939520407517
 21
143.4419390766368
  0
LINE
  8
_0-0_
  6
CONTINUOUS
 62
    7
 10
570.77939520407517
 20
144.88531478330947
 11
570.77939520407517
 21
147.77206619665481
  0
LINE
  8
_0-0_
  6
CONTINUOUS
 62
    7
 10
570.77939520407517
 20
147.77206619665481
 11
573.27939520407517
 21
149.21544190332747
  0
LINE
  8
_0-0_
  6
CONTINUOUS
 62
    7
 10
573.27939520407517
 20
149.21544190332747
 11
575.77939520407517
 21
147.77206619665481
  0
LINE
  8
_0-0_
  6
CONTINUOUS
 62
    7
 10
575.77939520407517
 20
147.77206619665481
 11
575.77939520407517
 21
144.88531478330947
  0
LINE
  8
_0-0_
  6
CONTINUOUS
 62
    7
 10
575.77939520407517
 20
144.88531478330947
 11
573.27939520407517
 21
143.4419390766368
  0
LINE
  8
_0-0_
  6
CONTINUOUS
 62
    7
 10
573.27939520407517
 20
143.4419390766368
 11
570.77939520407517
 21
144.88531478330947
  0
LINE
  8
_0-0_
  6
CONTINUOUS
 62
    7
 10
563.27939520407517
 20
165.32869048998214
 11
563.27939520407517
 21
17.328690489982137
  0
LINE
  8
_0-0_
  6
CONTINUOUS
 62
    7
 10
563.27939520407517
 20
17.328690489982137
 11
564.27939520407517
 21
16.328690489982137
  0
LINE
  8
_0-0_
  6
CONTINUOUS
 62
    7
 10
564.27939520407517
 20
16.328690489982137
 11
747.27939520407517
 21
16.328690489982137
  0
LINE
  8
_0-0_
  6
CONTINUOUS
 62
    7
 10
747.27939520407517
 20
16.328690489982137
 11
748.27939520407517
 21
17.328690489982137
  0
LINE
  8
_0-0_
  6
CONTINUOUS
 62
    7
 10
748.27939520407517
 20
17.328690489982137
 11
748.27939520407517
 21
165.32869048998214
  0
LINE
  8
_0-0_
  6
CONTINUOUS
 62
    7
 10
748.27939520407517
 20
165.32869048998214
 11
747.27939520407517
 21
166.32869048998214
  0
LINE
  8
_0-0_
  6
CONTINUOUS
 62
    7
 10
747.27939520407517
 20
166.32869048998214
 11
564.27939520407517
 21
166.32869048998214
  0
LINE
  8
_0-0_
  6
CONTINUOUS
 62
    7
 10
564.27939520407517
 20
166.32869048998214
 11
563.27939520407517
 21
165.32869048998214
  0
LINE
  8
_0-0_
  6
CONTINUOUS
 62
    7
 10
632.27329673599479
 20
24.328690489982364
 11
652.27939520407517
 21
24.328690489982364
  0
LINE
  8
_0-0_
  6
CONTINUOUS
 62
    7
 10
652.27939520407517
 20
24.328690489982364
 11
652.27939520407517
 21
27.528690489982637
  0
LINE
  8
_0-0_
  6
CONTINUOUS
 62
    7
 10
652.27939520407517
 20
27.528690489982637
 11
631.14947522456123
 21
27.528690489982637
  0
LINE
  8
_0-0_
  6
CONTINUOUS
 62
    7
 10
631.87939520407554
 20
23.578134989982118
 11
631.87939520407554
 21
18.723583489982502
  0
LINE
  8
_0-0_
  6
CONTINUOUS
 62
    7
 10
631.77939520407517
 20
16.328690489982364
 11
631.77939520407517
 21
13.028691252921817
  0
LINE
  8
_0-0_
  6
CONTINUOUS
 62
    7
 10
631.77939520407517
 20
13.028691252921817
 11
641.77939520407517
 21
13.028691252921817
  0
LINE
  8
_0-0_
  6
CONTINUOUS
 62
    7
 10
641.77939520407517
 20
13.028691252921817
 11
641.77939520407517
 21
16.328690489982364
  0
LINE
  8
_0-0_
  6
CONTINUOUS
 62
    7
 10
641.07939539481004
 20
16.328690489982364
 11
641.07939539481004
 21
12.328690489982364
  0
LINE
  8
_0-0_
  6
CONTINUOUS
 62
    7
 10
641.07939539481004
 20
12.328690489982364
 11
632.47939501334031
 21
12.328690489982364
  0
LINE
  8
_0-0_
  6
CONTINUOUS
 62
    7
 10
632.47939501334031
 20
12.328690489982364
 11
631.77939520407517
 21
13.028691252921817
  0
LINE
  8
_0-0_
  6
CONTINUOUS
 62
    7
 10
632.47939501334031
 20
12.328690489982364
 11
632.47939501334031
 21
16.328690489982364
  0
LINE
  8
_0-0_
  6
CONTINUOUS
 62
    7
 10
628.52939520407517
 20
17.078690489982364
 11
628.52939520407517
 21
17.828690489982364
  0
LINE
  8
_0-0_
  6
CONTINUOUS
 62
    7
 10
628.52939520407517
 20
17.828690489982364
 11
626.97939520407499
 21
18.723583489982502
  0
LINE
  8
_0-0_
  6
CONTINUOUS
 62
    7
 10
626.97939520407499
 20
18.723583489982502
 11
626.97939520407499
 21
20.975549951673656
  0
LINE
  8
_0-0_
  6
CONTINUOUS
 62
    7
 10
617.27939520407517
 20
72.428690489982273
 11
656.27939520407517
 21
72.428690489982273
  0
LINE
  8
_0-0_
  6
CONTINUOUS
 62
    7
 10
656.27939520407517
 20
72.428690489982273
 11
657.77939520407517
 21
70.828690489982364
  0
LINE
  8
_0-0_
  6
CONTINUOUS
 62
    7
 10
659.27939520407517
 20
70.828690489982364
 11
659.27939520407517
 21
79.328690489982364
  0
LINE
  8
_0-0_
  6
CONTINUOUS
 62
    7
 10
652.27939520407517
 20
77.328690489982591
 11
652.27939520407517
 21
74.128690489982546
  0
LINE
  8
_0-0_
  6
CONTINUOUS
 62
    7
 10
652.27939520407517
 20
74.128690489982546
 11
631.14947522456032
 21
74.128690489982546
  0
LINE
  8
_0-0_
  6
CONTINUOUS
 62
    7
 10
632.27329673599388
 20
77.328690489982591
 11
652.27939520407517
 21
77.328690489982591
  0
LINE
  8
_0-0_
  6
CONTINUOUS
 62
    7
 10
572.27939520407517
 20
71.596639713500736
 11
572.27939520407517
 21
75.060741266463992
  0
LINE
  8
_0-0_
  6
CONTINUOUS
 62
    7
 10
572.27939520407517
 20
75.060741266463992
 11
575.27939520407517
 21
76.792792042945621
  0
LINE
  8
_0-0_
  6
CONTINUOUS
 62
    7
 10
575.27939520407517
 20
76.792792042945621
 11
578.27939520407517
 21
75.060741266463992
  0
LINE
  8
_0-0_
  6
CONTINUOUS
 62
    7
 10
578.27939520407517
 20
75.060741266463992
 11
578.27939520407517
 21
71.596639713500736
  0
LINE
  8
_0-0_
  6
CONTINUOUS
 62
    7
 10
578.27939520407517
 20
71.596639713500736
 11
575.27939520407517
 21
69.864588937019107
  0
LINE
  8
_0-0_
  6
CONTINUOUS
 62
    7
 10
575.27939520407517
 20
69.864588937019107
 11
572.27939520407517
 21
71.596639713500736
  0
LINE
  8
_0-0_
  6
CONTINUOUS
 62
    7
 10
575.27939520407517
 20
24.864588937019107
 11
578.27939520407517
 21
26.596639713500736
  0
LINE
  8
_0-0_
  6
CONTINUOUS
 62
    7
 10
578.27939520407517
 20
26.596639713500736
 11
578.27939520407517
 21
30.060741266463992
  0
LINE
  8
_0-0_
  6
CONTINUOUS
 62
    7
 10
578.27939520407517
 20
30.060741266463992
 11
575.27939520407517
 21
31.792792042945621
  0
LINE
  8
_0-0_
  6
CONTINUOUS
 62
    7
 10
575.27939520407517
 20
31.792792042945621
 11
572.27939520407517
 21
30.060741266463992
  0
LINE
  8
_0-0_
  6
CONTINUOUS
 62
    7
 10
572.27939520407517
 20
30.060741266463992
 11
572.27939520407517
 21
26.596639713500736
  0
LINE
  8
_0-0_
  6
CONTINUOUS
 62
    7
 10
572.27939520407517
 20
26.596639713500736
 11
575.27939520407517
 21
24.864588937019107
  0
LINE
  8
_0-0_
  6
CONTINUOUS
 62
    7
 10
656.27939520407517
 20
29.228690489982682
 11
657.77939520407517
 21
30.828690489982591
  0
LINE
  8
_0-0_
  6
CONTINUOUS
 62
    7
 10
659.27939520407517
 20
30.828690489982591
 11
659.27939520407517
 21
22.328690489982364
  0
LINE
  8
_0-0_
  6
CONTINUOUS
 62
    7
 10
656.27939520407517
 20
29.228690489982682
 11
617.27939520407517
 21
29.228690489982682
  0
LINE
  8
_0-0_
  6
CONTINUOUS
 62
    7
 10
617.27939520407517
 20
29.228690489982682
 11
615.77939520407517
 21
30.828690489982591
  0
LINE
  8
_0-0_
  6
CONTINUOUS
 62
    7
 10
607.27939520407517
 20
30.828690489982591
 11
666.27939520407517
 21
30.828690489982591
  0
LINE
  8
_0-0_
  6
CONTINUOUS
 62
    7
 10
669.27939520407517
 20
33.828690489982364
 11
669.27939520407517
 21
67.828690489982364
  0
LINE
  8
_0-0_
  6
CONTINUOUS
 62
    7
 10
666.27939520407517
 20
70.828690489982364
 11
607.27939520407517
 21
70.828690489982364
  0
LINE
  8
_0-0_
  6
CONTINUOUS
 62
    7
 10
604.27939520407517
 20
67.828690489982364
 11
604.27939520407517
 21
33.828690489982591
  0
LINE
  8
_0-0_
  6
CONTINUOUS
 62
    7
 10
641.67939520407572
 20
23.578134989982118
 11
641.67939520407572
 21
18.723583489982502
  0
LINE
  8
_0-0_
  6
CONTINUOUS
 62
    7
 10
645.02939520407517
 20
17.828690489982364
 11
646.57939520407535
 21
18.723583489982502
  0
LINE
  8
_0-0_
  6
CONTINUOUS
 62
    7
 10
646.57939520407535
 20
18.723583489982502
 11
646.57939520407535
 21
23.578134989982118
  0
LINE
  8
_0-0_
  6
CONTINUOUS
 62
    7
 10
646.57939520407535
 20
23.578134989982118
 11
645.27939520407517
 21
24.328690489982364
  0
LINE
  8
_0-0_
  6
CONTINUOUS
 62
    7
 10
645.02939520407517
 20
17.828690489982364
 11
645.02939520407517
 21
17.078690489982364
  0
LINE
  8
_0-0_
  6
CONTINUOUS
 62
    7
 10
645.27939520407517
 20
78.328690489982137
 11
645.27939520407517
 21
77.328690489982591
  0
LINE
  8
_0-0_
  6
CONTINUOUS
 62
    7
 10
645.27939520407517
 20
78.328690489982137
 11
630.91052167378393
 21
78.328690489982137
  0
LINE
  8
_0-0_
  6
CONTINUOUS
 62
    7
 10
617.27939520407517
 20
72.428690489982273
 11
615.77939520407517
 21
70.828690489982364
  0
LINE
  8
_0-0_
  6
CONTINUOUS
 62
    7
 10
569.27939520407517
 20
84.328690489982364
 11
654.27939520407517
 21
84.328690489982364
  0
LINE
  8
_0-0_
  6
CONTINUOUS
 62
    7
 10
569.27939520407517
 20
17.328690489982364
 11
654.27939520407517
 21
17.328690489982364
  0
LINE
  8
_0-0_
  6
CONTINUOUS
 62
    7
 10
641.77939520407517
 20
13.028691252921817
 11
641.07939539481004
 21
12.328690489982364
  0
LINE
  8
_0-0_
  6
CONTINUOUS
 62
    7
 10
564.27939520407517
 20
22.328690489982364
 11
564.27939520407517
 21
79.328690489982364
  0
LINE
  8
_0-0_
  6
CONTINUOUS
 62
    7
 10
725.77939520407517
 20
27.772066196654805
 11
728.27939520407517
 21
29.215441903327473
  0
LINE
  8
_0-0_
  6
CONTINUOUS
 62
    7
 10
728.27939520407517
 20
29.215441903327473
 11
730.77939520407517
 21
27.772066196654805
  0
LINE
  8
_0-0_
  6
CONTINUOUS
 62
    7
 10
730.77939520407517
 20
27.772066196654805
 11
730.77939520407517
 21
24.885314783309468
  0
LINE
  8
_0-0_
  6
CONTINUOUS
 62
    7
 10
730.77939520407517
 20
24.885314783309468
 11
728.27939520407517
 21
23.4419390766368
  0
LINE
  8
_0-0_
  6
CONTINUOUS
 62
    7
 10
728.27939520407517
 20
23.4419390766368
 11
725.77939520407517
 21
24.885314783309468
  0
LINE
  8
_0-0_
  6
CONTINUOUS
 62
    7
 10
725.77939520407517
 20
24.885314783309468
 11
725.77939520407517
 21
27.772066196654805
  0
LINE
  8
_0-0_
  6
CONTINUOUS
 62
    7
 10
728.27939520407517
 20
89.215441903327473
 11
730.77939520407517
 21
87.772066196654805
  0
LINE
  8
_0-0_
  6
CONTINUOUS
 62
    7
 10
730.77939520407517
 20
87.772066196654805
 11
730.77939520407517
 21
84.885314783309468
  0
LINE
  8
_0-0_
  6
CONTINUOUS
 62
    7
 10
730.77939520407517
 20
84.885314783309468
 11
728.27939520407517
 21
83.4419390766368
  0
LINE
  8
_0-0_
  6
CONTINUOUS
 62
    7
 10
728.27939520407517
 20
83.4419390766368
 11
725.77939520407517
 21
84.885314783309468
  0
LINE
  8
_0-0_
  6
CONTINUOUS
 62
    7
 10
725.77939520407517
 20
84.885314783309468
 11
725.77939520407517
 21
87.772066196654805
  0
LINE
  8
_0-0_
  6
CONTINUOUS
 62
    7
 10
725.77939520407517
 20
87.772066196654805
 11
728.27939520407517
 21
89.215441903327473
  0
CIRCLE
  8
_0-0_
  6
CONTINUOUS
 62
    7
 10
636.27939520407517
 20
94.328690489982137
 40
3.4500000476837158
  0
CIRCLE
  8
_0-0_
  6
CONTINUOUS
 62
    7
 10
584.27939520407517
 20
94.328690489982137
 40
3.4500000476837158
  0
CIRCLE
  8
_0-0_
  6
CONTINUOUS
 62
    7
 10
633.27939520407517
 20
146.32869048998214
 40
5
  0
CIRCLE
  8
_0-0_
  6
CONTINUOUS
 62
    7
 10
573.27939520407517
 20
146.32869048998214
 40
5
  0
CIRCLE
  8
_0-0_
  6
CONTINUOUS
 62
    7
 10
728.27939520407517
 20
26.328690489982137
 40
5
  0
CIRCLE
  8
_0-0_
  6
CONTINUOUS
 62
    7
 10
728.27939520407517
 20
86.328690489982137
 40
5
  0
CIRCLE
  8
_0-0_
  6
CONTINUOUS
 62
    7
 10
697.27939520407517
 20
115.32869048998214
 40
10
  0
CIRCLE
  8
_0-0_
  6
CONTINUOUS
 62
    7
 10
697.27939520407517
 20
115.32869048998214
 40
30
  0
CIRCLE
  8
_0-0_
  6
CONTINUOUS
 62
    7
 10
575.27939520407517
 20
73.328690489982364
 40
6.5
  0
CIRCLE
  8
_0-0_
  6
CONTINUOUS
 62
    7
 10
575.27939520407517
 20
28.328690489982364
 40
6.5
  0
CIRCLE
  8
_0-0_
  6
CONTINUOUS
 62
    7
 10
584.27939520407517
 20
94.328690489982137
 40
4
  0
CIRCLE
  8
_0-0_
  6
CONTINUOUS
 62
    7
 10
636.27939520407517
 20
94.328690489982137
 40
4
  0
ARC
  8
_0-0_
  6
CONTINUOUS
 62
    7
 10
611.77939520407517
 20
50.828690489982364
 40
24
 50
64.158067236832395
 51
295.84193276316887
  0
ARC
  8
_0-0_
  6
CONTINUOUS
 62
    7
 10
666.27939520407517
 20
67.828690489982364
 40
3
 50
0
 51
90
  0
ARC
  8
_0-0_
  6
CONTINUOUS
 62
    7
 10
666.27939520407517
 20
33.828690489982364
 40
3
 50
270
 51
0
  0
ARC
  8
_0-0_
  6
CONTINUOUS
 62
    7
 10
569.27939520407517
 20
22.328690489982364
 40
5
 50
180
 51
270
  0
ARC
  8
_0-0_
  6
CONTINUOUS
 62
    7
 10
654.27939520407517
 20
22.328690489982364
 40
5
 50
270
 51
0
  0
ARC
  8
_0-0_
  6
CONTINUOUS
 62
    7
 10
569.27939520407517
 20
79.328690489982364
 40
5
 50
90
 51
180
  0
ARC
  8
_0-0_
  6
CONTINUOUS
 62
    7
 10
654.27939520407517
 20
79.328690489982364
 40
5
 50
0
 51
90
  0
ARC
  8
_0-0_
  6
CONTINUOUS
 62
    7
 10
644.27939520407517
 20
17.078690489982364
 40
0.75
 50
270
 51
0
  0
ARC
  8
_0-0_
  6
CONTINUOUS
 62
    7
 10
644.56474920407572
 20
22.807053989982023
 40
5
 50
234.75521999999998
 51
275.33214500000025
  0
ARC
  8
_0-0_
  6
CONTINUOUS
 62
    7
 10
637.48941020407574
 20
27.803452489981964
 40
10
 50
265.92848900000041
 51
294.77137600000009
  0
ARC
  8
_0-0_
  6
CONTINUOUS
 62
    7
 10
628.99404120407553
 20
22.807053989982023
 40
5
 50
264.66785500000015
 51
305.24478000000033
  0
ARC
  8
_0-0_
  6
CONTINUOUS
 62
    7
 10
629.27939520407517
 20
17.078690489982364
 40
0.75
 50
180
 51
270
  0
ARC
  8
_0-0_
  6
CONTINUOUS
 62
    7
 10
636.06938020407551
 20
27.803452489981964
 40
10
 50
245.22862400000025
 51
274.07151099999993
  0
ARC
  8
_0-0_
  6
CONTINUOUS
 62
    7
 10
637.76255370407534
 20
14.377137989982202
 40
10
 50
66.940665999999979
 51
84.357795678592126
  0
ARC
  8
_0-0_
  6
CONTINUOUS
 62
    7
 10
635.796236704075
 20
14.377137989982202
 40
10
 50
95.64220432140786
 51
113.05933399999994
  0
ARC
  8
_0-0_
  6
CONTINUOUS
 62
    7
 10
644.42838220407566
 20
19.401644989982287
 40
5
 50
99.799595538249221
 51
123.35311700000045
  0
ARC
  8
_0-0_
  6
CONTINUOUS
 62
    7
 10
607.27939520407517
 20
33.828690489982591
 40
3
 50
180
 51
270
  0
ARC
  8
_0-0_
  6
CONTINUOUS
 62
    7
 10
607.27939520407517
 20
67.828690489982364
 40
3
 50
90.000000000000028
 51
180
  0
ARC
  8
_0-0_
  6
CONTINUOUS
 62
    7
 10
648.27939520407517
 20
28.328690489982364
 40
5.5
 50
305.09680122758482
 51
313.34175822722233
  0
ARC
  8
_0-0_
  6
CONTINUOUS
 62
    7
 10
611.77939520407517
 20
50.828690489982364
 40
12
 50
128.68218745348943
 51
231.31781254651054
  0
ARC
  8
_0-0_
  6
CONTINUOUS
 62
    7
 10
611.77939520407517
 20
50.828690489982364
 40
21
 50
77.672305229046586
 51
282.32769477095388
  0
ARC
  8
_0-0_
  6
CONTINUOUS
 62
    7
 10
611.77939520407517
 20
50.828690489982364
 40
33.5
 50
52.283254907217547
 51
307.7167450927833
  0
ARC
  8
_0-0_
  6
CONTINUOUS
 62
    7
 10
611.77939520407517
 20
50.828690489982364
 40
30.300000000000001
 50
50.262103848460065
 51
309.73789615154118
  0
ARC
  8
_0-0_
  6
CONTINUOUS
 62
    7
 10
636.77939520407517
 20
71.297440491833413
 40
11.031249998148837
 50
39.597752697426472
 51
132.80001986930969
  0
ARC
  8
_0-0_
  6
CONTINUOUS
 62
    7
 10
629.13040820407559
 20
19.401644989982287
 40
5
 50
56.646882999999583
 51
61.135577346073767
  0
CIRCLE
  8
_0-0_
  6
CONTINUOUS
 62
    7
 10
697.27939520407517
 20
115.32869048998214
 40
26
  0
LINE
  8
_0-0_
  6
CONTINUOUS
 62
    7
 10
241.46214636682117
 20
16.71236887904729
 11
240.46214636682117
 21
17.71236887904729
  0
LINE
  8
_0-0_
  6
CONTINUOUS
 62
    7
 10
240.46214636682117
 20
17.71236887904729
 11
240.46214636682117
 21
165.71236887904729
  0
LINE
  8
_0-0_
  6
CONTINUOUS
 62
    7
 10
240.46214636682117
 20
165.71236887904729
 11
241.46214636682117
 21
166.71236887904729
  0
LINE
  8
_0-0_
  6
CONTINUOUS
 62
    7
 10
241.46214636682117
 20
166.71236887904729
 11
424.46214636682117
 21
166.71236887904729
  0
LINE
  8
_0-0_
  6
CONTINUOUS
 62
    7
 10
424.46214636682117
 20
166.71236887904729
 11
425.46214636682117
 21
165.71236887904729
  0
LINE
  8
_0-0_
  6
CONTINUOUS
 62
    7
 10
425.46214636682117
 20
165.71236887904729
 11
425.46214636682117
 21
17.71236887904729
  0
LINE
  8
_0-0_
  6
CONTINUOUS
 62
    7
 10
425.46214636682117
 20
17.71236887904729
 11
424.46214636682117
 21
16.71236887904729
  0
LINE
  8
_0-0_
  6
CONTINUOUS
 62
    7
 10
424.46214636682117
 20
16.71236887904729
 11
408.65847455042996
 21
16.71236887904729
  0
LINE
  8
_0-0_
  6
CONTINUOUS
 62
    7
 10
407.9266879419759
 20
16.516287248279923
 11
412.39052535799811
 21
17.712368879046835
  0
LINE
  8
_0-0_
  6
CONTINUOUS
 62
    7
 10
412.39052535799811
 20
17.712368879046835
 11
419.46214636682117
 21
17.712368879046835
  0
LINE
  8
_0-0_
  6
CONTINUOUS
 62
    7
 10
412.39052535799811
 20
84.712368879046835
 11
419.46214636682117
 21
84.712368879046835
  0
LINE
  8
_0-0_
  6
CONTINUOUS
 62
    7
 10
412.39052535799811
 20
84.712368879046835
 11
407.9266879419759
 21
85.908450509813747
  0
LINE
  8
_0-0_
  6
CONTINUOUS
 62
    7
 10
345.99760479166645
 20
85.908450509813747
 11
341.53376737564423
 21
84.712368879046835
  0
LINE
  8
_0-0_
  6
CONTINUOUS
 62
    7
 10
341.53376737564423
 20
84.712368879046835
 11
334.46214636682117
 21
84.712368879046835
  0
LINE
  8
_0-0_
  6
CONTINUOUS
 62
    7
 10
329.46214636682117
 20
79.712368879046835
 11
329.46214636682117
 21
22.712368879046835
  0
LINE
  8
_0-0_
  6
CONTINUOUS
 62
    7
 10
416.46214636682117
 20
26.980318102565661
 11
416.46214636682117
 21
30.444419655528918
  0
LINE
  8
_0-0_
  6
CONTINUOUS
 62
    7
 10
416.46214636682117
 20
30.444419655528918
 11
413.46214636682117
 21
32.176470432010547
  0
LINE
  8
_0-0_
  6
CONTINUOUS
 62
    7
 10
413.46214636682117
 20
32.176470432010547
 11
410.46214636682117
 21
30.444419655528918
  0
LINE
  8
_0-0_
  6
CONTINUOUS
 62
    7
 10
410.46214636682117
 20
30.444419655528918
 11
410.46214636682117
 21
26.980318102565661
  0
LINE
  8
_0-0_
  6
CONTINUOUS
 62
    7
 10
410.46214636682117
 20
26.980318102565661
 11
413.46214636682117
 21
25.248267326084033
  0
LINE
  8
_0-0_
  6
CONTINUOUS
 62
    7
 10
413.46214636682117
 20
25.248267326084033
 11
416.46214636682117
 21
26.980318102565661
  0
LINE
  8
_0-0_
  6
CONTINUOUS
 62
    7
 10
424.46214636682117
 20
22.712368879046835
 11
424.46214636682117
 21
79.712368879046835
  0
LINE
  8
_0-0_
  6
CONTINUOUS
 62
    7
 10
337.46214636682117
 20
75.444419655528918
 11
340.46214636682117
 21
77.176470432010547
  0
LINE
  8
_0-0_
  6
CONTINUOUS
 62
    7
 10
340.46214636682117
 20
77.176470432010547
 11
343.46214636682117
 21
75.444419655528918
  0
LINE
  8
_0-0_
  6
CONTINUOUS
 62
    7
 10
343.46214636682117
 20
75.444419655528918
 11
343.46214636682117
 21
71.980318102565661
  0
LINE
  8
_0-0_
  6
CONTINUOUS
 62
    7
 10
343.46214636682117
 20
71.980318102565661
 11
340.46214636682117
 21
70.248267326084033
  0
LINE
  8
_0-0_
  6
CONTINUOUS
 62
    7
 10
340.46214636682117
 20
70.248267326084033
 11
337.46214636682117
 21
71.980318102565661
  0
LINE
  8
_0-0_
  6
CONTINUOUS
 62
    7
 10
337.46214636682117
 20
71.980318102565661
 11
337.46214636682117
 21
75.444419655528918
  0
LINE
  8
_0-0_
  6
CONTINUOUS
 62
    7
 10
341.53376737564423
 20
17.712368879046835
 11
345.99760479166645
 21
16.516287248279923
  0
LINE
  8
_0-0_
  6
CONTINUOUS
 62
    7
 10
345.26581818321148
 20
16.71236887904729
 11
241.46214636682117
 21
16.71236887904729
  0
LINE
  8
_0-0_
  6
CONTINUOUS
 62
    7
 10
262.96214636682117
 20
28.155744585719958
 11
260.46214636682117
 21
29.599120292392627
  0
LINE
  8
_0-0_
  6
CONTINUOUS
 62
    7
 10
260.46214636682117
 20
29.599120292392627
 11
257.96214636682117
 21
28.155744585719958
  0
LINE
  8
_0-0_
  6
CONTINUOUS
 62
    7
 10
257.96214636682117
 20
28.155744585719958
 11
257.96214636682117
 21
25.268993172374621
  0
LINE
  8
_0-0_
  6
CONTINUOUS
 62
    7
 10
257.96214636682117
 20
25.268993172374621
 11
260.46214636682117
 21
23.825617465701953
  0
LINE
  8
_0-0_
  6
CONTINUOUS
 62
    7
 10
260.46214636682117
 20
23.825617465701953
 11
262.96214636682117
 21
25.268993172374621
  0
LINE
  8
_0-0_
  6
CONTINUOUS
 62
    7
 10
262.96214636682117
 20
25.268993172374621
 11
262.96214636682117
 21
28.155744585719958
  0
LINE
  8
_0-0_
  6
CONTINUOUS
 62
    7
 10
260.46214636682117
 20
89.599120292392627
 11
257.96214636682117
 21
88.155744585719958
  0
LINE
  8
_0-0_
  6
CONTINUOUS
 62
    7
 10
257.96214636682117
 20
88.155744585719958
 11
257.96214636682117
 21
85.268993172374621
  0
LINE
  8
_0-0_
  6
CONTINUOUS
 62
    7
 10
257.96214636682117
 20
85.268993172374621
 11
260.46214636682117
 21
83.825617465701953
  0
LINE
  8
_0-0_
  6
CONTINUOUS
 62
    7
 10
260.46214636682117
 20
83.825617465701953
 11
262.96214636682117
 21
85.268993172374621
  0
LINE
  8
_0-0_
  6
CONTINUOUS
 62
    7
 10
262.96214636682117
 20
85.268993172374621
 11
262.96214636682117
 21
88.155744585719958
  0
LINE
  8
_0-0_
  6
CONTINUOUS
 62
    7
 10
262.96214636682117
 20
88.155744585719958
 11
260.46214636682117
 21
89.599120292392627
  0
LINE
  8
_0-0_
  6
CONTINUOUS
 62
    7
 10
357.46214636682117
 20
72.812368879047426
 11
355.96214636682117
 21
71.212368879047517
  0
LINE
  8
_0-0_
  6
CONTINUOUS
 62
    7
 10
357.46214636682117
 20
72.812368879047426
 11
396.46214636682117
 21
72.812368879047426
  0
LINE
  8
_0-0_
  6
CONTINUOUS
 62
    7
 10
396.46214636682117
 20
72.812368879047426
 11
397.96214636682117
 21
71.212368879047517
  0
LINE
  8
_0-0_
  6
CONTINUOUS
 62
    7
 10
406.46214636682117
 20
71.212368879047517
 11
347.46214636682117
 21
71.212368879047517
  0
LINE
  8
_0-0_
  6
CONTINUOUS
 62
    7
 10
344.46214636682117
 20
68.212368879047517
 11
344.46214636682117
 21
34.212368879047062
  0
LINE
  8
_0-0_
  6
CONTINUOUS
 62
    7
 10
343.46214636682117
 20
30.444419655528918
 11
343.46214636682117
 21
26.980318102565661
  0
LINE
  8
_0-0_
  6
CONTINUOUS
 62
    7
 10
343.46214636682117
 20
26.980318102565661
 11
340.46214636682117
 21
25.248267326084033
  0
LINE
  8
_0-0_
  6
CONTINUOUS
 62
    7
 10
340.46214636682117
 20
25.248267326084033
 11
337.46214636682117
 21
26.980318102565661
  0
LINE
  8
_0-0_
  6
CONTINUOUS
 62
    7
 10
337.46214636682117
 20
26.980318102565661
 11
337.46214636682117
 21
30.444419655528918
  0
LINE
  8
_0-0_
  6
CONTINUOUS
 62
    7
 10
337.46214636682117
 20
30.444419655528918
 11
340.46214636682117
 21
32.176470432010547
  0
LINE
  8
_0-0_
  6
CONTINUOUS
 62
    7
 10
340.46214636682117
 20
32.176470432010547
 11
343.46214636682117
 21
30.444419655528918
  0
LINE
  8
_0-0_
  6
CONTINUOUS
 62
    7
 10
347.46214636682117
 20
31.212368879047062
 11
406.46214636682117
 21
31.212368879047062
  0
LINE
  8
_0-0_
  6
CONTINUOUS
 62
    7
 10
409.46214636682117
 20
34.212368879047062
 11
409.46214636682117
 21
68.212368879047517
  0
LINE
  8
_0-0_
  6
CONTINUOUS
 62
    7
 10
410.46214636682117
 20
71.980318102565661
 11
410.46214636682117
 21
75.444419655528918
  0
LINE
  8
_0-0_
  6
CONTINUOUS
 62
    7
 10
410.46214636682117
 20
75.444419655528918
 11
413.46214636682117
 21
77.176470432010547
  0
LINE
  8
_0-0_
  6
CONTINUOUS
 62
    7
 10
413.46214636682117
 20
77.176470432010547
 11
416.46214636682117
 21
75.444419655528918
  0
LINE
  8
_0-0_
  6
CONTINUOUS
 62
    7
 10
416.46214636682117
 20
75.444419655528918
 11
416.46214636682117
 21
71.980318102565661
  0
LINE
  8
_0-0_
  6
CONTINUOUS
 62
    7
 10
416.46214636682117
 20
71.980318102565661
 11
413.46214636682117
 21
70.248267326084033
  0
LINE
  8
_0-0_
  6
CONTINUOUS
 62
    7
 10
413.46214636682117
 20
70.248267326084033
 11
410.46214636682117
 21
71.980318102565661
  0
LINE
  8
_0-0_
  6
CONTINUOUS
 62
    7
 10
386.96214636682117
 20
72.812368879047426
 11
386.96214636682117
 21
74.512368879047244
  0
LINE
  8
_0-0_
  6
CONTINUOUS
 62
    7
 10
388.46214636682117
 20
75.01236887904679
 11
365.46214636682117
 21
75.01236887904679
  0
LINE
  8
_0-0_
  6
CONTINUOUS
 62
    7
 10
366.96214636682117
 20
74.512368879047244
 11
366.96214636682117
 21
72.812368879047426
  0
LINE
  8
_0-0_
  6
CONTINUOUS
 62
    7
 10
368.46214636682117
 20
78.212368879046835
 11
368.46214636682117
 21
79.212368879046835
  0
LINE
  8
_0-0_
  6
CONTINUOUS
 62
    7
 10
368.46214636682117
 20
79.212368879046835
 11
385.46214636594988
 21
79.212368879046835
  0
LINE
  8
_0-0_
  6
CONTINUOUS
 62
    7
 10
385.46214636594988
 20
79.212368879046835
 11
385.46214636594988
 21
78.212368879046835
  0
LINE
  8
_0-0_
  6
CONTINUOUS
 62
    7
 10
388.46214636682117
 20
78.212368879046835
 11
365.46214636682117
 21
78.212368879046835
  0
LINE
  8
_0-0_
  6
CONTINUOUS
 62
    7
 10
381.86214636682081
 20
23.461813379045907
 11
381.86214636682081
 21
18.607261879046291
  0
LINE
  8
_0-0_
  6
CONTINUOUS
 62
    7
 10
381.96214636682117
 20
16.212368879046153
 11
381.96214636682117
 21
12.912369641986288
  0
LINE
  8
_0-0_
  6
CONTINUOUS
 62
    7
 10
381.96214636682117
 20
12.912369641986288
 11
371.96214636682117
 21
12.912369641986288
  0
LINE
  8
_0-0_
  6
CONTINUOUS
 62
    7
 10
371.96214636682117
 20
12.912369641986288
 11
371.96214636682117
 21
16.212368879046153
  0
LINE
  8
_0-0_
  6
CONTINUOUS
 62
    7
 10
372.66214617608631
 20
16.212368879046153
 11
372.66214617608631
 21
12.212368879046835
  0
LINE
  8
_0-0_
  6
CONTINUOUS
 62
    7
 10
372.66214617608631
 20
12.212368879046835
 11
381.26214655755604
 21
12.212368879046835
  0
LINE
  8
_0-0_
  6
CONTINUOUS
 62
    7
 10
381.26214655755604
 20
12.212368879046835
 11
381.96214636682117
 21
12.912369641986288
  0
LINE
  8
_0-0_
  6
CONTINUOUS
 62
    7
 10
381.26214655755604
 20
12.212368879046835
 11
381.26214655755604
 21
16.212368879046153
  0
LINE
  8
_0-0_
  6
CONTINUOUS
 62
    7
 10
384.46214636682117
 20
16.212368879046153
 11
369.46214636682117
 21
16.212368879046153
  0
LINE
  8
_0-0_
  6
CONTINUOUS
 62
    7
 10
368.75503958563451
 20
16.71236887904729
 11
347.50877316897032
 21
16.71236887904729
  0
LINE
  8
_0-0_
  6
CONTINUOUS
 62
    7
 10
341.53376737564423
 20
17.712368879046835
 11
334.46214636682117
 21
17.712368879046835
  0
LINE
  8
_0-0_
  6
CONTINUOUS
 62
    7
 10
367.16214636682099
 20
18.607261879046291
 11
367.16214636682099
 21
23.461813379045907
  0
LINE
  8
_0-0_
  6
CONTINUOUS
 62
    7
 10
367.16214636682099
 20
23.461813379045907
 11
368.46214636682117
 21
24.212368879046835
  0
LINE
  8
_0-0_
  6
CONTINUOUS
 62
    7
 10
365.46214636682117
 20
24.212368879046835
 11
388.46214636682117
 21
24.212368879046835
  0
LINE
  8
_0-0_
  6
CONTINUOUS
 62
    7
 10
386.76214636682136
 20
23.461813379045907
 11
386.76214636682136
 21
18.607261879046291
  0
LINE
  8
_0-0_
  6
CONTINUOUS
 62
    7
 10
386.76214636682136
 20
18.607261879046291
 11
385.21214636682117
 21
17.712368879046153
  0
LINE
  8
_0-0_
  6
CONTINUOUS
 62
    7
 10
385.21214636682117
 20
17.712368879046153
 11
385.21214636682117
 21
16.962368879046153
  0
LINE
  8
_0-0_
  6
CONTINUOUS
 62
    7
 10
385.21214636682117
 20
16.71236887904729
 11
406.41551956467202
 21
16.71236887904729
  0
LINE
  8
_0-0_
  6
CONTINUOUS
 62
    7
 10
396.46214636682117
 20
29.612368879047153
 11
397.96214636682117
 21
31.212368879047062
  0
LINE
  8
_0-0_
  6
CONTINUOUS
 62
    7
 10
396.46214636682117
 20
29.612368879047153
 11
357.46214636682117
 21
29.612368879047153
  0
LINE
  8
_0-0_
  6
CONTINUOUS
 62
    7
 10
357.46214636682117
 20
29.612368879047153
 11
355.96214636682117
 21
31.212368879047062
  0
LINE
  8
_0-0_
  6
CONTINUOUS
 62
    7
 10
366.96214636682117
 20
29.612368879047153
 11
366.96214636682117
 21
27.912368879047335
  0
LINE
  8
_0-0_
  6
CONTINUOUS
 62
    7
 10
365.46214636682117
 20
27.41236887904688
 11
388.46214636682117
 21
27.41236887904688
  0
LINE
  8
_0-0_
  6
CONTINUOUS
 62
    7
 10
386.96214636682117
 20
27.912368879047335
 11
386.96214636682117
 21
29.612368879047153
  0
LINE
  8
_0-0_
  6
CONTINUOUS
 62
    7
 10
386.76214636682136
 20
23.461813379045907
 11
385.46214636682117
 21
24.212368879046835
  0
LINE
  8
_0-0_
  6
CONTINUOUS
 62
    7
 10
372.06214636682063
 20
23.461813379045907
 11
372.06214636682063
 21
18.607261879046291
  0
LINE
  8
_0-0_
  6
CONTINUOUS
 62
    7
 10
368.71214636682117
 20
17.712368879046153
 11
367.16214636682099
 21
18.607261879046291
  0
LINE
  8
_0-0_
  6
CONTINUOUS
 62
    7
 10
368.71214636682117
 20
17.712368879046153
 11
368.71214636682117
 21
16.962368879046153
  0
LINE
  8
_0-0_
  6
CONTINUOUS
 62
    7
 10
371.96214636682117
 20
12.912369641986288
 11
372.66214617608631
 21
12.212368879046835
  0
LINE
  8
_0-0_
  6
CONTINUOUS
 62
    7
 10
415.46214636682117
 20
149.59912029239263
 11
412.96214636682117
 21
148.15574458571996
  0
LINE
  8
_0-0_
  6
CONTINUOUS
 62
    7
 10
412.96214636682117
 20
148.15574458571996
 11
412.96214636682117
 21
145.26899317237462
  0
LINE
  8
_0-0_
  6
CONTINUOUS
 62
    7
 10
412.96214636682117
 20
145.26899317237462
 11
415.46214636682117
 21
143.82561746570195
  0
LINE
  8
_0-0_
  6
CONTINUOUS
 62
    7
 10
415.46214636682117
 20
143.82561746570195
 11
417.96214636682117
 21
145.26899317237462
  0
LINE
  8
_0-0_
  6
CONTINUOUS
 62
    7
 10
417.96214636682117
 20
145.26899317237462
 11
417.96214636682117
 21
148.15574458571996
  0
LINE
  8
_0-0_
  6
CONTINUOUS
 62
    7
 10
417.96214636682117
 20
148.15574458571996
 11
415.46214636682117
 21
149.59912029239263
  0
LINE
  8
_0-0_
  6
CONTINUOUS
 62
    7
 10
352.96214636682117
 20
145.26899317237462
 11
355.46214636682117
 21
143.82561746570195
  0
LINE
  8
_0-0_
  6
CONTINUOUS
 62
    7
 10
355.46214636682117
 20
143.82561746570195
 11
357.96214636682117
 21
145.26899317237462
  0
LINE
  8
_0-0_
  6
CONTINUOUS
 62
    7
 10
357.96214636682117
 20
145.26899317237462
 11
357.96214636682117
 21
148.15574458571996
  0
LINE
  8
_0-0_
  6
CONTINUOUS
 62
    7
 10
357.96214636682117
 20
148.15574458571996
 11
355.46214636682117
 21
149.59912029239263
  0
LINE
  8
_0-0_
  6
CONTINUOUS
 62
    7
 10
355.46214636682117
 20
149.59912029239263
 11
352.96214636682117
 21
148.15574458571996
  0
LINE
  8
_0-0_
  6
CONTINUOUS
 62
    7
 10
352.96214636682117
 20
148.15574458571996
 11
352.96214636682117
 21
145.26899317237462
  0
CIRCLE
  8
_0-0_
  6
CONTINUOUS
 62
    7
 10
352.46214636682117
 20
94.71236887904729
 40
3.4500000476837158
  0
CIRCLE
  8
_0-0_
  6
CONTINUOUS
 62
    7
 10
404.46214636682117
 20
94.71236887904729
 40
3.4500000476837158
  0
CIRCLE
  8
_0-0_
  6
CONTINUOUS
 62
    7
 10
352.46214636682117
 20
94.71236887904729
 40
4
  0
CIRCLE
  8
_0-0_
  6
CONTINUOUS
 62
    7
 10
404.46214636682117
 20
94.71236887904729
 40
4
  0
ARC
  8
_0-0_
  6
CONTINUOUS
 62
    7
 10
388.46214636682117
 20
-0.787631120953165
 40
25.000000000000011
 50
45.433456228523383
 51
90
  0
ARC
  8
_0-0_
  6
CONTINUOUS
 62
    7
 10
407.40904985177104
 20
18.448138900858112
 40
2
 50
225.43345622852218
 51
285.00000000000091
  0
ARC
  8
_0-0_
  6
CONTINUOUS
 62
    7
 10
419.46214636682117
 20
22.712368879046835
 40
5
 50
270
 51
0
  0
ARC
  8
_0-0_
  6
CONTINUOUS
 62
    7
 10
346.5152428818713
 20
18.448138900858112
 40
2
 50
254.99999999999901
 51
314.56654377147777
  0
ARC
  8
_0-0_
  6
CONTINUOUS
 62
    7
 10
365.46214636682117
 20
-0.787631120953165
 40
25.000000000000007
 50
90
 51
134.56654377147663
  0
ARC
  8
_0-0_
  6
CONTINUOUS
 62
    7
 10
334.46214636682117
 20
22.712368879046835
 40
5
 50
180
 51
270
  0
ARC
  8
_0-0_
  6
CONTINUOUS
 62
    7
 10
407.40904985177104
 20
83.976598857235558
 40
2
 50
74.999999999999019
 51
134.5665437714778
  0
ARC
  8
_0-0_
  6
CONTINUOUS
 62
    7
 10
419.46214636682117
 20
79.712368879046835
 40
5
 50
0
 51
90
  0
ARC
  8
_0-0_
  6
CONTINUOUS
 62
    7
 10
346.5152428818713
 20
83.976598857235558
 40
2
 50
45.433456228522189
 51
105.00000000000098
  0
ARC
  8
_0-0_
  6
CONTINUOUS
 62
    7
 10
334.46214636682117
 20
79.712368879046835
 40
5
 50
90
 51
180
  0
ARC
  8
_0-0_
  6
CONTINUOUS
 62
    7
 10
406.46214636682117
 20
34.212368879047062
 40
3
 50
270
 51
0
  0
ARC
  8
_0-0_
  6
CONTINUOUS
 62
    7
 10
347.46214636682117
 20
68.212368879047517
 40
3
 50
90
 51
180
  0
ARC
  8
_0-0_
  6
CONTINUOUS
 62
    7
 10
347.46214636682117
 20
34.212368879047062
 40
3
 50
180
 51
270
  0
ARC
  8
_0-0_
  6
CONTINUOUS
 62
    7
 10
376.96214636682117
 20
72.181118880898111
 40
11.031249998148837
 50
39.597752704524432
 51
140.4022473025735
  0
ARC
  8
_0-0_
  6
CONTINUOUS
 62
    7
 10
365.46214636682117
 20
103.21236887904683
 40
25.000000000000007
 50
225.43345622852337
 51
270
  0
ARC
  8
_0-0_
  6
CONTINUOUS
 62
    7
 10
388.46214636682117
 20
103.21236887904683
 40
25.000000000000011
 50
270
 51
314.56654377147657
  0
ARC
  8
_0-0_
  6
CONTINUOUS
 62
    7
 10
365.46214636682117
 20
103.21236887904683
 40
28.200000000000006
 50
219.46016893331299
 51
270
  0
ARC
  8
_0-0_
  6
CONTINUOUS
 62
    7
 10
388.46214636682117
 20
103.21236887904683
 40
28.200000000000006
 50
270
 51
320.53983106668738
  0
ARC
  8
_0-0_
  6
CONTINUOUS
 62
    7
 10
369.46214636682117
 20
16.962368879046153
 40
0.75
 50
180
 51
270
  0
ARC
  8
_0-0_
  6
CONTINUOUS
 62
    7
 10
369.17679236682062
 20
22.690732379046267
 40
5
 50
264.66785499999975
 51
305.24477999999993
  0
ARC
  8
_0-0_
  6
CONTINUOUS
 62
    7
 10
376.25213136682061
 20
27.687130879046208
 40
10
 50
245.22862399999991
 51
274.07151099999959
  0
ARC
  8
_0-0_
  6
CONTINUOUS
 62
    7
 10
384.74750036682082
 20
22.690732379046267
 40
5
 50
234.75521999999967
 51
275.33214499999985
  0
ARC
  8
_0-0_
  6
CONTINUOUS
 62
    7
 10
384.46214636682117
 20
16.962368879046153
 40
0.75
 50
270
 51
0
  0
ARC
  8
_0-0_
  6
CONTINUOUS
 62
    7
 10
377.67216136682083
 20
27.687130879046208
 40
10
 50
265.92848900000001
 51
294.77137599999969
  0
ARC
  8
_0-0_
  6
CONTINUOUS
 62
    7
 10
375.978987866821
 20
14.260816379046673
 40
10
 50
95.64220432140786
 51
113.05933400000004
  0
ARC
  8
_0-0_
  6
CONTINUOUS
 62
    7
 10
377.94530486682135
 20
14.260816379046673
 40
10
 50
66.94066600000005
 51
84.357795678592126
  0
ARC
  8
_0-0_
  6
CONTINUOUS
 62
    7
 10
384.61113336682075
 20
19.285323379046758
 40
5
 50
99.799595538249349
 51
123.35311700000041
  0
ARC
  8
_0-0_
  6
CONTINUOUS
 62
    7
 10
369.31315936682068
 20
19.285323379046758
 40
5
 50
56.646882999999548
 51
80.200404461750779
  0
ARC
  8
_0-0_
  6
CONTINUOUS
 62
    7
 10
365.46214636682117
 20
-0.787631120953165
 40
28.200000000000006
 50
90.000000000000028
 51
140.53983106668704
  0
ARC
  8
_0-0_
  6
CONTINUOUS
 62
    7
 10
388.46214636682117
 20
-0.787631120953165
 40
28.200000000000006
 50
39.460168933312772
 51
89.999999999999986
  0
ARC
  8
_0-0_
  6
CONTINUOUS
 62
    7
 10
406.46214636682117
 20
68.212368879047517
 40
2.9999999999999996
 50
0.0000000000000127
 51
90.000000000000014
  0
ARC
  8
_0-0_
  6
CONTINUOUS
 62
    7
 10
340.46214636682117
 20
28.71236887904729
 40
6.5
 50
51.724085912436863
 51
24.590367262298173
  0
ARC
  8
_0-0_
  6
CONTINUOUS
 62
    7
 10
340.46214636682117
 20
73.71236887904729
 40
6.5
 50
335.40963273770183
 51
308.27591408756308
  0
ARC
  8
_0-0_
  6
CONTINUOUS
 62
    7
 10
413.46214636682117
 20
73.71236887904729
 40
6.5
 50
231.72408591244124
 51
204.59036726229593
  0
ARC
  8
_0-0_
  6
CONTINUOUS
 62
    7
 10
413.46214636682117
 20
28.71236887904729
 40
6.5
 50
155.40963273770404
 51
128.2759140875587
  0
CIRCLE
  8
_0-0_
  6
CONTINUOUS
 62
    7
 10
291.46214636682117
 20
115.71236887904729
 40
30
  0
CIRCLE
  8
_0-0_
  6
CONTINUOUS
 62
    7
 10
291.46214636682117
 20
115.71236887904729
 40
26
  0
CIRCLE
  8
_0-0_
  6
CONTINUOUS
 62
    7
 10
291.46214636682117
 20
115.71236887904729
 40
10
  0
CIRCLE
  8
_0-0_
  6
CONTINUOUS
 62
    7
 10
415.46214636682117
 20
146.71236887904729
 40
5
  0
CIRCLE
  8
_0-0_
  6
CONTINUOUS
 62
    7
 10
355.46214636682117
 20
146.71236887904729
 40
5
  0
CIRCLE
  8
_0-0_
  6
CONTINUOUS
 62
    7
 10
260.46214636682117
 20
86.71236887904729
 40
5
  0
CIRCLE
  8
_0-0_
  6
CONTINUOUS
 62
    7
 10
260.46214636682117
 20
26.71236887904729
 40
5
  0
LINE
  8
_0-1_
  6
CENTER1
 62
  152
 10
633.27939520407517
 20
153.73400354685964
 11
633.27939520407517
 21
138.49491757924238
  0
LINE
  8
_0-1_
  6
CENTER1
 62
  152
 10
644.9562185233749
 20
146.32869048998214
 11
566.45342814125206
 21
146.32869048998214
  0
LINE
  8
_0-1_
  6
CENTER1
 62
  152
 10
573.27939520407517
 20
138.49491757924238
 11
573.27939520407517
 21
154.05029611469104
  0
LINE
  8
_0-1_
  6
CENTER1
 62
  152
 10
577.12475264899467
 20
94.328690489982137
 11
643.22454460603103
 21
94.328690489982137
  0
LINE
  8
_0-1_
  6
CENTER1
 62
  152
 10
636.27939520407517
 20
100.68141062408108
 11
636.27939520407517
 21
86.593148332685359
  0
LINE
  8
_0-1_
  6
CENTER1
 62
  152
 10
611.77939520407517
 20
22.328690489982364
 11
611.77939520407517
 21
79.328690489982364
  0
LINE
  8
_0-1_
  6
CENTER1
 62
  152
 10
654.79505916975859
 20
73.328690489982364
 11
568.49061781976843
 21
73.328690489982364
  0
LINE
  8
_0-1_
  6
CENTER1
 62
  152
 10
575.27939520407517
 20
79.178291812605039
 11
575.27939520407517
 21
22.573267680215395
  0
LINE
  8
_0-1_
  6
CENTER1
 62
  152
 10
569.58746541683786
 20
28.328690489982364
 11
654.79505916975859
 21
28.328690489982364
  0
LINE
  8
_0-1_
  6
CENTER1
 62
  152
 10
648.27939520407517
 20
20.569550011812225
 11
648.27939520407517
 21
80.681080063907302
  0
LINE
  8
_0-1_
  6
CENTER1
 62
  152
 10
584.27939520407517
 20
86.593148332685359
 11
584.27939520407517
 21
100.68141062408108
  0
LINE
  8
_0-1_
  6
CENTER1
 62
  152
 10
669.27939520407517
 20
50.828690489982364
 11
569.58746541683786
 21
50.828690489982364
  0
LINE
  8
_0-1_
  6
CENTER1
 62
  152
 10
737.12174507477857
 20
26.328690489982137
 11
720.44562229333542
 21
26.328690489982137
  0
LINE
  8
_0-1_
  6
CENTER1
 62
  152
 10
728.27939520407517
 20
19.540721939811192
 11
728.27939520407517
 21
93.299995370444776
  0
LINE
  8
_0-1_
  6
CENTER1
 62
  152
 10
720.44562229333542
 20
86.328690489982137
 11
737.23097488655685
 21
86.328690489982137
  0
ARC
  8
_0-1_
  6
CENTER1
 62
  152
 10
611.77939520407517
 20
50.828690489982364
 40
59.960403601043033
 50
16.470428439608629
 51
77.969201557181719
  0
LINE
  8
_0-1_
  6
CENTER1
 62
  152
 10
413.46214636682117
 20
20.459928575856566
 11
413.46214636682117
 21
81.999635303387777
  0
LINE
  8
_0-1_
  6
CENTER1
 62
  152
 10
404.46214636682117
 20
88.359648745047252
 11
404.46214636682117
 21
101.06508901314601
  0
LINE
  8
_0-1_
  6
CENTER1
 62
  152
 10
411.61678892190167
 20
94.71236887904729
 11
345.5169969648644
 21
94.71236887904729
  0
LINE
  8
_0-1_
  6
CENTER1
 62
  152
 10
332.76008341558492
 20
28.71236887904729
 11
421.38400101222879
 21
28.71236887904729
  0
LINE
  8
_0-1_
  6
CENTER1
 62
  152
 10
421.38400101222879
 20
73.71236887904729
 11
333.94648240113776
 21
73.71236887904729
  0
LINE
  8
_0-1_
  6
CENTER1
 62
  152
 10
340.46214636682117
 20
80.065089013146007
 11
340.46214636682117
 21
20.459928575856566
  0
LINE
  8
_0-1_
  6
CENTER1
 62
  152
 10
251.61979649611777
 20
26.71236887904729
 11
268.29591927756093
 21
26.71236887904729
  0
LINE
  8
_0-1_
  6
CENTER1
 62
  152
 10
260.46214636682117
 20
19.924400328876345
 11
260.46214636682117
 21
93.683673759509929
  0
LINE
  8
_0-1_
  6
CENTER1
 62
  152
 10
268.29591927756093
 20
86.71236887904729
 11
251.51056668433858
 21
86.71236887904729
  0
LINE
  8
_0-1_
  6
CENTER1
 62
  152
 10
352.46214636682117
 20
101.06508901314601
 11
352.46214636682117
 21
88.359648745047252
  0
LINE
  8
_0-1_
  6
CENTER1
 62
  152
 10
333.94648240113776
 20
51.21236887904729
 11
419.15407615405849
 21
51.21236887904729
  0
LINE
  8
_0-1_
  6
CENTER1
 62
  152
 10
415.46214636682117
 20
138.87859596830754
 11
415.46214636682117
 21
154.43397450375596
  0
LINE
  8
_0-1_
  6
CENTER1
 62
  152
 10
422.28811342964428
 20
146.71236887904729
 11
343.78532304752054
 21
146.71236887904729
  0
LINE
  8
_0-1_
  6
CENTER1
 62
  152
 10
355.46214636682117
 20
138.87859596830754
 11
355.46214636682117
 21
154.11768193592479
  0
LINE
  8
_0-1_
  6
CENTER1
 62
  152
 10
727.27939520407517
 20
115.32869048998214
 11
683.90253807210456
 21
115.32869048998214
  0
LINE
  8
_0-1_
  6
CENTER1
 62
  152
 10
697.27939520407517
 20
85.328690489982137
 11
697.27939520407517
 21
145.32869048998214
  0
LINE
  8
_0-1_
  6
CENTER1
 62
  152
 10
261.46214636682117
 20
115.71236887904729
 11
321.46214636682117
 21
115.71236887904729
  0
LINE
  8
_0-1_
  6
CENTER1
 62
  152
 10
291.46214636682117
 20
85.71236887904729
 11
291.46214636682117
 21
145.71236887904729
  0
LINE
  8
_0-1_
  6
CENTER1
 62
  152
 10
636.77939520407517
 20
82.32869048998225
 11
636.77939520407517
 21
12.328690489982364
  0
LINE
  8
_0-1_
  6
CENTER1
 62
  152
 10
376.96214636682117
 20
83.212368879046949
 11
376.96214636682117
 21
12.212368879046835
  0
LINE
  8
_0-0_
  6
CONTINUOUS
 62
    7
 10
580.4265020424823
 20
306.22383357446461
 11
580.4265020424823
 21
305.28383357684879
  0
LINE
  8
_0-0_
  6
CONTINUOUS
 62
    7
 10
580.4265020424823
 20
305.28383357684879
 11
567.54650192804138
 21
305.28383357684879
  0
LINE
  8
_0-0_
  6
CONTINUOUS
 62
    7
 10
567.54650192804138
 20
305.28383357684879
 11
567.54650192804138
 21
306.22383357446461
  0
LINE
  8
_0-0_
  6
CONTINUOUS
 62
    7
 10
568.98650198526184
 20
305.28383357684879
 11
568.98650198526184
 21
298.38383342187672
  0
LINE
  8
_0-0_
  6
CONTINUOUS
 62
    7
 10
568.98650198526184
 20
298.38383342187672
 11
569.58650188989441
 21
297.78383399408131
  0
LINE
  8
_0-0_
  6
CONTINUOUS
 62
    7
 10
569.58650188989441
 20
297.78383399408131
 11
578.38650208062927
 21
297.78383399408131
  0
LINE
  8
_0-0_
  6
CONTINUOUS
 62
    7
 10
578.38650208062927
 20
297.78383399408131
 11
578.98650198526184
 21
298.38383342187672
  0
LINE
  8
_0-0_
  6
CONTINUOUS
 62
    7
 10
578.98650198526184
 20
298.38383342187672
 11
578.98650198526184
 21
305.28383357684879
  0
LINE
  8
_0-0_
  6
CONTINUOUS
 62
    7
 10
578.98650198526184
 20
303.78383351724415
 11
568.98650198526184
 21
303.78383351724415
  0
LINE
  8
_0-0_
  6
CONTINUOUS
 62
    7
 10
573.55348929114143
 20
303.78383351724415
 11
574.41951467938225
 21
305.28383357684879
  0
LINE
  8
_0-0_
  6
CONTINUOUS
 62
    7
 10
575.86150198526184
 20
303.78383351724415
 11
575.86150198526184
 21
298.38383342187672
  0
LINE
  8
_0-0_
  6
CONTINUOUS
 62
    7
 10
576.48650198526184
 20
298.38383342187672
 11
576.48650198526184
 21
303.78383351724415
  0
LINE
  8
_0-0_
  6
CONTINUOUS
 62
    7
 10
577.11150198526184
 20
303.78383351724415
 11
577.11150198526184
 21
298.38383342187672
  0
LINE
  8
_0-0_
  6
CONTINUOUS
 62
    7
 10
577.73650198526184
 20
298.38383342187672
 11
577.73650198526184
 21
303.78383351724415
  0
LINE
  8
_0-0_
  6
CONTINUOUS
 62
    7
 10
578.36150198526184
 20
303.78383351724415
 11
578.36150198526184
 21
298.38383342187672
  0
LINE
  8
_0-0_
  6
CONTINUOUS
 62
    7
 10
578.98650198526184
 20
298.38383342187672
 11
568.98650198526184
 21
298.38383342187672
  0
LINE
  8
_0-0_
  6
CONTINUOUS
 62
    7
 10
640.4265020424823
 20
306.22383357446461
 11
640.4265020424823
 21
305.28383357684879
  0
LINE
  8
_0-0_
  6
CONTINUOUS
 62
    7
 10
640.4265020424823
 20
305.28383357684879
 11
627.54650192804138
 21
305.28383357684879
  0
LINE
  8
_0-0_
  6
CONTINUOUS
 62
    7
 10
627.54650192804138
 20
305.28383357684879
 11
627.54650192804138
 21
306.22383357446461
  0
LINE
  8
_0-0_
  6
CONTINUOUS
 62
    7
 10
628.98650198526184
 20
305.28383357684879
 11
628.98650198526184
 21
298.38383342187672
  0
LINE
  8
_0-0_
  6
CONTINUOUS
 62
    7
 10
628.98650198526184
 20
298.38383342187672
 11
629.58650188989441
 21
297.78383399408131
  0
LINE
  8
_0-0_
  6
CONTINUOUS
 62
    7
 10
629.58650188989441
 20
297.78383399408131
 11
638.38650208062927
 21
297.78383399408131
  0
LINE
  8
_0-0_
  6
CONTINUOUS
 62
    7
 10
638.38650208062927
 20
297.78383399408131
 11
638.98650198526184
 21
298.38383342187672
  0
LINE
  8
_0-0_
  6
CONTINUOUS
 62
    7
 10
638.98650198526184
 20
298.38383342187672
 11
628.98650198526184
 21
298.38383342187672
  0
LINE
  8
_0-0_
  6
CONTINUOUS
 62
    7
 10
628.98650198526184
 20
303.78383351724415
 11
638.98650198526184
 21
303.78383351724415
  0
LINE
  8
_0-0_
  6
CONTINUOUS
 62
    7
 10
638.36150198526184
 20
303.78383351724415
 11
638.36150198526184
 21
298.38383342187672
  0
LINE
  8
_0-0_
  6
CONTINUOUS
 62
    7
 10
638.98650198526184
 20
298.38383342187672
 11
638.98650198526184
 21
305.28383357684879
  0
LINE
  8
_0-0_
  6
CONTINUOUS
 62
    7
 10
637.73650198526184
 20
303.78383351724415
 11
637.73650198526184
 21
298.38383342187672
  0
LINE
  8
_0-0_
  6
CONTINUOUS
 62
    7
 10
637.11150198526184
 20
298.38383342187672
 11
637.11150198526184
 21
303.78383351724415
  0
LINE
  8
_0-0_
  6
CONTINUOUS
 62
    7
 10
636.48650198526184
 20
303.78383351724415
 11
636.48650198526184
 21
298.38383342187672
  0
LINE
  8
_0-0_
  6
CONTINUOUS
 62
    7
 10
635.86150198526184
 20
298.38383342187672
 11
635.86150198526184
 21
303.78383351724415
  0
LINE
  8
_0-0_
  6
CONTINUOUS
 62
    7
 10
633.55348929114143
 20
303.78383351724415
 11
634.41951467938225
 21
305.28383357684879
  0
LINE
  8
_0-0_
  6
CONTINUOUS
 62
    7
 10
640.48006775315321
 20
297.55372289978754
 11
640.48759913655749
 21
297.77938912996393
  0
LINE
  8
_0-0_
  6
CONTINUOUS
 62
    7
 10
640.35724354957642
 20
298.12973668843989
 11
640.48759913657432
 21
297.77938912996467
  0
LINE
  8
_0-0_
  6
CONTINUOUS
 62
    7
 10
886.03259210321994
 20
306.22383357446461
 11
953.03259210321994
 21
306.22383357446461
  0
LINE
  8
_0-0_
  6
CONTINUOUS
 62
    7
 10
953.03259210321994
 20
306.22383357446461
 11
953.03259210321994
 21
302.22383357446461
  0
LINE
  8
_0-0_
  6
CONTINUOUS
 62
    7
 10
953.03259210321994
 20
302.22383357446461
 11
886.03259210321994
 21
302.22383357446461
  0
LINE
  8
_0-0_
  6
CONTINUOUS
 62
    7
 10
886.03259210321994
 20
302.22383357446461
 11
886.03259210321994
 21
306.22383357446461
  0
LINE
  8
_0-0_
  6
CONTINUOUS
 62
    7
 10
890.82438817072034
 20
297.77938912996387
 11
948.24079603571954
 21
297.77938912996387
  0
LINE
  8
_0-0_
  6
CONTINUOUS
 62
    7
 10
948.53259210321994
 20
296.00161135216467
 11
890.53259210321994
 21
296.00161135216467
  0
LINE
  8
_0-0_
  6
CONTINUOUS
 62
    7
 10
890.53259210321994
 20
296.00161135216467
 11
890.53259210321994
 21
294.22383357436456
  0
LINE
  8
_0-0_
  6
CONTINUOUS
 62
    7
 10
890.53259210321994
 20
294.22383357436456
 11
948.53259210321994
 21
294.22383357436456
  0
LINE
  8
_0-0_
  6
CONTINUOUS
 62
    7
 10
948.53259210321994
 20
294.22383357436456
 11
948.53259210321994
 21
296.00161135216467
  0
LINE
  8
_0-0_
  6
CONTINUOUS
 62
    7
 10
947.03259210321994
 20
292.22383357446461
 11
892.03259210321994
 21
292.22383357446461
  0
LINE
  8
_0-0_
  6
CONTINUOUS
 62
    7
 10
886.03259210321994
 20
286.22383357446461
 11
886.03259210321994
 21
241.89865686505573
  0
LINE
  8
_0-0_
  6
CONTINUOUS
 62
    7
 10
958.03259210321994
 20
249.02383376519947
 11
954.03259210321994
 21
249.02383376519947
  0
LINE
  8
_0-0_
  6
CONTINUOUS
 62
    7
 10
954.03259210321994
 20
249.72383357446461
 11
957.33259134028049
 21
249.72383357446461
  0
LINE
  8
_0-0_
  6
CONTINUOUS
 62
    7
 10
957.33259134028049
 20
249.72383357446461
 11
957.33259134028049
 21
239.72383357446461
  0
LINE
  8
_0-0_
  6
CONTINUOUS
 62
    7
 10
957.33259134028049
 20
239.72383357446461
 11
954.03259210321994
 21
239.72383357446461
  0
LINE
  8
_0-0_
  6
CONTINUOUS
 62
    7
 10
954.03259210321994
 20
240.42383338372974
 11
958.03259210321994
 21
240.42383338372974
  0
LINE
  8
_0-0_
  6
CONTINUOUS
 62
    7
 10
958.03259210321994
 20
240.42383338372974
 11
957.33259134028049
 21
239.72383357446461
  0
LINE
  8
_0-0_
  6
CONTINUOUS
 62
    7
 10
958.03259210321994
 20
240.42383338372974
 11
958.03259210321994
 21
249.02383376519947
  0
LINE
  8
_0-0_
  6
CONTINUOUS
 62
    7
 10
958.03259210321994
 20
249.02383376519947
 11
957.33259134028049
 21
249.72383357446461
  0
LINE
  8
_0-0_
  6
CONTINUOUS
 62
    7
 10
951.63769910322026
 20
249.62383357446515
 11
946.78314760322064
 21
249.62383357446515
  0
LINE
  8
_0-0_
  6
CONTINUOUS
 62
    7
 10
946.03259210321994
 20
253.22383357446461
 11
946.78314760322064
 21
254.52383357446479
  0
LINE
  8
_0-0_
  6
CONTINUOUS
 62
    7
 10
946.78314760322064
 20
254.52383357446479
 11
951.63769910322026
 21
254.52383357446479
  0
LINE
  8
_0-0_
  6
CONTINUOUS
 62
    7
 10
951.63769910322026
 20
254.52383357446479
 11
952.53259210321994
 21
252.97383357446461
  0
LINE
  8
_0-0_
  6
CONTINUOUS
 62
    7
 10
952.53259210321994
 20
252.97383357446461
 11
953.28259210321994
 21
252.97383357446461
  0
LINE
  8
_0-0_
  6
CONTINUOUS
 62
    7
 10
953.03259210321994
 20
252.97383357446461
 11
953.03259210321994
 21
286.22383357446461
  0
LINE
  8
_0-0_
  6
CONTINUOUS
 62
    7
 10
940.83259210322012
 20
277.7236566293227
 11
940.83259210322012
 21
273.72383357446461
  0
LINE
  8
_0-0_
  6
CONTINUOUS
 62
    7
 10
941.10054129565106
 20
272.72383357446461
 11
942.56464291078828
 21
270.18793518960183
  0
LINE
  8
_0-0_
  6
CONTINUOUS
 62
    7
 10
942.83259210322012
 20
269.18793518960183
 11
942.83259210322012
 21
229.22383357446461
  0
LINE
  8
_0-0_
  6
CONTINUOUS
 62
    7
 10
942.83259210322012
 20
229.22383357446461
 11
946.03259210321994
 21
229.22383357446461
  0
LINE
  8
_0-0_
  6
CONTINUOUS
 62
    7
 10
946.03259210321994
 20
229.22383357446461
 11
946.03259210321994
 21
269.18793518960183
  0
LINE
  8
_0-0_
  6
CONTINUOUS
 62
    7
 10
945.76464291078901
 20
270.18793518960183
 11
942.83259210322012
 21
275.26639615868453
  0
LINE
  8
_0-0_
  6
CONTINUOUS
 62
    7
 10
942.83259210322012
 20
275.26639615868453
 11
942.83259210322012
 21
275.66647895036067
  0
LINE
  8
_0-0_
  6
CONTINUOUS
 62
    7
 10
939.53259210321994
 20
274.22383357446461
 11
939.53259210321994
 21
215.22383357446461
  0
LINE
  8
_0-0_
  6
CONTINUOUS
 62
    7
 10
936.53259210321994
 20
212.22383357446438
 11
902.53259210321994
 21
212.22383357446438
  0
LINE
  8
_0-0_
  6
CONTINUOUS
 62
    7
 10
899.53259210321994
 20
215.22383357446461
 11
899.53259210321994
 21
274.22383357446461
  0
LINE
  8
_0-0_
  6
CONTINUOUS
 62
    7
 10
898.23259210321976
 20
273.72383357446461
 11
898.23259210321976
 21
277.7236566293227
  0
LINE
  8
_0-0_
  6
CONTINUOUS
 62
    7
 10
896.23259210321976
 20
277.22383357446461
 11
896.23259210321976
 21
275.8022945435473
  0
LINE
  8
_0-0_
  6
CONTINUOUS
 62
    7
 10
895.96464291078883
 20
274.8022945435473
 11
893.30054129565087
 21
270.18793518960183
  0
LINE
  8
_0-0_
  6
CONTINUOUS
 62
    7
 10
893.03259210321994
 20
269.18793518960183
 11
893.03259210321994
 21
229.22383357446461
  0
LINE
  8
_0-0_
  6
CONTINUOUS
 62
    7
 10
893.03259210321994
 20
229.22383357446461
 11
888.0290738135709
 21
235.90335078552607
  0
LINE
  8
_0-0_
  6
CONTINUOUS
 62
    7
 10
892.03259210321994
 20
236.22383357533499
 11
892.03259210321994
 21
253.22383357446461
  0
LINE
  8
_0-0_
  6
CONTINUOUS
 62
    7
 10
892.03259210321994
 20
253.22383357446461
 11
893.03259210321994
 21
253.22383357446461
  0
LINE
  8
_0-0_
  6
CONTINUOUS
 62
    7
 10
896.23259210321976
 20
254.72383357446461
 11
897.93259210322049
 21
254.72383357446461
  0
LINE
  8
_0-0_
  6
CONTINUOUS
 62
    7
 10
897.93259210322049
 20
264.22383357446461
 11
899.53259210321994
 21
265.72383357446461
  0
LINE
  8
_0-0_
  6
CONTINUOUS
 62
    7
 10
897.93259210322049
 20
264.22383357446461
 11
897.93259210322049
 21
225.22383357446461
  0
LINE
  8
_0-0_
  6
CONTINUOUS
 62
    7
 10
897.93259210322049
 20
225.22383357446461
 11
899.53259210321994
 21
223.72383357446461
  0
LINE
  8
_0-0_
  6
CONTINUOUS
 62
    7
 10
896.23259210321976
 20
229.22383357446461
 11
896.23259210321976
 21
269.18793518960183
  0
LINE
  8
_0-0_
  6
CONTINUOUS
 62
    7
 10
896.5005412956516
 20
270.18793518960183
 11
897.96464291078883
 21
272.72383357446461
  0
LINE
  8
_0-0_
  6
CONTINUOUS
 62
    7
 10
902.53259210321994
 20
277.22383357446461
 11
936.53259210321994
 21
277.22383357446461
  0
LINE
  8
_0-0_
  6
CONTINUOUS
 62
    7
 10
939.53259210321994
 20
265.72383357446461
 11
941.13259210321939
 21
264.22383357446461
  0
LINE
  8
_0-0_
  6
CONTINUOUS
 62
    7
 10
941.13259210321939
 20
264.22383357446461
 11
941.13259210321939
 21
225.22383357446461
  0
LINE
  8
_0-0_
  6
CONTINUOUS
 62
    7
 10
941.13259210321939
 20
225.22383357446461
 11
939.53259210321994
 21
223.72383357446461
  0
LINE
  8
_0-0_
  6
CONTINUOUS
 62
    7
 10
946.03259210321994
 20
229.22383357446461
 11
950.30236989550849
 21
234.92383357446442
  0
LINE
  8
_0-0_
  6
CONTINUOUS
 62
    7
 10
951.63769910322026
 20
234.92383357446442
 11
952.53259210321994
 21
236.47383357446461
  0
LINE
  8
_0-0_
  6
CONTINUOUS
 62
    7
 10
952.53259210321994
 20
236.47383357446461
 11
953.28259210321994
 21
236.47383357446461
  0
LINE
  8
_0-0_
  6
CONTINUOUS
 62
    7
 10
954.03259210321994
 20
237.22383357446461
 11
954.03259210321994
 21
252.22383357446461
  0
LINE
  8
_0-0_
  6
CONTINUOUS
 62
    7
 10
942.83259210322012
 20
254.72383357446461
 11
941.13259210321939
 21
254.72383357446461
  0
LINE
  8
_0-0_
  6
CONTINUOUS
 62
    7
 10
946.78314760322064
 20
239.82383357446497
 11
951.63769910322026
 21
239.82383357446497
  0
LINE
  8
_0-0_
  6
CONTINUOUS
 62
    7
 10
951.63769910322026
 20
234.92383357446442
 11
946.78314760322064
 21
234.92383357446442
  0
LINE
  8
_0-0_
  6
CONTINUOUS
 62
    7
 10
946.78314760322064
 20
234.92383357446442
 11
946.03259210321994
 21
236.22383357446461
  0
LINE
  8
_0-0_
  6
CONTINUOUS
 62
    7
 10
942.83259210322012
 20
234.72383357446461
 11
941.13259210321939
 21
234.72383357446461
  0
LINE
  8
_0-0_
  6
CONTINUOUS
 62
    7
 10
897.93259210322049
 20
234.72383357446461
 11
896.23259210321976
 21
234.72383357446461
  0
LINE
  8
_0-0_
  6
CONTINUOUS
 62
    7
 10
893.03259210321994
 20
236.22383357533499
 11
892.03259210321994
 21
236.22383357533499
  0
LINE
  8
_0-0_
  6
CONTINUOUS
 62
    7
 10
893.03259210321994
 20
229.22383357446461
 11
896.23259210321976
 21
229.22383357446461
  0
ARC
  8
_0-0_
  6
CONTINUOUS
 62
    7
 10
895.03259210321994
 20
269.18793518960183
 40
2
 50
150.00000000000009
 51
180
  0
ARC
  8
_0-0_
  6
CONTINUOUS
 62
    7
 10
898.23259210321976
 20
269.18793518960183
 40
2
 50
149.99999999999855
 51
180
  0
ARC
  8
_0-0_
  6
CONTINUOUS
 62
    7
 10
896.23259210321976
 20
273.72383357446461
 40
2
 50
329.99999999999915
 51
0.000000000000019
  0
ARC
  8
_0-0_
  6
CONTINUOUS
 62
    7
 10
894.23259210321976
 20
275.8022945435473
 40
2
 50
330.00000000000011
 51
0
  0
ARC
  8
_0-0_
  6
CONTINUOUS
 62
    7
 10
942.83259210322012
 20
273.72383357446461
 40
2
 50
180
 51
210.00000000000006
  0
ARC
  8
_0-0_
  6
CONTINUOUS
 62
    7
 10
940.83259210322012
 20
269.18793518960183
 40
2
 50
0
 51
29.999999999999915
  0
ARC
  8
_0-0_
  6
CONTINUOUS
 62
    7
 10
944.03259210321994
 20
269.18793518960183
 40
2
 50
0
 51
30.000000000000227
  0
ARC
  8
_0-0_
  6
CONTINUOUS
 62
    7
 10
940.83259210322012
 20
275.66647895036067
 40
2
 50
0
 51
76.307268958849207
  0
ARC
  8
_0-0_
  6
CONTINUOUS
 62
    7
 10
919.53259210321994
 20
188.2421669134576
 40
91.981666661191412
 50
76.307268958851552
 51
104.67354761998524
  0
ARC
  8
_0-0_
  6
CONTINUOUS
 62
    7
 10
896.03259210321994
 20
241.89865686505573
 40
10
 50
179.99999999999997
 51
216.83628730845081
  0
ARC
  8
_0-0_
  6
CONTINUOUS
 62
    7
 10
892.03259210321994
 20
286.22383357446461
 40
6
 50
90
 51
180
  0
ARC
  8
_0-0_
  6
CONTINUOUS
 62
    7
 10
947.03259210321994
 20
286.22383357446461
 40
6
 50
0
 51
90
  0
ARC
  8
_0-0_
  6
CONTINUOUS
 62
    7
 10
894.53259210321994
 20
294.22383357436456
 40
1.9999999998999982
 50
180
 51
270
  0
ARC
  8
_0-0_
  6
CONTINUOUS
 62
    7
 10
944.53259210321994
 20
294.22383357436456
 40
1.9999999998999982
 50
270
 51
0
  0
LINE
  8
_0-0_
  6
CONTINUOUS
 62
    7
 10
890.82438817072079
 20
297.77938912996467
 11
891.27359721704147
 21
298.78781836937378
  0
LINE
  8
_0-0_
  6
CONTINUOUS
 62
    7
 10
891.27359721704147
 20
298.78781836937378
 11
891.91298265577484
 21
299.71159011845378
  0
LINE
  8
_0-0_
  6
CONTINUOUS
 62
    7
 10
891.91298265577484
 20
299.71159011845378
 11
892.72311708390885
 21
300.52263604005987
  0
LINE
  8
_0-0_
  6
CONTINUOUS
 62
    7
 10
892.72311708390885
 20
300.52263604005987
 11
893.67938497679324
 21
301.19631291427322
  0
LINE
  8
_0-0_
  6
CONTINUOUS
 62
    7
 10
893.67938497679324
 20
301.19631291427322
 11
894.75273061839698
 21
301.71215141016768
  0
LINE
  8
_0-0_
  6
CONTINUOUS
 62
    7
 10
894.75273061839698
 20
301.71215141016768
 11
895.91054094453921
 21
302.0544780360724
  0
LINE
  8
_0-0_
  6
CONTINUOUS
 62
    7
 10
895.91054094453921
 20
302.0544780360724
 11
897.11763647434054
 21
302.21289137068493
  0
LINE
  8
_0-0_
  6
CONTINUOUS
 62
    7
 10
897.11763647434054
 20
302.21289137068493
 11
897.53259210321994
 21
302.22383357446461
  0
LINE
  8
_0-0_
  6
CONTINUOUS
 62
    7
 10
890.82438817073762
 20
297.77938912996393
 11
890.79530680252833
 21
296.98942847387707
  0
LINE
  8
_0-0_
  6
CONTINUOUS
 62
    7
 10
890.79530680252833
 20
296.98942847387707
 11
890.61234511374687
 21
296.21595791882697
  0
LINE
  8
_0-0_
  6
CONTINUOUS
 62
    7
 10
890.61234511374687
 20
296.21595791882697
 11
890.53259210321994
 21
296.00161135216393
  0
LINE
  8
_0-0_
  6
CONTINUOUS
 62
    7
 10
948.53259210321994
 20
296.00161135216393
 11
948.30654528497848
 21
296.76602812213656
  0
LINE
  8
_0-0_
  6
CONTINUOUS
 62
    7
 10
948.30654528497848
 20
296.76602812213656
 11
948.2332646522982
 21
297.55372289978754
  0
LINE
  8
_0-0_
  6
CONTINUOUS
 62
    7
 10
948.2332646522982
 20
297.55372289978754
 11
948.24079603570249
 21
297.77938912996393
  0
LINE
  8
_0-0_
  6
CONTINUOUS
 62
    7
 10
941.53259210321994
 20
302.22383357446461
 11
942.74812934688839
 21
302.12930403765051
  0
LINE
  8
_0-0_
  6
CONTINUOUS
 62
    7
 10
942.74812934688839
 20
302.12930403765051
 11
943.92673310649957
 21
301.84858765935002
  0
LINE
  8
_0-0_
  6
CONTINUOUS
 62
    7
 10
943.92673310649957
 20
301.84858765935002
 11
945.03259210321994
 21
301.39021386466851
  0
LINE
  8
_0-0_
  6
CONTINUOUS
 62
    7
 10
945.03259210321994
 20
301.39021386466851
 11
946.03210537102564
 21
300.76811010940895
  0
LINE
  8
_0-0_
  6
CONTINUOUS
 62
    7
 10
946.03210537102564
 20
300.76811010940895
 11
946.89490320505274
 21
300.00117870137535
  0
LINE
  8
_0-0_
  6
CONTINUOUS
 62
    7
 10
946.89490320505274
 20
300.00117870137535
 11
947.59476992971099
 21
299.11272246331464
  0
LINE
  8
_0-0_
  6
CONTINUOUS
 62
    7
 10
947.59476992971099
 20
299.11272246331464
 11
948.11044044872119
 21
298.12973668843989
  0
LINE
  8
_0-0_
  6
CONTINUOUS
 62
    7
 10
948.11044044872119
 20
298.12973668843989
 11
948.24079603571931
 21
297.77938912996467
  0
ARC
  8
_0-0_
  6
CONTINUOUS
 62
    7
 10
953.28259210321994
 20
252.22383357446461
 40
0.75
 50
0
 51
90
  0
ARC
  8
_0-0_
  6
CONTINUOUS
 62
    7
 10
947.55422860322051
 20
252.50918757446516
 40
5
 50
324.75522000000001
 51
5.3321450000002173
  0
ARC
  8
_0-0_
  6
CONTINUOUS
 62
    7
 10
942.55783010322011
 20
245.43384857446517
 40
10
 50
355.92848900000041
 51
24.771376000000082
  0
ARC
  8
_0-0_
  6
CONTINUOUS
 62
    7
 10
947.55422860322051
 20
236.93847957446496
 40
5
 50
354.66785500000015
 51
35.244780000000354
  0
ARC
  8
_0-0_
  6
CONTINUOUS
 62
    7
 10
953.28259210321994
 20
237.22383357446461
 40
0.75
 50
270
 51
0
  0
ARC
  8
_0-0_
  6
CONTINUOUS
 62
    7
 10
942.55783010322011
 20
244.01381857446495
 40
10
 50
335.22862400000025
 51
4.071510999999945
  0
ARC
  8
_0-0_
  6
CONTINUOUS
 62
    7
 10
955.98414460322056
 20
245.70699207446478
 40
10
 50
156.94066599999999
 51
174.35779567859217
  0
ARC
  8
_0-0_
  6
CONTINUOUS
 62
    7
 10
955.98414460322056
 20
243.74067507446443
 40
10
 50
185.6422043214078
 51
203.05933399999986
  0
ARC
  8
_0-0_
  6
CONTINUOUS
 62
    7
 10
950.95963760322047
 20
237.07484657446503
 40
5
 50
146.6468829999996
 51
170.20040446175065
  0
ARC
  8
_0-0_
  6
CONTINUOUS
 62
    7
 10
950.95963760322047
 20
252.37282057446509
 40
5
 50
189.79959553824918
 51
213.35311700000037
  0
ARC
  8
_0-0_
  6
CONTINUOUS
 62
    7
 10
899.06384210136912
 20
244.72383357446461
 40
11.031249998148837
 50
129.59775269742644
 51
230.40224729547555
  0
ARC
  8
_0-0_
  6
CONTINUOUS
 62
    7
 10
936.53259210321994
 20
215.22383357446461
 40
3
 50
270
 51
0
  0
ARC
  8
_0-0_
  6
CONTINUOUS
 62
    7
 10
902.53259210321994
 20
215.22383357446461
 40
3
 50
180
 51
270
  0
ARC
  8
_0-0_
  6
CONTINUOUS
 62
    7
 10
902.53259210321994
 20
274.22383357446461
 40
3
 50
90
 51
180
  0
ARC
  8
_0-0_
  6
CONTINUOUS
 62
    7
 10
936.53259210321994
 20
274.22383357446461
 40
3
 50
0
 51
90
  0
LINE
  8
_0-0_
  6
CONTINUOUS
 62
    7
 10
804.03259210321994
 20
306.22383357446461
 11
804.03259210321994
 21
321.22383357446461
  0
LINE
  8
_0-0_
  6
CONTINUOUS
 62
    7
 10
804.03259210321994
 20
321.22383357446461
 11
954.03259210321994
 21
321.22383357446461
  0
LINE
  8
_0-0_
  6
CONTINUOUS
 62
    7
 10
954.03259210321994
 20
321.22383357446461
 11
954.03259210321994
 21
306.22383357446461
  0
LINE
  8
_0-0_
  6
CONTINUOUS
 62
    7
 10
954.03259210321994
 20
306.22383357446461
 11
804.03259210321994
 21
306.22383357446461
  0
LINE
  8
_0-0_
  6
CONTINUOUS
 62
    7
 10
841.17618588951427
 20
304.86336050354157
 11
841.17618588951427
 21
294.5843053017802
  0
LINE
  8
_0-0_
  6
CONTINUOUS
 62
    7
 10
844.6402876808952
 20
293.22383357631634
 11
865.42489652183758
 21
293.22383357631634
  0
LINE
  8
_0-0_
  6
CONTINUOUS
 62
    7
 10
863.03259210321994
 20
293.22383357631634
 11
863.03259210321994
 21
257.22383357446461
  0
LINE
  8
_0-0_
  6
CONTINUOUS
 62
    7
 10
861.96079520729381
 20
257.22383357631679
 11
861.96079520729381
 21
248.58430529992847
  0
LINE
  8
_0-0_
  6
CONTINUOUS
 62
    7
 10
863.03259210321994
 20
247.22383357446461
 11
863.03259210321994
 21
243.16810548446347
  0
LINE
  8
_0-0_
  6
CONTINUOUS
 62
    7
 10
863.03259210321994
 20
243.16810548446347
 11
847.03259210321994
 21
243.16810548446347
  0
LINE
  8
_0-0_
  6
CONTINUOUS
 62
    7
 10
847.03259210321994
 20
243.16810548446347
 11
847.03259210321994
 21
247.22383357446461
  0
LINE
  8
_0-0_
  6
CONTINUOUS
 62
    7
 10
844.6402876808952
 20
247.22383357446461
 11
865.42489652183758
 21
247.22383357446461
  0
LINE
  8
_0-0_
  6
CONTINUOUS
 62
    7
 10
868.88899831322033
 20
248.58430529992847
 11
868.88899831322033
 21
257.22383357631725
  0
LINE
  8
_0-0_
  6
CONTINUOUS
 62
    7
 10
868.88899831322033
 20
257.22383357631725
 11
841.17618588951427
 21
257.22383357631725
  0
LINE
  8
_0-0_
  6
CONTINUOUS
 62
    7
 10
841.17618588951427
 20
257.22383357631725
 11
841.17618588951427
 21
248.58430529992847
  0
LINE
  8
_0-0_
  6
CONTINUOUS
 62
    7
 10
848.10438899544079
 20
248.58430529992847
 11
848.10438899544079
 21
257.22383357631679
  0
LINE
  8
_0-0_
  6
CONTINUOUS
 62
    7
 10
847.03259210321994
 20
257.22383357446461
 11
847.03259210321994
 21
293.22383357631634
  0
LINE
  8
_0-0_
  6
CONTINUOUS
 62
    7
 10
861.96079520729381
 20
294.5843053017802
 11
861.96079520729381
 21
304.86336069832259
  0
LINE
  8
_0-0_
  6
CONTINUOUS
 62
    7
 10
862.13259200785251
 20
358.22383357446461
 11
847.93259219858737
 21
358.22383357446461
  0
LINE
  8
_0-0_
  6
CONTINUOUS
 62
    7
 10
847.93259219858737
 20
358.22383357446461
 11
847.03259210321994
 21
357.32383395593433
  0
LINE
  8
_0-0_
  6
CONTINUOUS
 62
    7
 10
863.03259210321994
 20
357.32383395593433
 11
862.13259200785251
 21
358.22383357446461
  0
LINE
  8
_0-0_
  6
CONTINUOUS
 62
    7
 10
865.42489652183758
 20
306.22383357446461
 11
844.6402876808952
 21
306.22383357446461
  0
LINE
  8
_0-0_
  6
CONTINUOUS
 62
    7
 10
848.10438899544079
 20
304.86336069832259
 11
848.10438899544079
 21
294.5843053017802
  0
LINE
  8
_0-0_
  6
CONTINUOUS
 62
    7
 10
868.88899831322033
 20
294.5843053017802
 11
868.88899831322033
 21
304.86336050354157
  0
LINE
  8
_0-0_
  6
CONTINUOUS
 62
    7
 10
885.03259210322085
 20
225.02383357446433
 11
885.03259210322085
 21
213.22383357446438
  0
LINE
  8
_0-0_
  6
CONTINUOUS
 62
    7
 10
885.03259210322085
 20
213.22383357446438
 11
825.03259210321994
 21
213.22383357446438
  0
LINE
  8
_0-0_
  6
CONTINUOUS
 62
    7
 10
825.03259210321994
 20
213.22383357446438
 11
825.03259210321994
 21
225.02383357446433
  0
LINE
  8
_0-0_
  6
CONTINUOUS
 62
    7
 10
825.03259210321994
 20
225.02383357446433
 11
837.23259210321976
 21
237.22383357446461
  0
LINE
  8
_0-0_
  6
CONTINUOUS
 62
    7
 10
837.23259210321976
 20
237.22383357446461
 11
872.83259210322012
 21
237.22383357446461
  0
LINE
  8
_0-0_
  6
CONTINUOUS
 62
    7
 10
872.83259210322012
 20
237.22383357446461
 11
885.03259210322085
 21
225.02383357446433
  0
LINE
  8
_0-0_
  6
CONTINUOUS
 62
    7
 10
885.03259210322085
 20
225.02383357446433
 11
825.03259210321994
 21
225.02383357446433
  0
LINE
  8
_0-0_
  6
CONTINUOUS
 62
    7
 10
829.03259210321994
 20
213.22383357446438
 11
829.03259210321994
 21
212.22383357446438
  0
LINE
  8
_0-0_
  6
CONTINUOUS
 62
    7
 10
829.03259210321994
 20
212.22383357446438
 11
881.03259210321994
 21
212.22383357446438
  0
LINE
  8
_0-0_
  6
CONTINUOUS
 62
    7
 10
881.03259210321994
 20
212.22383357446438
 11
881.03259210321994
 21
213.22383357446438
  0
ARC
  8
_0-0_
  6
CONTINUOUS
 62
    7
 10
855.03259210321994
 20
234.22383357446461
 40
12
 50
131.81031489577896
 51
165.5224878140701
  0
ARC
  8
_0-0_
  6
CONTINUOUS
 62
    7
 10
855.03259210321994
 20
234.22383357446461
 40
12
 50
14.477512185929857
 51
48.189685104221027
  0
LINE
  8
_0-0_
  6
CONTINUOUS
 62
    7
 10
848.10438978545676
 20
248.58430690124658
 11
846.57916493759762
 21
247.63890801449634
  0
LINE
  8
_0-0_
  6
CONTINUOUS
 62
    7
 10
846.57916493759762
 20
247.63890801449634
 11
844.99502828541267
 21
247.23757689186175
  0
LINE
  8
_0-0_
  6
CONTINUOUS
 62
    7
 10
844.99502828541267
 20
247.23757689186175
 11
843.4001130194672
 21
247.39250777642064
  0
LINE
  8
_0-0_
  6
CONTINUOUS
 62
    7
 10
843.4001130194672
 20
247.39250777642064
 11
841.84287983305035
 21
248.09899317164451
  0
LINE
  8
_0-0_
  6
CONTINUOUS
 62
    7
 10
841.84287983305035
 20
248.09899317164451
 11
841.17618783478792
 21
248.58430505615479
  0
LINE
  8
_0-0_
  6
CONTINUOUS
 62
    7
 10
868.88899862639914
 20
248.58430690124658
 11
867.36377377854001
 21
247.63890801449634
  0
LINE
  8
_0-0_
  6
CONTINUOUS
 62
    7
 10
867.36377377854001
 20
247.63890801449634
 11
865.77963712635506
 21
247.23757689186175
  0
LINE
  8
_0-0_
  6
CONTINUOUS
 62
    7
 10
865.77963712635506
 20
247.23757689186175
 11
864.18472186040958
 21
247.39250777642064
  0
LINE
  8
_0-0_
  6
CONTINUOUS
 62
    7
 10
864.18472186040958
 20
247.39250777642064
 11
862.62748867399273
 21
248.09899317164451
  0
LINE
  8
_0-0_
  6
CONTINUOUS
 62
    7
 10
862.62748867399273
 20
248.09899317164451
 11
861.96079667573031
 21
248.58430505615479
  0
ARC
  8
_0-0_
  6
CONTINUOUS
 62
    7
 10
855.0325921013673
 20
265.54500724237232
 40
18.321172714233398
 50
247.78070068359386
 51
292.21931457519543
  0
ARC
  8
_0-0_
  6
CONTINUOUS
 62
    7
 10
855.0325921013673
 20
287.90265990655689
 40
18.321172714233398
 50
67.780689151566378
 51
112.21931084843361
  0
LINE
  8
_0-0_
  6
CONTINUOUS
 62
    7
 10
841.17618588951359
 20
304.86336050354146
 11
842.70141075482934
 21
305.80875927763844
  0
LINE
  8
_0-0_
  6
CONTINUOUS
 62
    7
 10
842.70141075482934
 20
305.80875927763844
 11
844.28554741442485
 21
306.21009028326864
  0
LINE
  8
_0-0_
  6
CONTINUOUS
 62
    7
 10
844.28554741442485
 20
306.21009028326864
 11
845.88046267750951
 21
306.05515928090921
  0
LINE
  8
_0-0_
  6
CONTINUOUS
 62
    7
 10
845.88046267750951
 20
306.05515928090921
 11
847.43769585088125
 21
305.34867377066797
  0
LINE
  8
_0-0_
  6
CONTINUOUS
 62
    7
 10
847.43769585088125
 20
305.34867377066797
 11
848.10438978545676
 21
304.86336024768269
  0
LINE
  8
_0-0_
  6
CONTINUOUS
 62
    7
 10
861.96079667573031
 20
304.86336209277442
 11
863.4860216494767
 21
305.80876016714075
  0
LINE
  8
_0-0_
  6
CONTINUOUS
 62
    7
 10
863.4860216494767
 20
305.80876016714075
 11
865.07015835510197
 21
306.21009044601311
  0
LINE
  8
_0-0_
  6
CONTINUOUS
 62
    7
 10
865.07015835510197
 20
306.21009044601311
 11
866.66507360041737
 21
306.05515871195098
  0
LINE
  8
_0-0_
  6
CONTINUOUS
 62
    7
 10
866.66507360041737
 20
306.05515871195098
 11
868.22230669275973
 21
305.34867248729455
  0
LINE
  8
_0-0_
  6
CONTINUOUS
 62
    7
 10
868.22230669275973
 20
305.34867248729455
 11
868.88899831321964
 21
304.86336050354134
  0
LINE
  8
_0-0_
  6
CONTINUOUS
 62
    7
 10
848.10438978545676
 20
294.58430690309831
 11
846.57916493759762
 21
293.63890801634807
  0
LINE
  8
_0-0_
  6
CONTINUOUS
 62
    7
 10
846.57916493759762
 20
293.63890801634807
 11
844.99502828541267
 21
293.23757689371348
  0
LINE
  8
_0-0_
  6
CONTINUOUS
 62
    7
 10
844.99502828541267
 20
293.23757689371348
 11
843.4001130194672
 21
293.39250777827237
  0
LINE
  8
_0-0_
  6
CONTINUOUS
 62
    7
 10
843.4001130194672
 20
293.39250777827237
 11
841.84287983305035
 21
294.09899317349624
  0
LINE
  8
_0-0_
  6
CONTINUOUS
 62
    7
 10
841.84287983305035
 20
294.09899317349624
 11
841.17618783478792
 21
294.58430505800652
  0
LINE
  8
_0-0_
  6
CONTINUOUS
 62
    7
 10
868.88899862639914
 20
294.58430690309831
 11
867.36377377854001
 21
293.63890801634807
  0
LINE
  8
_0-0_
  6
CONTINUOUS
 62
    7
 10
867.36377377854001
 20
293.63890801634807
 11
865.77963712635506
 21
293.23757689371348
  0
LINE
  8
_0-0_
  6
CONTINUOUS
 62
    7
 10
865.77963712635506
 20
293.23757689371348
 11
864.18472186040958
 21
293.39250777827237
  0
LINE
  8
_0-0_
  6
CONTINUOUS
 62
    7
 10
864.18472186040958
 20
293.39250777827237
 11
862.62748867399273
 21
294.09899317349624
  0
LINE
  8
_0-0_
  6
CONTINUOUS
 62
    7
 10
862.62748867399273
 20
294.09899317349624
 11
861.96079667573031
 21
294.58430505800652
  0
ARC
  8
_0-0_
  6
CONTINUOUS
 62
    7
 10
855.0325921013673
 20
311.54500724422405
 40
18.321172714233398
 50
247.78070068359386
 51
292.21931457519543
  0
LINE
  8
_0-0_
  6
CONTINUOUS
 62
    7
 10
563.27939520407517
 20
321.22383357446461
 11
563.27939520407517
 21
306.22383357446461
  0
LINE
  8
_0-0_
  6
CONTINUOUS
 62
    7
 10
563.27939520407517
 20
306.22383357446461
 11
748.27939520407517
 21
306.22383357446461
  0
LINE
  8
_0-0_
  6
CONTINUOUS
 62
    7
 10
748.27939520407517
 20
306.22383357446461
 11
748.27939520407517
 21
321.22383357446461
  0
LINE
  8
_0-0_
  6
CONTINUOUS
 62
    7
 10
748.27939520407517
 20
321.22383357446461
 11
563.27939520407517
 21
321.22383357446461
  0
LINE
  8
_0-0_
  6
CONTINUOUS
 62
    7
 10
659.27939520407517
 20
302.22383357446461
 11
659.27939520407517
 21
306.22383357446461
  0
LINE
  8
_0-0_
  6
CONTINUOUS
 62
    7
 10
640.48759913657477
 20
297.77938912996387
 11
583.07119127157557
 21
297.77938912996387
  0
LINE
  8
_0-0_
  6
CONTINUOUS
 62
    7
 10
582.77939520407517
 20
296.00161135216467
 11
640.77939520407517
 21
296.00161135216467
  0
LINE
  8
_0-0_
  6
CONTINUOUS
 62
    7
 10
640.77939520407517
 20
296.00161135216467
 11
640.77939520407517
 21
294.22383357436456
  0
LINE
  8
_0-0_
  6
CONTINUOUS
 62
    7
 10
640.77939520407517
 20
294.22383357436456
 11
582.77939520407517
 21
294.22383357436456
  0
LINE
  8
_0-0_
  6
CONTINUOUS
 62
    7
 10
582.77939520407517
 20
294.22383357436456
 11
582.77939520407517
 21
296.00161135216467
  0
LINE
  8
_0-0_
  6
CONTINUOUS
 62
    7
 10
584.27939520407517
 20
292.22383357446461
 11
639.27939520407517
 21
292.22383357446461
  0
LINE
  8
_0-0_
  6
CONTINUOUS
 62
    7
 10
645.27939520407517
 20
286.22383357446461
 11
645.27939520407517
 21
280.22383357446461
  0
LINE
  8
_0-0_
  6
CONTINUOUS
 62
    7
 10
645.27939520407517
 20
280.22383357446461
 11
639.01630781492668
 21
279.17989319304479
  0
LINE
  8
_0-0_
  6
CONTINUOUS
 62
    7
 10
667.27939520407517
 20
213.22383357446438
 11
727.27939520407517
 21
213.22383357446438
  0
LINE
  8
_0-0_
  6
CONTINUOUS
 62
    7
 10
727.27939520407517
 20
213.22383357446438
 11
727.27939520407517
 21
225.02383357446433
  0
LINE
  8
_0-0_
  6
CONTINUOUS
 62
    7
 10
727.27939520407517
 20
225.02383357446433
 11
715.07939520407444
 21
237.22383357446461
  0
LINE
  8
_0-0_
  6
CONTINUOUS
 62
    7
 10
715.07939520407444
 20
237.22383357446461
 11
679.47939520407499
 21
237.22383357446461
  0
LINE
  8
_0-0_
  6
CONTINUOUS
 62
    7
 10
679.47939520407499
 20
237.22383357446461
 11
667.27939520407517
 21
225.02383357446433
  0
LINE
  8
_0-0_
  6
CONTINUOUS
 62
    7
 10
667.27939520407517
 20
225.02383357446433
 11
727.27939520407517
 21
225.02383357446433
  0
LINE
  8
_0-0_
  6
CONTINUOUS
 62
    7
 10
723.27939520407517
 20
213.22383357446438
 11
723.27939520407517
 21
212.22383357446438
  0
LINE
  8
_0-0_
  6
CONTINUOUS
 62
    7
 10
723.27939520407517
 20
212.22383357446438
 11
671.27939520407517
 21
212.22383357446438
  0
LINE
  8
_0-0_
  6
CONTINUOUS
 62
    7
 10
671.27939520407517
 20
212.22383357446438
 11
671.27939520407517
 21
213.22383357446438
  0
LINE
  8
_0-0_
  6
CONTINUOUS
 62
    7
 10
667.27939520407517
 20
213.22383357446438
 11
667.27939520407517
 21
225.02383357446433
  0
LINE
  8
_0-0_
  6
CONTINUOUS
 62
    7
 10
578.27939520407517
 20
286.22383357446461
 11
582.82032057137394
 21
282.22383357446461
  0
LINE
  8
_0-0_
  6
CONTINUOUS
 62
    7
 10
630.88028248968612
 20
274.87321652166384
 11
623.77609294124022
 21
237.77355999089423
  0
LINE
  8
_0-0_
  6
CONTINUOUS
 62
    7
 10
704.37939510870774
 20
358.22383357446461
 11
705.27939520407517
 21
357.32383395593433
  0
LINE
  8
_0-0_
  6
CONTINUOUS
 62
    7
 10
689.27939520407517
 20
357.32383395593433
 11
690.1793952994426
 21
358.22383357446461
  0
LINE
  8
_0-0_
  6
CONTINUOUS
 62
    7
 10
690.1793952994426
 20
358.22383357446461
 11
704.37939510870774
 21
358.22383357446461
  0
LINE
  8
_0-0_
  6
CONTINUOUS
 62
    7
 10
705.27939520407517
 20
321.22383357446461
 11
705.27939520407517
 21
357.32383395593433
  0
LINE
  8
_0-0_
  6
CONTINUOUS
 62
    7
 10
689.27939520407517
 20
321.22383357446461
 11
689.27939520407517
 21
357.32383395593433
  0
LINE
  8
_0-0_
  6
CONTINUOUS
 62
    7
 10
690.35119209629511
 20
304.86336069832259
 11
690.35119209629511
 21
294.5843053017802
  0
LINE
  8
_0-0_
  6
CONTINUOUS
 62
    7
 10
705.27939520407517
 20
293.22383357631634
 11
705.27939520407517
 21
257.22383357446461
  0
LINE
  8
_0-0_
  6
CONTINUOUS
 62
    7
 10
704.20759830814814
 20
257.22383357631679
 11
704.20759830814814
 21
248.58430529992847
  0
LINE
  8
_0-0_
  6
CONTINUOUS
 62
    7
 10
705.27939520407517
 20
247.22383357446461
 11
705.27939520407517
 21
243.16810548446347
  0
LINE
  8
_0-0_
  6
CONTINUOUS
 62
    7
 10
705.27939520407517
 20
243.16810548446347
 11
689.27939520407517
 21
243.16810548446347
  0
LINE
  8
_0-0_
  6
CONTINUOUS
 62
    7
 10
689.27939520407517
 20
243.16810548446347
 11
689.27939520407517
 21
247.22383357446461
  0
LINE
  8
_0-0_
  6
CONTINUOUS
 62
    7
 10
686.88709078175043
 20
247.22383357446461
 11
707.67169962269281
 21
247.22383357446461
  0
LINE
  8
_0-0_
  6
CONTINUOUS
 62
    7
 10
711.13580141407465
 20
248.58430529992847
 11
711.13580141407465
 21
257.22383357631725
  0
LINE
  8
_0-0_
  6
CONTINUOUS
 62
    7
 10
711.13580141407465
 20
257.22383357631725
 11
683.42298899036859
 21
257.22383357631725
  0
LINE
  8
_0-0_
  6
CONTINUOUS
 62
    7
 10
683.42298899036859
 20
257.22383357631725
 11
683.42298899036859
 21
248.58430529992847
  0
LINE
  8
_0-0_
  6
CONTINUOUS
 62
    7
 10
690.35119209629511
 20
248.58430529992847
 11
690.35119209629511
 21
257.22383357631679
  0
LINE
  8
_0-0_
  6
CONTINUOUS
 62
    7
 10
689.27939520407517
 20
257.22383357446461
 11
689.27939520407517
 21
293.22383357631634
  0
LINE
  8
_0-0_
  6
CONTINUOUS
 62
    7
 10
686.88709078175043
 20
293.22383357631634
 11
707.67169962269281
 21
293.22383357631634
  0
LINE
  8
_0-0_
  6
CONTINUOUS
 62
    7
 10
704.20759830814814
 20
294.5843053017802
 11
704.20759830814814
 21
304.86336069832259
  0
LINE
  8
_0-0_
  6
CONTINUOUS
 62
    7
 10
711.13580141407465
 20
304.86336050354112
 11
711.13580141407465
 21
294.5843053017802
  0
LINE
  8
_0-0_
  6
CONTINUOUS
 62
    7
 10
723.98650198526184
 20
298.38383342187672
 11
723.98650198526184
 21
305.28383357684879
  0
LINE
  8
_0-0_
  6
CONTINUOUS
 62
    7
 10
722.54650192804138
 20
305.28383357684879
 11
735.4265020424823
 21
305.28383357684879
  0
LINE
  8
_0-0_
  6
CONTINUOUS
 62
    7
 10
735.4265020424823
 20
305.28383357684879
 11
735.4265020424823
 21
306.22383357446461
  0
LINE
  8
_0-0_
  6
CONTINUOUS
 62
    7
 10
733.98650198526184
 20
305.28383357684879
 11
733.98650198526184
 21
298.38383342187672
  0
LINE
  8
_0-0_
  6
CONTINUOUS
 62
    7
 10
733.98650198526184
 20
298.38383342187672
 11
733.38650208062927
 21
297.78383399408131
  0
LINE
  8
_0-0_
  6
CONTINUOUS
 62
    7
 10
733.38650208062927
 20
297.78383399408131
 11
724.58650188989441
 21
297.78383399408131
  0
LINE
  8
_0-0_
  6
CONTINUOUS
 62
    7
 10
724.58650188989441
 20
297.78383399408131
 11
723.98650198526184
 21
298.38383342187672
  0
LINE
  8
_0-0_
  6
CONTINUOUS
 62
    7
 10
723.98650198526184
 20
298.38383342187672
 11
733.98650198526184
 21
298.38383342187672
  0
LINE
  8
_0-0_
  6
CONTINUOUS
 62
    7
 10
733.36150198526184
 20
298.38383342187672
 11
733.36150198526184
 21
303.78383351724415
  0
LINE
  8
_0-0_
  6
CONTINUOUS
 62
    7
 10
733.98650198526184
 20
303.78383351724415
 11
723.98650198526184
 21
303.78383351724415
  0
LINE
  8
_0-0_
  6
CONTINUOUS
 62
    7
 10
722.54650192804138
 20
305.28383357684879
 11
722.54650192804138
 21
306.22383357446461
  0
LINE
  8
_0-0_
  6
CONTINUOUS
 62
    7
 10
729.41951467938225
 20
305.28383357684879
 11
728.55348929114143
 21
303.78383351724415
  0
LINE
  8
_0-0_
  6
CONTINUOUS
 62
    7
 10
730.86150198526184
 20
303.78383351724415
 11
730.86150198526184
 21
298.38383342187672
  0
LINE
  8
_0-0_
  6
CONTINUOUS
 62
    7
 10
731.48650198526184
 20
298.38383342187672
 11
731.48650198526184
 21
303.78383351724415
  0
LINE
  8
_0-0_
  6
CONTINUOUS
 62
    7
 10
732.11150198526184
 20
303.78383351724415
 11
732.11150198526184
 21
298.38383342187672
  0
LINE
  8
_0-0_
  6
CONTINUOUS
 62
    7
 10
732.73650198526184
 20
298.38383342187672
 11
732.73650198526184
 21
303.78383351724415
  0
LINE
  8
_0-0_
  6
CONTINUOUS
 62
    7
 10
683.42298899036859
 20
294.5843053017802
 11
683.42298899036859
 21
304.86336050354157
  0
ARC
  8
_0-0_
  6
CONTINUOUS
 62
    7
 10
697.27939520407517
 20
234.22383357446461
 40
12
 50
131.81031489577896
 51
165.5224878140701
  0
ARC
  8
_0-0_
  6
CONTINUOUS
 62
    7
 10
697.27939520407517
 20
234.22383357446461
 40
12
 50
14.477512185929857
 51
48.189685104221027
  0
LINE
  8
_0-0_
  6
CONTINUOUS
 62
    7
 10
690.35119288631176
 20
248.58430690124658
 11
688.82596803845263
 21
247.63890801449634
  0
LINE
  8
_0-0_
  6
CONTINUOUS
 62
    7
 10
688.82596803845263
 20
247.63890801449634
 11
687.2418313862679
 21
247.23757689186175
  0
LINE
  8
_0-0_
  6
CONTINUOUS
 62
    7
 10
687.2418313862679
 20
247.23757689186175
 11
685.6469161203222
 21
247.39250777642064
  0
LINE
  8
_0-0_
  6
CONTINUOUS
 62
    7
 10
685.6469161203222
 20
247.39250777642064
 11
684.08968293390535
 21
248.09899317164451
  0
LINE
  8
_0-0_
  6
CONTINUOUS
 62
    7
 10
684.08968293390535
 20
248.09899317164451
 11
683.42299093564293
 21
248.58430505615479
  0
LINE
  8
_0-0_
  6
CONTINUOUS
 62
    7
 10
711.13580172725415
 20
248.58430690124658
 11
709.61057687939501
 21
247.63890801449634
  0
LINE
  8
_0-0_
  6
CONTINUOUS
 62
    7
 10
709.61057687939501
 20
247.63890801449634
 11
708.02644022721029
 21
247.23757689186175
  0
LINE
  8
_0-0_
  6
CONTINUOUS
 62
    7
 10
708.02644022721029
 20
247.23757689186175
 11
706.43152496126459
 21
247.39250777642064
  0
LINE
  8
_0-0_
  6
CONTINUOUS
 62
    7
 10
706.43152496126459
 20
247.39250777642064
 11
704.87429177484773
 21
248.09899317164451
  0
LINE
  8
_0-0_
  6
CONTINUOUS
 62
    7
 10
704.87429177484773
 20
248.09899317164451
 11
704.20759977658531
 21
248.58430505615479
  0
ARC
  8
_0-0_
  6
CONTINUOUS
 62
    7
 10
697.27939520222162
 20
265.54500724237232
 40
18.321172714233398
 50
247.78070068359386
 51
292.21931457519543
  0
ARC
  8
_0-0_
  6
CONTINUOUS
 62
    7
 10
697.27939520222162
 20
287.90265990655689
 40
18.321172714233398
 50
67.780689151566378
 51
112.21931084843361
  0
LINE
  8
_0-0_
  6
CONTINUOUS
 62
    7
 10
683.42298899036859
 20
304.86336050354146
 11
684.94821385568457
 21
305.80875927763844
  0
LINE
  8
_0-0_
  6
CONTINUOUS
 62
    7
 10
684.94821385568457
 20
305.80875927763844
 11
686.53235051527986
 21
306.21009028326864
  0
LINE
  8
_0-0_
  6
CONTINUOUS
 62
    7
 10
686.53235051527986
 20
306.21009028326864
 11
688.12726577836474
 21
306.05515928090921
  0
LINE
  8
_0-0_
  6
CONTINUOUS
 62
    7
 10
688.12726577836474
 20
306.05515928090921
 11
689.68449895173626
 21
305.34867377066797
  0
LINE
  8
_0-0_
  6
CONTINUOUS
 62
    7
 10
689.68449895173626
 20
305.34867377066797
 11
690.35119288631176
 21
304.86336024768269
  0
LINE
  8
_0-0_
  6
CONTINUOUS
 62
    7
 10
704.20759977658531
 20
304.86336209277442
 11
705.73282475033193
 21
305.80876016714075
  0
LINE
  8
_0-0_
  6
CONTINUOUS
 62
    7
 10
705.73282475033193
 20
305.80876016714075
 11
707.31696145595697
 21
306.21009044601311
  0
LINE
  8
_0-0_
  6
CONTINUOUS
 62
    7
 10
707.31696145595697
 20
306.21009044601311
 11
708.91187670127238
 21
306.05515871195098
  0
LINE
  8
_0-0_
  6
CONTINUOUS
 62
    7
 10
708.91187670127238
 20
306.05515871195098
 11
710.46910979361496
 21
305.34867248729455
  0
LINE
  8
_0-0_
  6
CONTINUOUS
 62
    7
 10
710.46910979361496
 20
305.34867248729455
 11
711.13580141407465
 21
304.86336050354134
  0
LINE
  8
_0-0_
  6
CONTINUOUS
 62
    7
 10
690.35119288631176
 20
294.58430690309831
 11
688.82596803845263
 21
293.63890801634807
  0
LINE
  8
_0-0_
  6
CONTINUOUS
 62
    7
 10
688.82596803845263
 20
293.63890801634807
 11
687.2418313862679
 21
293.23757689371348
  0
LINE
  8
_0-0_
  6
CONTINUOUS
 62
    7
 10
687.2418313862679
 20
293.23757689371348
 11
685.6469161203222
 21
293.39250777827237
  0
LINE
  8
_0-0_
  6
CONTINUOUS
 62
    7
 10
685.6469161203222
 20
293.39250777827237
 11
684.08968293390535
 21
294.09899317349624
  0
LINE
  8
_0-0_
  6
CONTINUOUS
 62
    7
 10
684.08968293390535
 20
294.09899317349624
 11
683.42299093564293
 21
294.58430505800652
  0
LINE
  8
_0-0_
  6
CONTINUOUS
 62
    7
 10
711.13580172725415
 20
294.58430690309831
 11
709.61057687939501
 21
293.63890801634807
  0
LINE
  8
_0-0_
  6
CONTINUOUS
 62
    7
 10
709.61057687939501
 20
293.63890801634807
 11
708.02644022721029
 21
293.23757689371348
  0
LINE
  8
_0-0_
  6
CONTINUOUS
 62
    7
 10
708.02644022721029
 20
293.23757689371348
 11
706.43152496126459
 21
293.39250777827237
  0
LINE
  8
_0-0_
  6
CONTINUOUS
 62
    7
 10
706.43152496126459
 20
293.39250777827237
 11
704.87429177484773
 21
294.09899317349624
  0
LINE
  8
_0-0_
  6
CONTINUOUS
 62
    7
 10
704.87429177484773
 20
294.09899317349624
 11
704.20759977658531
 21
294.58430505800652
  0
ARC
  8
_0-0_
  6
CONTINUOUS
 62
    7
 10
697.27939520222162
 20
311.54500724422405
 40
18.321172714233398
 50
247.78070068359386
 51
292.21931457519543
  0
ARC
  8
_0-0_
  6
CONTINUOUS
 62
    7
 10
636.77939520407517
 20
244.72383357446461
 40
32.499999999999986
 50
181.18784253166186
 51
92.301457078637455
  0
ARC
  8
_0-0_
  6
CONTINUOUS
 62
    7
 10
636.77939520407517
 20
244.72383357446461
 40
15
 50
259.85445556610318
 51
57.486385369999901
  0
ARC
  8
_0-0_
  6
CONTINUOUS
 62
    7
 10
640.00278676938206
 20
273.26154382245068
 40
6
 50
99.463145391943158
 51
195.86116881036628
  0
ARC
  8
_0-0_
  6
CONTINUOUS
 62
    7
 10
658.27939520217797
 20
278.45438352671908
 40
24.999999999999943
 50
195.86116881036611
 51
237.48638536999999
  0
ARC
  8
_0-0_
  6
CONTINUOUS
 62
    7
 10
639.27939520407517
 20
286.22383357446461
 40
6
 50
0
 51
90
  0
ARC
  8
_0-0_
  6
CONTINUOUS
 62
    7
 10
645.27939520407517
 20
292.22383357446461
 40
63.254533465779254
 50
189.09613364186055
 51
259.85445556610347
  0
ARC
  8
_0-0_
  6
CONTINUOUS
 62
    7
 10
586.77939520407517
 20
294.22383357436456
 40
1.9999999998999982
 50
180
 51
270
  0
ARC
  8
_0-0_
  6
CONTINUOUS
 62
    7
 10
636.77939520407517
 20
294.22383357436456
 40
1.9999999998999982
 50
270
 51
0
  0
ARC
  8
_0-0_
  6
CONTINUOUS
 62
    7
 10
584.27939520407517
 20
286.22383357446461
 40
6
 50
90
 51
180
  0
LINE
  8
_0-0_
  6
CONTINUOUS
 62
    7
 10
583.0711912715758
 20
297.77938912996467
 11
583.5204003178967
 21
298.78781836937378
  0
LINE
  8
_0-0_
  6
CONTINUOUS
 62
    7
 10
583.5204003178967
 20
298.78781836937378
 11
584.15978575662984
 21
299.71159011845378
  0
LINE
  8
_0-0_
  6
CONTINUOUS
 62
    7
 10
584.15978575662984
 20
299.71159011845378
 11
584.96992018476408
 21
300.52263604005987
  0
LINE
  8
_0-0_
  6
CONTINUOUS
 62
    7
 10
584.96992018476408
 20
300.52263604005987
 11
585.92618807764825
 21
301.19631291427322
  0
LINE
  8
_0-0_
  6
CONTINUOUS
 62
    7
 10
585.92618807764825
 20
301.19631291427322
 11
586.99953371925199
 21
301.71215141016768
  0
LINE
  8
_0-0_
  6
CONTINUOUS
 62
    7
 10
586.99953371925199
 20
301.71215141016768
 11
588.15734404539421
 21
302.0544780360724
  0
LINE
  8
_0-0_
  6
CONTINUOUS
 62
    7
 10
588.15734404539421
 20
302.0544780360724
 11
589.36443957519577
 21
302.21289137068493
  0
LINE
  8
_0-0_
  6
CONTINUOUS
 62
    7
 10
589.36443957519577
 20
302.21289137068493
 11
589.77939520407517
 21
302.22383357446461
  0
LINE
  8
_0-0_
  6
CONTINUOUS
 62
    7
 10
583.07119127159262
 20
297.77938912996393
 11
583.04210990338356
 21
296.98942847387707
  0
LINE
  8
_0-0_
  6
CONTINUOUS
 62
    7
 10
583.04210990338356
 20
296.98942847387707
 11
582.85914821460187
 21
296.21595791882697
  0
LINE
  8
_0-0_
  6
CONTINUOUS
 62
    7
 10
582.85914821460187
 20
296.21595791882697
 11
582.77939520407517
 21
296.00161135216393
  0
LINE
  8
_0-0_
  6
CONTINUOUS
 62
    7
 10
640.77939520407517
 20
296.00161135216393
 11
640.55334838583371
 21
296.76602812213656
  0
LINE
  8
_0-0_
  6
CONTINUOUS
 62
    7
 10
640.55334838583371
 20
296.76602812213656
 11
640.48006775315321
 21
297.55372289978754
  0
LINE
  8
_0-0_
  6
CONTINUOUS
 62
    7
 10
633.77939520407517
 20
302.22383357446461
 11
634.99493244774362
 21
302.12930403765051
  0
LINE
  8
_0-0_
  6
CONTINUOUS
 62
    7
 10
634.99493244774362
 20
302.12930403765051
 11
636.1735362073548
 21
301.84858765935002
  0
LINE
  8
_0-0_
  6
CONTINUOUS
 62
    7
 10
636.1735362073548
 20
301.84858765935002
 11
637.27939520407494
 21
301.39021386466851
  0
LINE
  8
_0-0_
  6
CONTINUOUS
 62
    7
 10
637.27939520407494
 20
301.39021386466851
 11
638.27890847188087
 21
300.76811010940895
  0
LINE
  8
_0-0_
  6
CONTINUOUS
 62
    7
 10
638.27890847188087
 20
300.76811010940895
 11
639.14170630590797
 21
300.00117870137535
  0
LINE
  8
_0-0_
  6
CONTINUOUS
 62
    7
 10
639.14170630590797
 20
300.00117870137535
 11
639.841573030566
 21
299.11272246331464
  0
LINE
  8
_0-0_
  6
CONTINUOUS
 62
    7
 10
639.841573030566
 20
299.11272246331464
 11
640.35724354957642
 21
298.12973668843989
  0
CIRCLE
  8
_0-0_
  6
CONTINUOUS
 62
    7
 10
636.77939520407517
 20
244.72383357446461
 40
8.5
  0
ARC
  8
_0-0_
  6
CONTINUOUS
 62
    7
 10
636.77939520407517
 20
244.72383357446461
 40
26.499999999999986
 50
192.15277431056964
 51
95.153094682691659
  0
ARC
  8
_0-0_
  6
CONTINUOUS
 62
    7
 10
636.77939520407517
 20
244.72383357446461
 40
24.999999999999986
 50
195.58964815835668
 51
94.356283015843786
  0
ARC
  8
_0-0_
  6
CONTINUOUS
 62
    7
 10
636.77939520407517
 20
244.72383357446461
 40
20.999999999999986
 50
207.27841698540968
 51
90.04331720745428
  0
LINE
  8
_0-0_
  6
CONTINUOUS
 62
    7
 10
361.19503964285497
 20
306.22383357446461
 11
361.19503964285497
 21
305.28383357684879
  0
LINE
  8
_0-0_
  6
CONTINUOUS
 62
    7
 10
361.19503964285497
 20
305.28383357684879
 11
348.31503952841405
 21
305.28383357684879
  0
LINE
  8
_0-0_
  6
CONTINUOUS
 62
    7
 10
348.31503952841405
 20
305.28383357684879
 11
348.31503952841405
 21
306.22383357446461
  0
LINE
  8
_0-0_
  6
CONTINUOUS
 62
    7
 10
349.75503958563451
 20
305.28383357684879
 11
349.75503958563451
 21
298.38383342187672
  0
LINE
  8
_0-0_
  6
CONTINUOUS
 62
    7
 10
349.75503958563451
 20
298.38383342187672
 11
350.35503949026707
 21
297.78383399408131
  0
LINE
  8
_0-0_
  6
CONTINUOUS
 62
    7
 10
350.35503949026707
 20
297.78383399408131
 11
359.15503968100194
 21
297.78383399408131
  0
LINE
  8
_0-0_
  6
CONTINUOUS
 62
    7
 10
359.15503968100194
 20
297.78383399408131
 11
359.75503958563451
 21
298.38383342187672
  0
LINE
  8
_0-0_
  6
CONTINUOUS
 62
    7
 10
359.75503958563451
 20
298.38383342187672
 11
349.75503958563451
 21
298.38383342187672
  0
LINE
  8
_0-0_
  6
CONTINUOUS
 62
    7
 10
350.38003958563451
 20
298.38383342187672
 11
350.38003958563451
 21
303.78383351724415
  0
LINE
  8
_0-0_
  6
CONTINUOUS
 62
    7
 10
349.75503958563451
 20
303.78383351724415
 11
359.75503958563451
 21
303.78383351724415
  0
LINE
  8
_0-0_
  6
CONTINUOUS
 62
    7
 10
359.75503958563451
 20
305.28383357684879
 11
359.75503958563451
 21
298.38383342187672
  0
LINE
  8
_0-0_
  6
CONTINUOUS
 62
    7
 10
360.96214636682117
 20
296.44439696712379
 11
360.96214636682117
 21
267.90221872419579
  0
LINE
  8
_0-0_
  6
CONTINUOUS
 62
    7
 10
356.80624702704455
 20
259.22383357446461
 11
345.62857581771851
 21
295.93646598536179
  0
LINE
  8
_0-0_
  6
CONTINUOUS
 62
    7
 10
345.69181826556843
 20
298.92001960707967
 11
362.03615492376258
 21
240.54474522391138
  0
LINE
  8
_0-0_
  6
CONTINUOUS
 62
    7
 10
391.88813780988067
 20
240.54474522391138
 11
408.23247446807301
 21
298.92001960707967
  0
LINE
  8
_0-0_
  6
CONTINUOUS
 62
    7
 10
409.75503958563451
 20
298.38383342187672
 11
419.75503958563451
 21
298.38383342187672
  0
LINE
  8
_0-0_
  6
CONTINUOUS
 62
    7
 10
419.75503958563451
 20
298.38383342187672
 11
419.15503968100194
 21
297.78383399408131
  0
LINE
  8
_0-0_
  6
CONTINUOUS
 62
    7
 10
419.15503968100194
 20
297.78383399408131
 11
410.35503949026707
 21
297.78383399408131
  0
LINE
  8
_0-0_
  6
CONTINUOUS
 62
    7
 10
410.35503949026707
 20
297.78383399408131
 11
409.75503958563451
 21
298.38383342187672
  0
LINE
  8
_0-0_
  6
CONTINUOUS
 62
    7
 10
409.75503958563451
 20
298.38383342187672
 11
409.75503958563451
 21
305.28383357684879
  0
LINE
  8
_0-0_
  6
CONTINUOUS
 62
    7
 10
408.31503952841405
 20
305.28383357684879
 11
421.19503964285497
 21
305.28383357684879
  0
LINE
  8
_0-0_
  6
CONTINUOUS
 62
    7
 10
421.19503964285497
 20
305.28383357684879
 11
421.19503964285497
 21
306.22383357446461
  0
LINE
  8
_0-0_
  6
CONTINUOUS
 62
    7
 10
419.75503958563451
 20
305.28383357684879
 11
419.75503958563451
 21
298.38383342187672
  0
LINE
  8
_0-0_
  6
CONTINUOUS
 62
    7
 10
419.75503958563451
 20
303.78383351724415
 11
409.75503958563451
 21
303.78383351724415
  0
LINE
  8
_0-0_
  6
CONTINUOUS
 62
    7
 10
410.38003958563451
 20
303.78383351724415
 11
410.38003958563451
 21
298.38383342187672
  0
LINE
  8
_0-0_
  6
CONTINUOUS
 62
    7
 10
411.00503958563451
 20
298.38383342187672
 11
411.00503958563451
 21
303.78383351724415
  0
LINE
  8
_0-0_
  6
CONTINUOUS
 62
    7
 10
411.63003958563451
 20
303.78383351724415
 11
411.63003958563451
 21
298.38383342187672
  0
LINE
  8
_0-0_
  6
CONTINUOUS
 62
    7
 10
412.25503958563451
 20
298.38383342187672
 11
412.25503958563451
 21
303.78383351724415
  0
LINE
  8
_0-0_
  6
CONTINUOUS
 62
    7
 10
412.88003958563451
 20
303.78383351724415
 11
412.88003958563451
 21
298.38383342187672
  0
LINE
  8
_0-0_
  6
CONTINUOUS
 62
    7
 10
415.18805227975491
 20
303.78383351724415
 11
414.3220268915141
 21
305.28383357684879
  0
LINE
  8
_0-0_
  6
CONTINUOUS
 62
    7
 10
408.31503952841405
 20
306.22383357446461
 11
408.31503952841405
 21
305.28383357684879
  0
LINE
  8
_0-0_
  6
CONTINUOUS
 62
    7
 10
408.29571691592383
 20
295.93646598536179
 11
397.1180457065978
 21
259.22383357446461
  0
LINE
  8
_0-0_
  6
CONTINUOUS
 62
    7
 10
392.96214636682117
 20
267.90221872419579
 11
392.96214636682117
 21
296.44439696712379
  0
LINE
  8
_0-0_
  6
CONTINUOUS
 62
    7
 10
354.3220268915141
 20
305.28383357684879
 11
355.18805227975491
 21
303.78383351724415
  0
LINE
  8
_0-0_
  6
CONTINUOUS
 62
    7
 10
352.88003958563451
 20
303.78383351724415
 11
352.88003958563451
 21
298.38383342187672
  0
LINE
  8
_0-0_
  6
CONTINUOUS
 62
    7
 10
352.25503958563451
 20
298.38383342187672
 11
352.25503958563451
 21
303.78383351724415
  0
LINE
  8
_0-0_
  6
CONTINUOUS
 62
    7
 10
351.63003958563451
 20
303.78383351724415
 11
351.63003958563451
 21
298.38383342187672
  0
LINE
  8
_0-0_
  6
CONTINUOUS
 62
    7
 10
351.00503958563451
 20
298.38383342187672
 11
351.00503958563451
 21
303.78383351724415
  0
LINE
  8
_0-0_
  6
CONTINUOUS
 62
    7
 10
336.06214636682063
 20
303.02383357446433
 11
329.46214636682117
 21
303.02383357446433
  0
LINE
  8
_0-0_
  6
CONTINUOUS
 62
    7
 10
329.46214636682117
 20
303.02383357446433
 11
329.46214636682117
 21
306.22383357446461
  0
LINE
  8
_0-0_
  6
CONTINUOUS
 62
    7
 10
305.31855258052775
 20
304.86336050354157
 11
305.31855258052775
 21
294.58430530178066
  0
LINE
  8
_0-0_
  6
CONTINUOUS
 62
    7
 10
301.85445078914591
 20
293.22383357631679
 11
281.06984194820353
 21
293.22383357631679
  0
LINE
  8
_0-0_
  6
CONTINUOUS
 62
    7
 10
283.46214636682208
 20
293.22383357631679
 11
283.46214636682208
 21
257.22383357446461
  0
LINE
  8
_0-0_
  6
CONTINUOUS
 62
    7
 10
284.53394326274821
 20
257.22383357631702
 11
284.53394326274821
 21
248.58430529992847
  0
LINE
  8
_0-0_
  6
CONTINUOUS
 62
    7
 10
283.46214636682208
 20
247.22383357446461
 11
283.46214636682208
 21
243.16810548446369
  0
LINE
  8
_0-0_
  6
CONTINUOUS
 62
    7
 10
283.46214636682208
 20
243.16810548446369
 11
299.46214636682117
 21
243.16810548446369
  0
LINE
  8
_0-0_
  6
CONTINUOUS
 62
    7
 10
299.46214636682117
 20
243.16810548446369
 11
299.46214636682117
 21
247.22383357446461
  0
LINE
  8
_0-0_
  6
CONTINUOUS
 62
    7
 10
301.85445078914591
 20
247.22383357446461
 11
281.06984194820353
 21
247.22383357446461
  0
LINE
  8
_0-0_
  6
CONTINUOUS
 62
    7
 10
277.6057401568217
 20
248.58430529992847
 11
277.6057401568217
 21
257.22383357631747
  0
LINE
  8
_0-0_
  6
CONTINUOUS
 62
    7
 10
277.6057401568217
 20
257.22383357631747
 11
305.31855258052775
 21
257.22383357631747
  0
LINE
  8
_0-0_
  6
CONTINUOUS
 62
    7
 10
305.31855258052775
 20
257.22383357631747
 11
305.31855258052775
 21
248.58430529992847
  0
LINE
  8
_0-0_
  6
CONTINUOUS
 62
    7
 10
298.39034947460124
 20
248.58430529992847
 11
298.39034947460124
 21
257.22383357631702
  0
LINE
  8
_0-0_
  6
CONTINUOUS
 62
    7
 10
299.46214636682117
 20
257.22383357446461
 11
299.46214636682117
 21
293.22383357631679
  0
LINE
  8
_0-0_
  6
CONTINUOUS
 62
    7
 10
284.53394326274821
 20
294.58430530178066
 11
284.53394326274821
 21
304.86336069832259
  0
LINE
  8
_0-0_
  6
CONTINUOUS
 62
    7
 10
277.6057401568217
 20
304.86336050354134
 11
277.6057401568217
 21
294.58430530178066
  0
LINE
  8
_0-0_
  6
CONTINUOUS
 62
    7
 10
264.75503958563451
 20
298.38383342187672
 11
264.15503968100194
 21
297.78383399408131
  0
LINE
  8
_0-0_
  6
CONTINUOUS
 62
    7
 10
264.15503968100194
 20
297.78383399408131
 11
255.35503949026707
 21
297.78383399408131
  0
LINE
  8
_0-0_
  6
CONTINUOUS
 62
    7
 10
255.35503949026707
 20
297.78383399408131
 11
254.75503958563451
 21
298.38383342187672
  0
LINE
  8
_0-0_
  6
CONTINUOUS
 62
    7
 10
254.75503958563451
 20
298.38383342187672
 11
254.75503958563451
 21
305.28383357684879
  0
LINE
  8
_0-0_
  6
CONTINUOUS
 62
    7
 10
253.31503952841405
 20
305.28383357684879
 11
266.19503964285497
 21
305.28383357684879
  0
LINE
  8
_0-0_
  6
CONTINUOUS
 62
    7
 10
266.19503964285497
 20
305.28383357684879
 11
266.19503964285497
 21
306.22383357446461
  0
LINE
  8
_0-0_
  6
CONTINUOUS
 62
    7
 10
264.75503958563451
 20
305.28383357684879
 11
264.75503958563451
 21
298.38383342187672
  0
LINE
  8
_0-0_
  6
CONTINUOUS
 62
    7
 10
264.75503958563451
 20
298.38383342187672
 11
254.75503958563451
 21
298.38383342187672
  0
LINE
  8
_0-0_
  6
CONTINUOUS
 62
    7
 10
255.38003958563451
 20
298.38383342187672
 11
255.38003958563451
 21
303.78383351724415
  0
LINE
  8
_0-0_
  6
CONTINUOUS
 62
    7
 10
254.75503958563451
 20
303.78383351724415
 11
264.75503958563451
 21
303.78383351724415
  0
LINE
  8
_0-0_
  6
CONTINUOUS
 62
    7
 10
260.18805227975491
 20
303.78383351724415
 11
259.3220268915141
 21
305.28383357684879
  0
LINE
  8
_0-0_
  6
CONTINUOUS
 62
    7
 10
257.88003958563451
 20
303.78383351724415
 11
257.88003958563451
 21
298.38383342187672
  0
LINE
  8
_0-0_
  6
CONTINUOUS
 62
    7
 10
257.25503958563451
 20
298.38383342187672
 11
257.25503958563451
 21
303.78383351724415
  0
LINE
  8
_0-0_
  6
CONTINUOUS
 62
    7
 10
256.63003958563451
 20
303.78383351724415
 11
256.63003958563451
 21
298.38383342187672
  0
LINE
  8
_0-0_
  6
CONTINUOUS
 62
    7
 10
256.00503958563451
 20
298.38383342187672
 11
256.00503958563451
 21
303.78383351724415
  0
LINE
  8
_0-0_
  6
CONTINUOUS
 62
    7
 10
253.31503952841405
 20
305.28383357684879
 11
253.31503952841405
 21
306.22383357446461
  0
LINE
  8
_0-0_
  6
CONTINUOUS
 62
    7
 10
240.46214636682117
 20
321.22383357446461
 11
240.46214636682117
 21
306.22383357446461
  0
LINE
  8
_0-0_
  6
CONTINUOUS
 62
    7
 10
240.46214636682117
 20
306.22383357446461
 11
425.46214636682117
 21
306.22383357446461
  0
LINE
  8
_0-0_
  6
CONTINUOUS
 62
    7
 10
425.46214636682117
 20
306.22383357446461
 11
425.46214636682117
 21
321.22383357446461
  0
LINE
  8
_0-0_
  6
CONTINUOUS
 62
    7
 10
425.46214636682117
 20
321.22383357446461
 11
240.46214636682117
 21
321.22383357446461
  0
LINE
  8
_0-0_
  6
CONTINUOUS
 62
    7
 10
298.39034947460124
 20
294.58430530178066
 11
298.39034947460124
 21
304.86336069832259
  0
LINE
  8
_0-0_
  6
CONTINUOUS
 62
    7
 10
298.56214627145465
 20
358.22383357446461
 11
284.3621464621886
 21
358.22383357446461
  0
LINE
  8
_0-0_
  6
CONTINUOUS
 62
    7
 10
284.3621464621886
 20
358.22383357446461
 11
283.46214636682208
 21
357.32383395593433
  0
LINE
  8
_0-0_
  6
CONTINUOUS
 62
    7
 10
299.46214636682117
 20
357.32383395593433
 11
298.56214627145465
 21
358.22383357446461
  0
LINE
  8
_0-0_
  6
CONTINUOUS
 62
    7
 10
299.46214636682117
 20
357.32383395593433
 11
299.46214636682117
 21
321.22383357446461
  0
LINE
  8
_0-0_
  6
CONTINUOUS
 62
    7
 10
283.46214636682208
 20
357.32383395593433
 11
283.46214636682208
 21
321.22383357446461
  0
LINE
  8
_0-0_
  6
CONTINUOUS
 62
    7
 10
265.46214636682117
 20
212.22383357446461
 11
265.46214636682117
 21
213.22383357446461
  0
LINE
  8
_0-0_
  6
CONTINUOUS
 62
    7
 10
265.46214636682117
 20
212.22383357446461
 11
317.46214636682117
 21
212.22383357446461
  0
LINE
  8
_0-0_
  6
CONTINUOUS
 62
    7
 10
317.46214636682117
 20
212.22383357446461
 11
317.46214636682117
 21
213.22383357446461
  0
LINE
  8
_0-0_
  6
CONTINUOUS
 62
    7
 10
321.46214636682117
 20
213.22383357446461
 11
261.46214636682117
 21
213.22383357446461
  0
LINE
  8
_0-0_
  6
CONTINUOUS
 62
    7
 10
261.46214636682117
 20
213.22383357446461
 11
261.46214636682117
 21
225.02383357446456
  0
LINE
  8
_0-0_
  6
CONTINUOUS
 62
    7
 10
261.46214636682117
 20
225.02383357446456
 11
273.6621463668219
 21
237.22383357446461
  0
LINE
  8
_0-0_
  6
CONTINUOUS
 62
    7
 10
273.6621463668219
 20
237.22383357446461
 11
309.26214636682136
 21
237.22383357446461
  0
LINE
  8
_0-0_
  6
CONTINUOUS
 62
    7
 10
309.26214636682136
 20
237.22383357446461
 11
321.46214636682117
 21
225.02383357446456
  0
LINE
  8
_0-0_
  6
CONTINUOUS
 62
    7
 10
321.46214636682117
 20
225.02383357446456
 11
261.46214636682117
 21
225.02383357446456
  0
LINE
  8
_0-0_
  6
CONTINUOUS
 62
    7
 10
321.46214636682117
 20
225.02383357446456
 11
321.46214636682117
 21
213.22383357446461
  0
ARC
  8
_0-0_
  6
CONTINUOUS
 62
    7
 10
376.96214636682117
 20
244.72383357446461
 40
32.499999999999986
 50
134.5367044831703
 51
45.463295516829703
  0
ARC
  8
_0-0_
  6
CONTINUOUS
 62
    7
 10
376.96214636682117
 20
244.72383357446461
 40
15.499999999999986
 50
270
 51
344.20565913301544
  0
CIRCLE
  8
_0-0_
  6
CONTINUOUS
 62
    7
 10
376.96214636682117
 20
244.72383357446461
 40
8.5
  0
ARC
  8
_0-0_
  6
CONTINUOUS
 62
    7
 10
376.96214636682117
 20
244.72383357446461
 40
15.499999999999986
 50
195.79434086698456
 51
270
  0
ARC
  8
_0-0_
  6
CONTINUOUS
 62
    7
 10
336.06214636682063
 20
293.02383357446433
 40
9.9999999999999858
 50
16.933599563886567
 51
90.000000000000014
  0
ARC
  8
_0-0_
  6
CONTINUOUS
 62
    7
 10
336.06214636682063
 20
296.22383357446461
 40
9.9999999999999858
 50
15.641572788779481
 51
90.000000000000014
  0
ARC
  8
_0-0_
  6
CONTINUOUS
 62
    7
 10
291.46214636682117
 20
234.22383357446461
 40
12
 50
14.47751218592987
 51
48.189685104221041
  0
ARC
  8
_0-0_
  6
CONTINUOUS
 62
    7
 10
291.46214636682117
 20
234.22383357446461
 40
12
 50
131.81031489577896
 51
165.52248781407013
  0
LINE
  8
_0-0_
  6
CONTINUOUS
 62
    7
 10
298.39034868458452
 20
248.58430690124658
 11
299.91557353244366
 21
247.63890801449634
  0
LINE
  8
_0-0_
  6
CONTINUOUS
 62
    7
 10
299.91557353244366
 20
247.63890801449634
 11
301.49971018462844
 21
247.23757689186175
  0
LINE
  8
_0-0_
  6
CONTINUOUS
 62
    7
 10
301.49971018462844
 20
247.23757689186175
 11
303.09462545057409
 21
247.39250777642064
  0
LINE
  8
_0-0_
  6
CONTINUOUS
 62
    7
 10
303.09462545057409
 20
247.39250777642064
 11
304.65185863699088
 21
248.09899317164451
  0
LINE
  8
_0-0_
  6
CONTINUOUS
 62
    7
 10
304.65185863699088
 20
248.09899317164451
 11
305.3185506352533
 21
248.58430505615479
  0
LINE
  8
_0-0_
  6
CONTINUOUS
 62
    7
 10
277.60573984364214
 20
248.58430690124658
 11
279.13096469150128
 21
247.63890801449634
  0
LINE
  8
_0-0_
  6
CONTINUOUS
 62
    7
 10
279.13096469150128
 20
247.63890801449634
 11
280.71510134368606
 21
247.23757689186175
  0
LINE
  8
_0-0_
  6
CONTINUOUS
 62
    7
 10
280.71510134368606
 20
247.23757689186175
 11
282.3100166096317
 21
247.39250777642064
  0
LINE
  8
_0-0_
  6
CONTINUOUS
 62
    7
 10
282.3100166096317
 20
247.39250777642064
 11
283.8672497960485
 21
248.09899317164451
  0
LINE
  8
_0-0_
  6
CONTINUOUS
 62
    7
 10
283.8672497960485
 20
248.09899317164451
 11
284.53394179431092
 21
248.58430505615479
  0
ARC
  8
_0-0_
  6
CONTINUOUS
 62
    7
 10
291.46214636867472
 20
265.54500724237232
 40
18.321172714233398
 50
247.78068542480463
 51
292.21929931640619
  0
ARC
  8
_0-0_
  6
CONTINUOUS
 62
    7
 10
291.46214636867472
 20
287.90265990655689
 40
18.321172714233398
 50
67.780689151566392
 51
112.21931084843362
  0
LINE
  8
_0-0_
  6
CONTINUOUS
 62
    7
 10
305.31855258052769
 20
304.86336050354146
 11
303.79332771521177
 21
305.80875927763844
  0
LINE
  8
_0-0_
  6
CONTINUOUS
 62
    7
 10
303.79332771521177
 20
305.80875927763844
 11
302.20919105561643
 21
306.21009028326864
  0
LINE
  8
_0-0_
  6
CONTINUOUS
 62
    7
 10
302.20919105561643
 20
306.21009028326864
 11
300.6142757925316
 21
306.05515928090921
  0
LINE
  8
_0-0_
  6
CONTINUOUS
 62
    7
 10
300.6142757925316
 20
306.05515928090921
 11
299.05704261916003
 21
305.34867377066797
  0
LINE
  8
_0-0_
  6
CONTINUOUS
 62
    7
 10
299.05704261916003
 20
305.34867377066797
 11
298.39034868458452
 21
304.86336024768269
  0
LINE
  8
_0-0_
  6
CONTINUOUS
 62
    7
 10
284.53394179431092
 20
304.86336209277442
 11
283.00871682056442
 21
305.80876016714075
  0
LINE
  8
_0-0_
  6
CONTINUOUS
 62
    7
 10
283.00871682056442
 20
305.80876016714075
 11
281.4245801149392
 21
306.21009044601311
  0
LINE
  8
_0-0_
  6
CONTINUOUS
 62
    7
 10
281.4245801149392
 20
306.21009044601311
 11
279.82966486962391
 21
306.05515871195098
  0
LINE
  8
_0-0_
  6
CONTINUOUS
 62
    7
 10
279.82966486962391
 20
306.05515871195098
 11
278.27243177728138
 21
305.34867248729455
  0
LINE
  8
_0-0_
  6
CONTINUOUS
 62
    7
 10
278.27243177728138
 20
305.34867248729455
 11
277.60574015682158
 21
304.86336050354134
  0
LINE
  8
_0-0_
  6
CONTINUOUS
 62
    7
 10
298.39034868458452
 20
294.58430690309876
 11
299.91557353244366
 21
293.63890801634852
  0
LINE
  8
_0-0_
  6
CONTINUOUS
 62
    7
 10
299.91557353244366
 20
293.63890801634852
 11
301.49971018462844
 21
293.23757689371394
  0
LINE
  8
_0-0_
  6
CONTINUOUS
 62
    7
 10
301.49971018462844
 20
293.23757689371394
 11
303.09462545057409
 21
293.39250777827283
  0
LINE
  8
_0-0_
  6
CONTINUOUS
 62
    7
 10
303.09462545057409
 20
293.39250777827283
 11
304.65185863699088
 21
294.09899317349669
  0
LINE
  8
_0-0_
  6
CONTINUOUS
 62
    7
 10
304.65185863699088
 20
294.09899317349669
 11
305.3185506352533
 21
294.58430505800698
  0
LINE
  8
_0-0_
  6
CONTINUOUS
 62
    7
 10
277.60573984364214
 20
294.58430690309876
 11
279.13096469150128
 21
293.63890801634852
  0
LINE
  8
_0-0_
  6
CONTINUOUS
 62
    7
 10
279.13096469150128
 20
293.63890801634852
 11
280.71510134368606
 21
293.23757689371394
  0
LINE
  8
_0-0_
  6
CONTINUOUS
 62
    7
 10
280.71510134368606
 20
293.23757689371394
 11
282.3100166096317
 21
293.39250777827283
  0
LINE
  8
_0-0_
  6
CONTINUOUS
 62
    7
 10
282.3100166096317
 20
293.39250777827283
 11
283.8672497960485
 21
294.09899317349669
  0
LINE
  8
_0-0_
  6
CONTINUOUS
 62
    7
 10
283.8672497960485
 20
294.09899317349669
 11
284.53394179431092
 21
294.58430505800698
  0
ARC
  8
_0-0_
  6
CONTINUOUS
 62
    7
 10
291.46214636867472
 20
311.54500724422451
 40
18.321172714233398
 50
247.78068542480463
 51
292.21929931640619
  0
ARC
  8
_0-0_
  6
CONTINUOUS
 62
    7
 10
376.96214636682117
 20
244.72383357446461
 40
26.499999999999986
 50
141.56203196710715
 51
38.437968032892911
  0
ARC
  8
_0-0_
  6
CONTINUOUS
 62
    7
 10
376.96214636682117
 20
244.72383357446461
 40
24.999999999999986
 50
143.9577072624455
 51
36.042292737554533
  0
ARC
  8
_0-0_
  6
CONTINUOUS
 62
    7
 10
376.96214636682117
 20
244.72383357446461
 40
20.999999999999986
 50
153.21098365441662
 51
26.789016345583377
  0
ARC
  8
_0-0_
  6
CONTINUOUS
 62
    7
 10
376.96214636682117
 20
244.72383357446461
 40
19.499999999999986
 50
158.28472081587677
 51
21.715279184123233
  0
LINE
  8
_0-0_
  6
CONTINUOUS
 62
    7
 10
184.7089495049301
 20
306.22383357446461
 11
184.7089495049301
 21
321.22383357446461
  0
LINE
  8
_0-0_
  6
CONTINUOUS
 62
    7
 10
184.7089495049301
 20
321.22383357446461
 11
34.70894950493016
 21
321.22383357446461
  0
LINE
  8
_0-0_
  6
CONTINUOUS
 62
    7
 10
34.70894950493016
 20
321.22383357446461
 11
34.70894950493016
 21
306.22383357446461
  0
LINE
  8
_0-0_
  6
CONTINUOUS
 62
    7
 10
34.70894950493016
 20
306.22383357446461
 11
184.7089495049301
 21
306.22383357446461
  0
LINE
  8
_0-0_
  6
CONTINUOUS
 62
    7
 10
147.56535571863577
 20
304.86336050354157
 11
147.56535571863577
 21
294.5843053017802
  0
LINE
  8
_0-0_
  6
CONTINUOUS
 62
    7
 10
144.10125392725485
 20
293.22383357631634
 11
123.31664508631246
 21
293.22383357631634
  0
LINE
  8
_0-0_
  6
CONTINUOUS
 62
    7
 10
125.7089495049301
 20
293.22383357631634
 11
125.7089495049301
 21
257.22383357446461
  0
LINE
  8
_0-0_
  6
CONTINUOUS
 62
    7
 10
126.78074640085623
 20
257.22383357631679
 11
126.78074640085623
 21
248.58430529992847
  0
LINE
  8
_0-0_
  6
CONTINUOUS
 62
    7
 10
125.7089495049301
 20
247.22383357446461
 11
125.7089495049301
 21
243.16810548446347
  0
LINE
  8
_0-0_
  6
CONTINUOUS
 62
    7
 10
125.7089495049301
 20
243.16810548446347
 11
141.7089495049301
 21
243.16810548446347
  0
LINE
  8
_0-0_
  6
CONTINUOUS
 62
    7
 10
141.7089495049301
 20
243.16810548446347
 11
141.7089495049301
 21
247.22383357446461
  0
LINE
  8
_0-0_
  6
CONTINUOUS
 62
    7
 10
144.10125392725485
 20
247.22383357446461
 11
123.31664508631246
 21
247.22383357446461
  0
LINE
  8
_0-0_
  6
CONTINUOUS
 62
    7
 10
119.85254329492972
 20
248.58430529992847
 11
119.85254329492972
 21
257.22383357631725
  0
LINE
  8
_0-0_
  6
CONTINUOUS
 62
    7
 10
119.85254329492972
 20
257.22383357631725
 11
147.56535571863577
 21
257.22383357631725
  0
LINE
  8
_0-0_
  6
CONTINUOUS
 62
    7
 10
147.56535571863577
 20
257.22383357631725
 11
147.56535571863577
 21
248.58430529992847
  0
LINE
  8
_0-0_
  6
CONTINUOUS
 62
    7
 10
140.63715261270926
 20
248.58430529992847
 11
140.63715261270926
 21
257.22383357631679
  0
LINE
  8
_0-0_
  6
CONTINUOUS
 62
    7
 10
141.7089495049301
 20
257.22383357446461
 11
141.7089495049301
 21
293.22383357631634
  0
LINE
  8
_0-0_
  6
CONTINUOUS
 62
    7
 10
126.78074640085623
 20
294.5843053017802
 11
126.78074640085623
 21
304.86336069832259
  0
LINE
  8
_0-0_
  6
CONTINUOUS
 62
    7
 10
126.60894960029754
 20
358.22383357446461
 11
140.80894940956267
 21
358.22383357446461
  0
LINE
  8
_0-0_
  6
CONTINUOUS
 62
    7
 10
140.80894940956267
 20
358.22383357446461
 11
141.7089495049301
 21
357.32383395593433
  0
LINE
  8
_0-0_
  6
CONTINUOUS
 62
    7
 10
125.7089495049301
 20
357.32383395593433
 11
126.60894960029754
 21
358.22383357446461
  0
LINE
  8
_0-0_
  6
CONTINUOUS
 62
    7
 10
123.31664508631246
 20
306.22383357446461
 11
144.10125392725485
 21
306.22383357446461
  0
LINE
  8
_0-0_
  6
CONTINUOUS
 62
    7
 10
140.63715261270926
 20
304.86336069832259
 11
140.63715261270926
 21
294.5843053017802
  0
LINE
  8
_0-0_
  6
CONTINUOUS
 62
    7
 10
119.85254329492972
 20
294.5843053017802
 11
119.85254329492972
 21
304.86336050354157
  0
LINE
  8
_0-0_
  6
CONTINUOUS
 62
    7
 10
103.70894950492919
 20
225.02383357446433
 11
103.70894950492919
 21
213.22383357446438
  0
LINE
  8
_0-0_
  6
CONTINUOUS
 62
    7
 10
103.70894950492919
 20
213.22383357446438
 11
163.7089495049301
 21
213.22383357446438
  0
LINE
  8
_0-0_
  6
CONTINUOUS
 62
    7
 10
163.7089495049301
 20
213.22383357446438
 11
163.7089495049301
 21
225.02383357446433
  0
LINE
  8
_0-0_
  6
CONTINUOUS
 62
    7
 10
163.7089495049301
 20
225.02383357446433
 11
151.50894950493029
 21
237.22383357446461
  0
LINE
  8
_0-0_
  6
CONTINUOUS
 62
    7
 10
151.50894950493029
 20
237.22383357446461
 11
115.90894950492992
 21
237.22383357446461
  0
LINE
  8
_0-0_
  6
CONTINUOUS
 62
    7
 10
115.90894950492992
 20
237.22383357446461
 11
103.70894950492919
 21
225.02383357446433
  0
LINE
  8
_0-0_
  6
CONTINUOUS
 62
    7
 10
103.70894950492919
 20
225.02383357446433
 11
163.7089495049301
 21
225.02383357446433
  0
LINE
  8
_0-0_
  6
CONTINUOUS
 62
    7
 10
159.7089495049301
 20
213.22383357446438
 11
159.7089495049301
 21
212.22383357446438
  0
LINE
  8
_0-0_
  6
CONTINUOUS
 62
    7
 10
159.7089495049301
 20
212.22383357446438
 11
107.7089495049301
 21
212.22383357446438
  0
LINE
  8
_0-0_
  6
CONTINUOUS
 62
    7
 10
107.7089495049301
 20
212.22383357446438
 11
107.7089495049301
 21
213.22383357446438
  0
ARC
  8
_0-0_
  6
CONTINUOUS
 62
    7
 10
133.7089495049301
 20
234.22383357446461
 40
12
 50
14.47751218592987
 51
48.189685104221041
  0
ARC
  8
_0-0_
  6
CONTINUOUS
 62
    7
 10
133.7089495049301
 20
234.22383357446461
 40
12
 50
131.81031489577896
 51
165.52248781407013
  0
LINE
  8
_0-0_
  6
CONTINUOUS
 62
    7
 10
140.63715182269345
 20
248.58430690124658
 11
142.16237667055253
 21
247.63890801449634
  0
LINE
  8
_0-0_
  6
CONTINUOUS
 62
    7
 10
142.16237667055253
 20
247.63890801449634
 11
143.74651332273737
 21
247.23757689186175
  0
LINE
  8
_0-0_
  6
CONTINUOUS
 62
    7
 10
143.74651332273737
 20
247.23757689186175
 11
145.34142858868296
 21
247.39250777642064
  0
LINE
  8
_0-0_
  6
CONTINUOUS
 62
    7
 10
145.34142858868296
 20
247.39250777642064
 11
146.89866177509981
 21
248.09899317164451
  0
LINE
  8
_0-0_
  6
CONTINUOUS
 62
    7
 10
146.89866177509981
 20
248.09899317164451
 11
147.56535377336223
 21
248.58430505615479
  0
LINE
  8
_0-0_
  6
CONTINUOUS
 62
    7
 10
119.85254298175107
 20
248.58430690124658
 11
121.37776782961015
 21
247.63890801449634
  0
LINE
  8
_0-0_
  6
CONTINUOUS
 62
    7
 10
121.37776782961015
 20
247.63890801449634
 11
122.96190448179499
 21
247.23757689186175
  0
LINE
  8
_0-0_
  6
CONTINUOUS
 62
    7
 10
122.96190448179499
 20
247.23757689186175
 11
124.55681974774058
 21
247.39250777642064
  0
LINE
  8
_0-0_
  6
CONTINUOUS
 62
    7
 10
124.55681974774058
 20
247.39250777642064
 11
126.11405293415743
 21
248.09899317164451
  0
LINE
  8
_0-0_
  6
CONTINUOUS
 62
    7
 10
126.11405293415743
 20
248.09899317164451
 11
126.78074493241985
 21
248.58430505615479
  0
ARC
  8
_0-0_
  6
CONTINUOUS
 62
    7
 10
133.70894950678274
 20
265.54500724237232
 40
18.321172714233398
 50
247.78068542480463
 51
292.21929931640619
  0
ARC
  8
_0-0_
  6
CONTINUOUS
 62
    7
 10
133.70894950678274
 20
287.90265990655689
 40
18.321172714233398
 50
67.78068915156642
 51
112.21931084843365
  0
LINE
  8
_0-0_
  6
CONTINUOUS
 62
    7
 10
147.56535571863662
 20
304.86336050354146
 11
146.0401308533207
 21
305.80875927763844
  0
LINE
  8
_0-0_
  6
CONTINUOUS
 62
    7
 10
146.0401308533207
 20
305.80875927763844
 11
144.4559941937253
 21
306.21009028326864
  0
LINE
  8
_0-0_
  6
CONTINUOUS
 62
    7
 10
144.4559941937253
 20
306.21009028326864
 11
142.86107893064053
 21
306.05515928090921
  0
LINE
  8
_0-0_
  6
CONTINUOUS
 62
    7
 10
142.86107893064053
 20
306.05515928090921
 11
141.30384575726896
 21
305.34867377066797
  0
LINE
  8
_0-0_
  6
CONTINUOUS
 62
    7
 10
141.30384575726896
 20
305.34867377066797
 11
140.63715182269345
 21
304.86336024768269
  0
LINE
  8
_0-0_
  6
CONTINUOUS
 62
    7
 10
126.78074493241985
 20
304.86336209277442
 11
125.25551995867335
 21
305.80876016714075
  0
LINE
  8
_0-0_
  6
CONTINUOUS
 62
    7
 10
125.25551995867335
 20
305.80876016714075
 11
123.67138325304813
 21
306.21009044601311
  0
LINE
  8
_0-0_
  6
CONTINUOUS
 62
    7
 10
123.67138325304813
 20
306.21009044601311
 11
122.07646800773284
 21
306.05515871195098
  0
LINE
  8
_0-0_
  6
CONTINUOUS
 62
    7
 10
122.07646800773284
 20
306.05515871195098
 11
120.51923491539031
 21
305.34867248729455
  0
LINE
  8
_0-0_
  6
CONTINUOUS
 62
    7
 10
120.51923491539031
 20
305.34867248729455
 11
119.85254329493051
 21
304.86336050354134
  0
LINE
  8
_0-0_
  6
CONTINUOUS
 62
    7
 10
140.63715182269345
 20
294.58430690309831
 11
142.16237667055253
 21
293.63890801634807
  0
LINE
  8
_0-0_
  6
CONTINUOUS
 62
    7
 10
142.16237667055253
 20
293.63890801634807
 11
143.74651332273737
 21
293.23757689371348
  0
LINE
  8
_0-0_
  6
CONTINUOUS
 62
    7
 10
143.74651332273737
 20
293.23757689371348
 11
145.34142858868296
 21
293.39250777827237
  0
LINE
  8
_0-0_
  6
CONTINUOUS
 62
    7
 10
145.34142858868296
 20
293.39250777827237
 11
146.89866177509981
 21
294.09899317349624
  0
LINE
  8
_0-0_
  6
CONTINUOUS
 62
    7
 10
146.89866177509981
 20
294.09899317349624
 11
147.56535377336223
 21
294.58430505800652
  0
LINE
  8
_0-0_
  6
CONTINUOUS
 62
    7
 10
119.85254298175107
 20
294.58430690309831
 11
121.37776782961015
 21
293.63890801634807
  0
LINE
  8
_0-0_
  6
CONTINUOUS
 62
    7
 10
121.37776782961015
 20
293.63890801634807
 11
122.96190448179499
 21
293.23757689371348
  0
LINE
  8
_0-0_
  6
CONTINUOUS
 62
    7
 10
122.96190448179499
 20
293.23757689371348
 11
124.55681974774058
 21
293.39250777827237
  0
LINE
  8
_0-0_
  6
CONTINUOUS
 62
    7
 10
124.55681974774058
 20
293.39250777827237
 11
126.11405293415743
 21
294.09899317349624
  0
LINE
  8
_0-0_
  6
CONTINUOUS
 62
    7
 10
126.11405293415743
 20
294.09899317349624
 11
126.78074493241985
 21
294.58430505800652
  0
ARC
  8
_0-0_
  6
CONTINUOUS
 62
    7
 10
133.70894950678274
 20
311.54500724422405
 40
18.321172714233398
 50
247.78068542480463
 51
292.21929931640619
  0
LINE
  8
_0-0_
  6
CONTINUOUS
 62
    7
 10
103.47317948311928
 20
306.22383357446461
 11
34.944719526741437
 21
306.22383357446461
  0
LINE
  8
_0-0_
  6
CONTINUOUS
 62
    7
 10
34.444719526741437
 20
305.72383357446461
 11
34.444719526741437
 21
301.41739848065527
  0
LINE
  8
_0-0_
  6
CONTINUOUS
 62
    7
 10
35.70894950493016
 20
301.41898460890343
 11
35.70894950493016
 21
303.02383357446433
  0
LINE
  8
_0-0_
  6
CONTINUOUS
 62
    7
 10
35.70894950493016
 20
303.02383357446433
 11
102.70894950493056
 21
303.02383357446433
  0
LINE
  8
_0-0_
  6
CONTINUOUS
 62
    7
 10
102.70894950493056
 20
303.02383357446433
 11
102.70894950493056
 21
301.41898460890343
  0
LINE
  8
_0-0_
  6
CONTINUOUS
 62
    7
 10
103.97317948311883
 20
301.41739848065527
 11
103.97317948311883
 21
305.72383357446461
  0
LINE
  8
_0-0_
  6
CONTINUOUS
 62
    7
 10
92.508949504930285
 20
298.02383357446433
 11
92.508949504930285
 21
229.22383357446461
  0
LINE
  8
_0-0_
  6
CONTINUOUS
 62
    7
 10
92.508949504930285
 20
229.22383357446461
 11
95.708949504930104
 21
229.22383357446461
  0
LINE
  8
_0-0_
  6
CONTINUOUS
 62
    7
 10
95.708949504930104
 20
229.22383357446461
 11
95.708949504930104
 21
259.22383357446415
  0
LINE
  8
_0-0_
  6
CONTINUOUS
 62
    7
 10
95.708949504930104
 20
253.22383357446461
 11
96.708949504930104
 21
253.22383357446461
  0
LINE
  8
_0-0_
  6
CONTINUOUS
 62
    7
 10
96.708949504930104
 20
253.22383357446461
 11
96.708949504930104
 21
236.22383357533545
  0
LINE
  8
_0-0_
  6
CONTINUOUS
 62
    7
 10
96.708949504930104
 20
236.22383357533545
 11
95.708949504930104
 21
236.22383357533545
  0
LINE
  8
_0-0_
  6
CONTINUOUS
 62
    7
 10
92.508949504930285
 20
234.72383357446461
 11
90.808949504930467
 21
234.72383357446461
  0
LINE
  8
_0-0_
  6
CONTINUOUS
 62
    7
 10
90.808949504930467
 20
225.22383357446461
 11
89.208949504930558
 21
223.72383357446461
  0
LINE
  8
_0-0_
  6
CONTINUOUS
 62
    7
 10
90.808949504930467
 20
225.22383357446461
 11
90.808949504930467
 21
264.22383357446461
  0
LINE
  8
_0-0_
  6
CONTINUOUS
 62
    7
 10
90.808949504930467
 20
264.22383357446461
 11
89.208949504930558
 21
265.72383357446461
  0
LINE
  8
_0-0_
  6
CONTINUOUS
 62
    7
 10
89.208949504930558
 20
274.22383357446461
 11
89.208949504930558
 21
215.22383357446461
  0
LINE
  8
_0-0_
  6
CONTINUOUS
 62
    7
 10
86.208949504930558
 20
212.22383357446461
 11
52.20894950493016
 21
212.22383357446461
  0
LINE
  8
_0-0_
  6
CONTINUOUS
 62
    7
 10
49.20894950493016
 20
215.22383357446461
 11
49.20894950493016
 21
274.22383357446461
  0
LINE
  8
_0-0_
  6
CONTINUOUS
 62
    7
 10
52.20894950493016
 20
277.22383357446461
 11
86.208949504930558
 21
277.22383357446461
  0
LINE
  8
_0-0_
  6
CONTINUOUS
 62
    7
 10
49.20894950493016
 20
223.72383357446461
 11
47.608949504930251
 21
225.22383357446461
  0
LINE
  8
_0-0_
  6
CONTINUOUS
 62
    7
 10
47.608949504930251
 20
225.22383357446461
 11
47.608949504930251
 21
264.22383357446461
  0
LINE
  8
_0-0_
  6
CONTINUOUS
 62
    7
 10
47.608949504930251
 20
264.22383357446461
 11
49.20894950493016
 21
265.72383357446461
  0
LINE
  8
_0-0_
  6
CONTINUOUS
 62
    7
 10
47.608949504930251
 20
254.72383357446461
 11
45.908949504930433
 21
254.72383357446461
  0
LINE
  8
_0-0_
  6
CONTINUOUS
 62
    7
 10
41.95839400492946
 20
254.52383357446479
 11
37.103842504929844
 21
254.52383357446479
  0
LINE
  8
_0-0_
  6
CONTINUOUS
 62
    7
 10
37.103842504929844
 20
254.52383357446479
 11
36.20894950493016
 21
252.97383357446461
  0
LINE
  8
_0-0_
  6
CONTINUOUS
 62
    7
 10
36.20894950493016
 20
252.97383357446461
 11
35.45894950493016
 21
252.97383357446461
  0
LINE
  8
_0-0_
  6
CONTINUOUS
 62
    7
 10
34.70894950493016
 20
252.22383357446461
 11
34.70894950493016
 21
237.22383357446461
  0
LINE
  8
_0-0_
  6
CONTINUOUS
 62
    7
 10
35.45894950493016
 20
236.47383357446461
 11
36.20894950493016
 21
236.47383357446461
  0
LINE
  8
_0-0_
  6
CONTINUOUS
 62
    7
 10
36.20894950493016
 20
236.47383357446461
 11
37.103842504929844
 21
234.92383357446442
  0
LINE
  8
_0-0_
  6
CONTINUOUS
 62
    7
 10
37.103842504929844
 20
234.92383357446442
 11
41.95839400492946
 21
234.92383357446442
  0
LINE
  8
_0-0_
  6
CONTINUOUS
 62
    7
 10
41.95839400492946
 20
234.92383357446442
 11
42.708949504930615
 21
236.22383357446461
  0
LINE
  8
_0-0_
  6
CONTINUOUS
 62
    7
 10
41.95839400492946
 20
239.82383357446497
 11
37.103842504929844
 21
239.82383357446497
  0
LINE
  8
_0-0_
  6
CONTINUOUS
 62
    7
 10
34.70894950493016
 20
239.72383357446461
 11
31.408950267870068
 21
239.72383357446461
  0
LINE
  8
_0-0_
  6
CONTINUOUS
 62
    7
 10
31.408950267870068
 20
239.72383357446461
 11
31.408950267870068
 21
249.72383357446461
  0
LINE
  8
_0-0_
  6
CONTINUOUS
 62
    7
 10
31.408950267870068
 20
249.72383357446461
 11
34.70894950493016
 21
249.72383357446461
  0
LINE
  8
_0-0_
  6
CONTINUOUS
 62
    7
 10
34.70894950493016
 20
249.02383376519947
 11
30.708949504930615
 21
249.02383376519947
  0
LINE
  8
_0-0_
  6
CONTINUOUS
 62
    7
 10
30.708949504930615
 20
249.02383376519947
 11
31.408950267870068
 21
249.72383357446461
  0
LINE
  8
_0-0_
  6
CONTINUOUS
 62
    7
 10
30.708949504930615
 20
249.02383376519947
 11
30.708949504930615
 21
240.42383338372974
  0
LINE
  8
_0-0_
  6
CONTINUOUS
 62
    7
 10
30.708949504930615
 20
240.42383338372974
 11
31.408950267870068
 21
239.72383357446461
  0
LINE
  8
_0-0_
  6
CONTINUOUS
 62
    7
 10
30.708949504930615
 20
240.42383338372974
 11
34.70894950493016
 21
240.42383338372974
  0
LINE
  8
_0-0_
  6
CONTINUOUS
 62
    7
 10
92.508949504930285
 20
254.72383357446461
 11
90.808949504930467
 21
254.72383357446461
  0
LINE
  8
_0-0_
  6
CONTINUOUS
 62
    7
 10
41.95839400492946
 20
254.52383357446479
 11
42.708949504930615
 21
253.22383357446461
  0
LINE
  8
_0-0_
  6
CONTINUOUS
 62
    7
 10
41.95839400492946
 20
249.62383357446515
 11
37.103842504929844
 21
249.62383357446515
  0
LINE
  8
_0-0_
  6
CONTINUOUS
 62
    7
 10
45.908949504930433
 20
234.72383357446461
 11
47.608949504930251
 21
234.72383357446461
  0
LINE
  8
_0-0_
  6
CONTINUOUS
 62
    7
 10
45.908949504930433
 20
229.22383357446461
 11
45.908949504930433
 21
298.02383357446433
  0
LINE
  8
_0-0_
  6
CONTINUOUS
 62
    7
 10
56.20894950493016
 20
302.02383357446433
 11
55.20894950493016
 21
303.02383357446433
  0
LINE
  8
_0-0_
  6
CONTINUOUS
 62
    7
 10
56.20894950493016
 20
302.02383357446433
 11
82.20894950493016
 21
302.02383357446433
  0
LINE
  8
_0-0_
  6
CONTINUOUS
 62
    7
 10
82.20894950493016
 20
302.02383357446433
 11
83.208949504930558
 21
303.02383357446433
  0
LINE
  8
_0-0_
  6
CONTINUOUS
 62
    7
 10
42.708949504930615
 20
259.22383357446415
 11
42.708949504930615
 21
229.22383357446461
  0
LINE
  8
_0-0_
  6
CONTINUOUS
 62
    7
 10
42.708949504930615
 20
229.22383357446461
 11
45.908949504930433
 21
229.22383357446461
  0
ARC
  8
_0-0_
  6
CONTINUOUS
 62
    7
 10
87.508949504929831
 20
298.02383357446433
 40
5
 50
0
 51
90
  0
ARC
  8
_0-0_
  6
CONTINUOUS
 62
    7
 10
50.908949504929979
 20
298.02383357446433
 40
5
 50
90
 51
180
  0
ARC
  8
_0-0_
  6
CONTINUOUS
 62
    7
 10
-67.134163616570504
 20
259.22383357446415
 40
109.84311312150078
 50
0
 51
22.16386014875571
  0
ARC
  8
_0-0_
  6
CONTINUOUS
 62
    7
 10
-44.467068668442153
 20
259.22383357446415
 40
90.376018173817897
 50
0.0000000036577523
 51
27.179265601897853
  0
ARC
  8
_0-0_
  6
CONTINUOUS
 62
    7
 10
36.444719526741437
 20
301.41739848065527
 40
2
 50
180
 51
202.16386014875627
  0
ARC
  8
_0-0_
  6
CONTINUOUS
 62
    7
 10
37.70894950493016
 20
301.41898460890343
 40
2
 50
180
 51
207.17926560189804
  0
ARC
  8
_0-0_
  6
CONTINUOUS
 62
    7
 10
34.944719526741437
 20
305.72383357446461
 40
0.5
 50
90
 51
180
  0
ARC
  8
_0-0_
  6
CONTINUOUS
 62
    7
 10
101.97317948311928
 20
301.41739848065527
 40
2
 50
337.83613985124373
 51
0.0000000000000063
  0
ARC
  8
_0-0_
  6
CONTINUOUS
 62
    7
 10
205.55206262643122
 20
259.22383357446415
 40
109.84311312150078
 50
157.8361398512443
 51
180
  0
ARC
  8
_0-0_
  6
CONTINUOUS
 62
    7
 10
100.7089495049301
 20
301.41898460890343
 40
2
 50
332.82073439810193
 51
0.000000000000019
  0
ARC
  8
_0-0_
  6
CONTINUOUS
 62
    7
 10
182.88496767830264
 20
259.22383357446415
 40
90.376018173817897
 50
152.82073439810216
 51
179.99999999634227
  0
ARC
  8
_0-0_
  6
CONTINUOUS
 62
    7
 10
103.47317948311928
 20
305.72383357446461
 40
0.5
 50
0
 51
90
  0
ARC
  8
_0-0_
  6
CONTINUOUS
 62
    7
 10
35.45894950493016
 20
252.22383357446461
 40
0.75
 50
90
 51
180
  0
ARC
  8
_0-0_
  6
CONTINUOUS
 62
    7
 10
41.187313004930047
 20
252.50918757446516
 40
5
 50
174.66785499999978
 51
215.24477999999985
  0
ARC
  8
_0-0_
  6
CONTINUOUS
 62
    7
 10
46.183711504929988
 20
245.43384857446517
 40
10
 50
155.22862399999991
 51
184.07151099999959
  0
ARC
  8
_0-0_
  6
CONTINUOUS
 62
    7
 10
41.187313004930047
 20
236.93847957446496
 40
5
 50
144.75521999999964
 51
185.33214499999971
  0
ARC
  8
_0-0_
  6
CONTINUOUS
 62
    7
 10
35.45894950493016
 20
237.22383357446461
 40
0.75
 50
180
 51
270
  0
ARC
  8
_0-0_
  6
CONTINUOUS
 62
    7
 10
46.183711504929988
 20
244.01381857446495
 40
10
 50
175.92848900000004
 51
204.77137599999966
  0
ARC
  8
_0-0_
  6
CONTINUOUS
 62
    7
 10
32.757397004930453
 20
245.70699207446478
 40
10
 50
5.6422043214078608
 51
23.059334000000003
  0
ARC
  8
_0-0_
  6
CONTINUOUS
 62
    7
 10
32.757397004930453
 20
243.74067507446443
 40
10
 50
336.94066600000002
 51
354.35779567859214
  0
ARC
  8
_0-0_
  6
CONTINUOUS
 62
    7
 10
37.781904004930539
 20
237.07484657446503
 40
5
 50
9.7995955382493722
 51
33.353117000000431
  0
ARC
  8
_0-0_
  6
CONTINUOUS
 62
    7
 10
37.781904004930539
 20
252.37282057446509
 40
5
 50
326.64688299999955
 51
350.20040446175079
  0
ARC
  8
_0-0_
  6
CONTINUOUS
 62
    7
 10
89.67769950678138
 20
244.72383357446461
 40
11.031249998148837
 50
309.59775270452445
 51
50.402247302573535
  0
ARC
  8
_0-0_
  6
CONTINUOUS
 62
    7
 10
52.20894950493016
 20
215.22383357446461
 40
3
 50
180
 51
270
  0
ARC
  8
_0-0_
  6
CONTINUOUS
 62
    7
 10
86.208949504930558
 20
215.22383357446461
 40
3
 50
270
 51
0
  0
ARC
  8
_0-0_
  6
CONTINUOUS
 62
    7
 10
86.208949504930558
 20
274.22383357446461
 40
3
 50
0
 51
90
  0
ARC
  8
_0-0_
  6
CONTINUOUS
 62
    7
 10
52.20894950493016
 20
274.22383357446461
 40
3
 50
90
 51
180
  0
LINE
  8
ADD_LINE
  6
DOT
 62
  152
 10
43.416056286115918
 20
245.43094035565127
 11
42.708949504930615
 21
244.72383357446461
  0
LINE
  8
ADD_LINE
  6
DOT
 62
  152
 10
42.708949504930615
 20
244.72383357446461
 11
43.416056286115918
 21
244.01672679327794
  0
LINE
  8
_0-1_
  6
CENTER1
 62
  152
 10
573.98650198526184
 20
297.78383399408131
 11
573.98650198526184
 21
321.22383357446461
  0
LINE
  8
_0-1_
  6
CENTER1
 62
  152
 10
633.98650198526184
 20
297.78383399408131
 11
633.98650198526184
 21
321.22383357446461
  0
LINE
  8
_0-1_
  6
CENTER1
 62
  152
 10
69.20894950493016
 20
306.22383357446461
 11
69.20894950493016
 21
212.22383357446438
  0
LINE
  8
_0-1_
  6
PHANTOM1
 62
  152
 10
285.32463750030701
 20
425.3796590451152
 11
236.11882868388415
 21
412.19500230983442
  0
LINE
  8
_0-1_
  6
PHANTOM1
 62
  152
 10
459.31460969258751
 20
365.30823807406773
 11
445.9310075196002
 21
315.35995477618991
  0
LINE
  8
_0-1_
  6
CENTER1
 62
  152
 10
888.03259210321994
 20
244.72383357446461
 11
958.03259210321994
 21
244.72383357446461
  0
LINE
  8
_0-1_
  6
CENTER1
 62
  152
 10
919.53259210321994
 20
306.22383357446461
 11
919.53259210321994
 21
212.22383357446438
  0
LINE
  8
_0-1_
  6
PHANTOM1
 62
  152
 10
979.69003658222823
 20
365.51152473169162
 11
966.35744692333833
 21
315.75362272824657
  0
LINE
  8
_0-1_
  6
PHANTOM1
 62
  152
 10
978.54115319925518
 20
361.22383357446461
 11
844.03259210321994
 21
361.22383357446461
  0
LINE
  8
_0-1_
  6
PHANTOM1
 62
  152
 10
967.82318550201035
 20
321.22383357446461
 11
844.03259210321994
 21
321.22383357446461
  0
LINE
  8
_0-1_
  6
PHANTOM1
 62
  152
 10
844.03259210321994
 20
321.22383357446461
 11
844.03259210321994
 21
424.06688373406047
  0
LINE
  8
_0-1_
  6
PHANTOM1
 62
  152
 10
849.53709239594195
 20
425.54181014223218
 11
798.34022518996198
 21
411.82365091938641
  0
LINE
  8
_0-1_
  6
PHANTOM1
 62
  152
 10
804.03259210321994
 20
321.22383357446461
 11
804.03259210321994
 21
413.34891603681558
  0
LINE
  8
_0-1_
  6
PHANTOM1
 62
  152
 10
748.27939520407517
 20
424.06688373406047
 11
748.27939520407517
 21
321.22383357446461
  0
LINE
  8
_0-1_
  6
PHANTOM1
 62
  152
 10
753.81252108730359
 20
425.54948034609129
 11
702.91859392396259
 21
411.91249366302566
  0
LINE
  8
_0-1_
  6
PHANTOM1
 62
  152
 10
708.27939520407517
 20
413.34891603681558
 11
708.27939520407517
 21
321.22383357446461
  0
LINE
  8
_0-1_
  6
PHANTOM1
 62
  152
 10
557.08030104310228
 20
361.22383357446483
 11
708.27939520407517
 21
361.22383357446483
  0
LINE
  8
_0-1_
  6
PHANTOM1
 62
  152
 10
558.22918442607534
 20
365.51152473169162
 11
544.89659476718543
 21
315.75362272824657
  0
LINE
  8
_0-1_
  6
PHANTOM1
 62
  152
 10
748.27939520407517
 20
321.22383357446461
 11
546.36233334585745
 21
321.22383357446461
  0
LINE
  8
_0-1_
  6
CONTINUOUS
 62
  152
 10
847.93259219858737
 20
293.22383357631634
 11
847.93259219858737
 21
263.72383357446461
  0
LINE
  8
_0-1_
  6
CONTINUOUS
 62
  152
 10
847.93259219858737
 20
263.72383357446461
 11
847.03259210321994
 21
262.16498768247084
  0
LINE
  8
_0-1_
  6
CONTINUOUS
 62
  152
 10
847.03259210321994
 20
263.72383357446461
 11
863.03259210321994
 21
263.72383357446461
  0
LINE
  8
_0-1_
  6
CONTINUOUS
 62
  152
 10
862.13259200785251
 20
263.72383357446461
 11
863.03259210321994
 21
262.16498768247084
  0
LINE
  8
_0-1_
  6
CONTINUOUS
 62
  152
 10
862.13259200785251
 20
263.72383357446461
 11
862.13259200785251
 21
293.22383357631634
  0
LINE
  8
_0-1_
  6
CONTINUOUS
 62
  152
 10
847.03259210321994
 20
357.32383395593433
 11
863.03259210321994
 21
357.32383395593433
  0
LINE
  8
_0-1_
  6
CENTER1
 62
  152
 10
855.03259210321994
 20
212.22383357446438
 11
855.03259210321994
 21
358.22383357446461
  0
LINE
  8
_0-1_
  6
CENTER1
 62
  152
 10
636.77939520407517
 20
277.22383357446461
 11
636.77939520407517
 21
212.22383357446438
  0
LINE
  8
_0-1_
  6
CENTER1
 62
  152
 10
669.27939520407517
 20
244.72383357446461
 11
604.27939520407517
 21
244.72383357446461
  0
LINE
  8
_0-1_
  6
CENTER1
 62
  152
 10
611.77939520407517
 20
238.56858216350383
 11
611.77939520407517
 21
311.46534690701401
  0
LINE
  8
_0-1_
  6
CONTINUOUS
 62
  152
 10
705.27939520407517
 20
357.32383395593433
 11
689.27939520407517
 21
357.32383395593433
  0
LINE
  8
_0-1_
  6
CONTINUOUS
 62
  152
 10
704.37939510870774
 20
358.22383357446461
 11
704.37939510870774
 21
321.22383357446461
  0
LINE
  8
_0-1_
  6
CONTINUOUS
 62
  152
 10
690.1793952994426
 20
358.22383357446461
 11
690.1793952994426
 21
321.22383357631634
  0
LINE
  8
_0-1_
  6
CONTINUOUS
 62
  152
 10
690.1793952994426
 20
293.22383357631634
 11
690.1793952994426
 21
263.72383357446461
  0
LINE
  8
_0-1_
  6
CONTINUOUS
 62
  152
 10
690.1793952994426
 20
263.72383357446461
 11
689.27939520407517
 21
262.16498768247084
  0
LINE
  8
_0-1_
  6
CONTINUOUS
 62
  152
 10
689.27939520407517
 20
263.72383357446461
 11
705.27939520407517
 21
263.72383357446461
  0
LINE
  8
_0-1_
  6
CONTINUOUS
 62
  152
 10
704.37939510870774
 20
263.72383357446461
 11
705.27939520407517
 21
262.16498768247084
  0
LINE
  8
_0-1_
  6
CONTINUOUS
 62
  152
 10
704.37939510870774
 20
263.72383357446461
 11
704.37939510870774
 21
293.22383357631634
  0
LINE
  8
_0-1_
  6
CENTER1
 62
  152
 10
728.98650198526184
 20
297.78383399408131
 11
728.98650198526184
 21
321.22383357446461
  0
LINE
  8
_0-1_
  6
CENTER1
 62
  152
 10
344.46214636682117
 20
244.72383357446461
 11
409.46214636682117
 21
244.72383357446461
  0
LINE
  8
_0-1_
  6
CENTER1
 62
  152
 10
414.75503958563451
 20
297.78383399408131
 11
414.75503958563451
 21
321.22383357446461
  0
LINE
  8
_0-1_
  6
CENTER1
 62
  152
 10
354.75503958563451
 20
297.78383399408131
 11
354.75503958563451
 21
321.22383357446461
  0
LINE
  8
_0-1_
  6
CONTINUOUS
 62
  152
 10
298.56214627145465
 20
293.22383357631679
 11
298.56214627145465
 21
263.72383357446461
  0
LINE
  8
_0-1_
  6
CONTINUOUS
 62
  152
 10
298.56214627145465
 20
263.72383357446461
 11
299.46214636682117
 21
262.16498768247129
  0
LINE
  8
_0-1_
  6
CONTINUOUS
 62
  152
 10
299.46214636682117
 20
263.72383357446461
 11
283.46214636682208
 21
263.72383357446461
  0
LINE
  8
_0-1_
  6
CONTINUOUS
 62
  152
 10
284.3621464621886
 20
263.72383357446461
 11
283.46214636682208
 21
262.16498768247129
  0
LINE
  8
_0-1_
  6
CONTINUOUS
 62
  152
 10
284.3621464621886
 20
263.72383357446461
 11
284.3621464621886
 21
293.22383357631679
  0
LINE
  8
_0-1_
  6
CENTER1
 62
  152
 10
259.75503958563451
 20
321.22383357446461
 11
259.75503958563451
 21
297.78383399408131
  0
LINE
  8
_0-1_
  6
CONTINUOUS
 62
  152
 10
298.56214627145465
 20
321.22383357631679
 11
298.56214627145465
 21
358.22383357446461
  0
LINE
  8
_0-1_
  6
CONTINUOUS
 62
  152
 10
283.46214636682208
 20
357.32383395593433
 11
299.46214636682117
 21
357.32383395593433
  0
LINE
  8
_0-1_
  6
CONTINUOUS
 62
  152
 10
284.3621464621886
 20
321.22383357446461
 11
284.3621464621886
 21
358.22383357446461
  0
LINE
  8
_0-1_
  6
PHANTOM1
 62
  152
 10
280.46214636682117
 20
321.22383357446461
 11
280.46214636682117
 21
424.07675847269417
  0
LINE
  8
_0-1_
  6
PHANTOM1
 62
  152
 10
240.46214636682117
 20
321.22383357446461
 11
240.46214636682117
 21
413.35879077544928
  0
LINE
  8
_0-1_
  6
PHANTOM1
 62
  152
 10
280.46214636682117
 20
361.22383357446461
 11
458.22019680535681
 21
361.22383357446461
  0
LINE
  8
_0-1_
  6
PHANTOM1
 62
  152
 10
447.50222910811186
 20
321.22383357446461
 11
240.46214636682117
 21
321.22383357446461
  0
LINE
  8
_0-1_
  6
PHANTOM1
 62
  152
 10
9.0515050259218697
 20
365.51152473169162
 11
22.384094684811771
 21
315.75362272824657
  0
LINE
  8
_0-1_
  6
PHANTOM1
 62
  152
 10
10.200388408894923
 20
361.22383357446461
 11
144.7089495049301
 21
361.22383357446461
  0
LINE
  8
_0-1_
  6
PHANTOM1
 62
  152
 10
20.918356106139754
 20
321.22383357446461
 11
144.7089495049301
 21
321.22383357446461
  0
LINE
  8
_0-1_
  6
PHANTOM1
 62
  152
 10
144.7089495049301
 20
321.22383357446461
 11
144.7089495049301
 21
424.06688373406047
  0
LINE
  8
_0-1_
  6
PHANTOM1
 62
  152
 10
139.20444921220815
 20
425.54181014223218
 11
190.40131641818812
 21
411.82365091938641
  0
LINE
  8
_0-1_
  6
PHANTOM1
 62
  152
 10
184.7089495049301
 20
321.22383357446461
 11
184.7089495049301
 21
413.34891603681558
  0
LINE
  8
_0-1_
  6
CONTINUOUS
 62
  152
 10
140.80894940956267
 20
293.22383357631634
 11
140.80894940956267
 21
263.72383357446461
  0
LINE
  8
_0-1_
  6
CONTINUOUS
 62
  152
 10
140.80894940956267
 20
263.72383357446461
 11
141.7089495049301
 21
262.16498768247084
  0
LINE
  8
_0-1_
  6
CONTINUOUS
 62
  152
 10
141.7089495049301
 20
263.72383357446461
 11
125.7089495049301
 21
263.72383357446461
  0
LINE
  8
_0-1_
  6
CONTINUOUS
 62
  152
 10
126.60894960029754
 20
263.72383357446461
 11
125.7089495049301
 21
262.16498768247084
  0
LINE
  8
_0-1_
  6
CONTINUOUS
 62
  152
 10
126.60894960029754
 20
263.72383357446461
 11
126.60894960029754
 21
293.22383357631634
  0
LINE
  8
_0-1_
  6
CONTINUOUS
 62
  152
 10
141.7089495049301
 20
357.32383395593433
 11
125.7089495049301
 21
357.32383395593433
  0
LINE
  8
_0-1_
  6
CENTER1
 62
  152
 10
133.7089495049301
 20
212.22383357446438
 11
133.7089495049301
 21
358.22383357446461
  0
LINE
  8
_0-1_
  6
CENTER1
 62
  152
 10
30.708949504930615
 20
244.72383357446461
 11
100.7089495049301
 21
244.72383357446461
  0
LINE
  8
_0-1_
  6
CENTER1
 62
  152
 10
291.46214636682117
 20
358.22383357446461
 11
291.46214636682117
 21
212.22383357446461
  0
LINE
  8
_0-0_
  6
CONTINUOUS
 62
    7
 10
564.27939520407517
 20
302.22383357446461
 11
568.98650198526184
 21
302.22383357446461
  0
LINE
  8
_0-0_
  6
CONTINUOUS
 62
    7
 10
578.98650198526184
 20
302.22383357446461
 11
628.98650198526184
 21
302.22383357446461
  0
LINE
  8
_0-0_
  6
CONTINUOUS
 62
    7
 10
638.98650198526184
 20
302.22383357446461
 11
659.27939520407517
 21
302.22383357446461
  0
LINE
  8
_0-0_
  6
CONTINUOUS
 62
    7
 10
125.7089495049301
 20
357.32383395593433
 11
125.7089495049301
 21
321.22383357446461
  0
LINE
  8
_0-1_
  6
CONTINUOUS
 62
  152
 10
126.60894960029754
 20
321.22383357446461
 11
126.60894960029754
 21
358.22383357446461
  0
LINE
  8
_0-1_
  6
CONTINUOUS
 62
  152
 10
140.80894940956267
 20
358.22383357446461
 11
140.80894940956267
 21
321.22383357446461
  0
LINE
  8
_0-0_
  6
CONTINUOUS
 62
    7
 10
141.7089495049301
 20
321.22383357446461
 11
141.7089495049301
 21
357.32383395593433
  0
LINE
  8
_0-0_
  6
CONTINUOUS
 62
    7
 10
847.03259210321994
 20
321.22383357446461
 11
847.03259210321994
 21
357.32383395593433
  0
LINE
  8
_0-1_
  6
CONTINUOUS
 62
  152
 10
847.93259219858737
 20
358.22383357446461
 11
847.93259219858737
 21
321.22383357446461
  0
LINE
  8
_0-1_
  6
CONTINUOUS
 62
  152
 10
862.13259200785251
 20
321.22383357446461
 11
862.13259200785251
 21
358.22383357446461
  0
LINE
  8
_0-0_
  6
CONTINUOUS
 62
    7
 10
863.03259210321994
 20
357.32383395593433
 11
863.03259210321994
 21
321.22383357446461
  0
LINE
  8
_0-1_
  6
CENTER1
 62
  152
 10
376.96214636682117
 20
212.22383357446483
 11
376.96214636682117
 21
306.22383357446461
  0
LINE
  8
_0-0_
  6
CONTINUOUS
 62
    7
 10
424.46214636682117
 20
303.02383357446433
 11
424.46214636682117
 21
306.22383357446461
  0
LINE
  8
_0-0_
  6
CONTINUOUS
 62
    7
 10
424.46214636682117
 20
303.02383357446433
 11
419.75503958563451
 21
303.02383357446433
  0
ARC
  8
_0-0_
  6
CONTINUOUS
 62
    7
 10
417.86214636682081
 20
293.02383357446433
 40
9.9999999999999858
 50
144.16542481214279
 51
163.06640043611344
  0
ARC
  8
_0-0_
  6
CONTINUOUS
 62
    7
 10
417.86214636682081
 20
296.22383357446461
 40
9.9999999999999858
 50
144.16542481214279
 51
164.35842721122052
  0
LINE
  8
_0-1_
  6
CENTER1
 62
  152
 10
697.27939520407517
 20
212.22383357446438
 11
697.27939520407517
 21
358.22383357446461
  0
TEXT
  8
_0-0_
 62
    7
 10
329.32057228892035
 20
183.59475749777019
 40
10
 41
1
 50
0
  1
L
  0
TEXT
  8
_0-0_
 62
    7
 10
648.33327487323925
 20
183.84034079460184
 40
10
 41
1
 50
0
  1
R
  0
ENDSEC
  0
EOF
