  0
SECTION
  2
HEADER
  9
$ACADVER
  1
AC1009
  9
$INSBASE
 10
0
 20
0
 30
0
  9
$EXTMIN
 10
0
 20
0
  9
$EXTMAX
 10
1189
 20
841
  9
$LIMMIN
 10
0
 20
0
  9
$LIMMAX
 10
1189
 20
841
  9
$LTSCALE
 40
1
  0
ENDSEC
  0
SECTION
  2
TABLES
  0
TABLE
  2
LTYPE
 70
     9
  0
LTYPE
  2
CONTINUOUS
 70
    64
  3
実線
 72
    65
 73
     0
 40
0.0
  0
LTYPE
  2
DASHED1
 70
    64
  3
--  --  --  --  --  --  --  --  
 72
    65
 73
     2
 40
2.5
 49
1.25
 49
-1.25
  0
LTYPE
  2
DASHED2
 70
    64
  3
----    ----    ----    ----    
 72
    65
 73
     2
 40
5.0
 49
2.5
 49
-2.5
  0
LTYPE
  2
DASHED3
 70
    64
  3
------  ------  ------  ------  
 72
    65
 73
     2
 40
5.0
 49
3.75
 49
-1.25
  0
LTYPE
  2
CENTER1
 70
    64
  3
----- - ----- - ----- - ----- - 
 72
    65
 73
     4
 40
10.0
 49
6.25
 49
-1.25
 49
1.25
 49
-1.25
  0
LTYPE
  2
CENTER2
 70
    64
  3
----------  --  ----------  --  
 72
    65
 73
     4
 40
20.0
 49
12.5
 49
-2.5
 49
2.5
 49
-2.5
  0
LTYPE
  2
PHANTOM1
 70
    64
  3
--- - - --- - - --- - - --- - - 
 72
    65
 73
     6
 40
10.0
 49
3.25
 49
-1.25
 49
1.25
 49
-1.25
 49
1.25
 49
-1.25
  0
LTYPE
  2
PHANTOM2
 70
    64
  3
--------  -  -  --------  -  -  
 72
    65
 73
     6
 40
20.0
 49
10.0
 49
-2.5
 49
1.25
 49
-2.5
 49
1.25
 49
-2.5
  0
LTYPE
  2
DOT
 70
    64
  3
-   -   -   -   -   -   -   -   
 72
    65
 73
     2
 40
2.5
 49
0.625
 49
-1.875
  0
LTYPE
  2
DUMMY
 70
    64
  3
ダミー
 72
    65
 73
     0
 40
0.0
  0
LTYPE
  2
RAND1
 70
    64
  3
ランダム線1
 72
    65
 73
     4
 40
10.0
 49
1.0
 49
-2.0
 49
3.0
 49
-4.0
  0
LTYPE
  2
RAND2
 70
    64
  3
ランダム線2
 72
    65
 73
     4
 40
14.0
 49
2.0
 49
-3.0
 49
4.0
 49
-5.0
  0
LTYPE
  2
RAND3
 70
    64
  3
ランダム線3
 72
    65
 73
     4
 40
18.0
 49
3.0
 49
-4.0
 49
5.0
 49
-6.0
  0
LTYPE
  2
RAND4
 70
    64
  3
ランダム線4
 72
    65
 73
     4
 40
22.0
 49
4.0
 49
-5.0
 49
6.0
 49
-7.0
  0
LTYPE
  2
RAND5
 70
    64
  3
ランダム線5
 72
    65
 73
     4
 40
26.0
 49
5.0
 49
-6.0
 49
7.0
 49
-8.0
  0
LTYPE
  2
LONG1
 70
    64
  3
----------  --  ----------  --  
 72
    65
 73
     4
 40
40.0
 49
32.5
 49
-2.5
 49
2.5
 49
-2.5
  0
LTYPE
  2
LONG2
 70
    64
  3
--------  -  -  --------  -  -  
 72
    65
 73
     6
 40
40.0
 49
30.0
 49
-2.5
 49
1.25
 49
-2.5
 49
1.25
 49
-2.5
  0
LTYPE
  2
LONG3
 70
    64
  3
+++++++++++++++..+++++++++++++++
 72
    65
 73
     2
 40
40.0
 49
37.5
 49
-2.5
  0
LTYPE
  2
LONG4
 70
    64
  3
+++++++++++++++..+++++++++++++++
 72
    65
 73
     2
 40
80.0
 49
75.0
 49
-5.0
  0
LTYPE
  2
LONG5
 70
    64
  3
----------  --  ----------  --  
 72
    65
 73
     4
 40
60.0
 49
37.5
 49
-7.5
 49
7.5
 49
-7.5
  0
LTYPE
  2
dashed
 70
   64
  3
-------   -------------   ------
 72
   65
 73
    2
 40
7.5
 49
6
 49
-1.5
  0
LTYPE
  2
dashed_spaced
 70
   64
  3
----        --------        ----
 72
   65
 73
    2
 40
12
 49
6
 49
-6
  0
LTYPE
  2
long_dashed_dotted
 70
   64
  3
------------- --- --------------
 72
   65
 73
    4
 40
15.25
 49
12
 49
-1.5
 49
0.25
 49
-1.5
  0
LTYPE
  2
long_dashed_double-dotted
 70
   64
  3
----------- --- --- ------------
 72
   65
 73
    6
 40
17
 49
12
 49
-1.5
 49
0.25
 49
-1.5
 49
0.25
 49
-1.5
  0
LTYPE
  2
long_dashed_triplicate-dotted
 70
   64
  3
--------- --- --- --- ----------
 72
   65
 73
    8
 40
18.75
 49
12
 49
-1.5
 49
0.25
 49
-1.5
 49
0.25
 49
-1.5
 49
0.25
 49
-1.5
  0
LTYPE
  2
dotted
 70
   64
  3
   -       -       -       -    
 72
   65
 73
    2
 40
1.75
 49
0.25
 49
-1.5
  0
LTYPE
  2
chain
 70
   64
  3
-------------- -- --------------
 72
   65
 73
    4
 40
18.5
 49
12
 49
-1.5
 49
3.5
 49
-1.5
  0
LTYPE
  2
chain_double_dash
 70
   64
  3
------------ -- -- -------------
 72
   65
 73
    6
 40
23.5
 49
12
 49
-1.5
 49
3.5
 49
-1.5
 49
3.5
 49
-1.5
  0
LTYPE
  2
dashed_dotted
 70
   64
  3
-----------     -     ----------
 72
   65
 73
    4
 40
9.25
 49
6
 49
-1.5
 49
0.25
 49
-1.5
  0
LTYPE
  2
double-dashed_dotted
 70
   64
  3
------   -----------   -   -----
 72
   65
 73
    6
 40
16.75
 49
6
 49
-1.5
 49
6
 49
-1.5
 49
0.25
 49
-1.5
  0
LTYPE
  2
dashed_double-dotted
 70
   64
  3
---------    -    -    ---------
 72
   65
 73
    6
 40
11
 49
6
 49
-1.5
 49
0.25
 49
-1.5
 49
0.25
 49
-1.5
  0
LTYPE
  2
double-dashed_double-dotted
 70
   64
  3
-----   ---------   -   -   ----
 72
   65
 73
    8
 40
18.5
 49
6
 49
-1.5
 49
6
 49
-1.5
 49
0.25
 49
-1.5
 49
0.25
 49
-1.5
  0
LTYPE
  2
dashed_triplicate-dotted
 70
   64
  3
-------    -    -    -    ------
 72
   65
 73
    8
 40
12.75
 49
6
 49
-1.5
 49
0.25
 49
-1.5
 49
0.25
 49
-1.5
 49
0.25
 49
-1.5
  0
LTYPE
  2
double-dashed_triplicate-dotted
 70
   64
  3
-----  ---------  -  -  -  -----
 72
   65
 73
   10
 40
20.25
 49
6
 49
-1.5
 49
6
 49
-1.5
 49
0.25
 49
-1.5
 49
0.25
 49
-1.5
 49
0.25
 49
-1.5
  0
LTYPE
  2
undefined
 70
   64
  3
--------------------------------
 72
   65
 73
    0
 40
0
  0
ENDTAB
  0
TABLE
  2
STYLE
  5
3
100
AcDbSymbolTable
 70
     1
  0
STYLE
  5
10
100
AcDbSymbolTableRecord
100
AcDbTextStyleTableRecord
  2
STANDARD
 70
     0
 40
0.0
 41
1.0
 50
0.0
 71
     0
 42
0.2
  3
txt
  4
bigfont.shx
  0
STYLE
  5
26
100
AcDbSymbolTableRecord
100
AcDbTextStyleTableRecord
  2
TATEGAKI
 70
    68
 40
0.0
 41
1.0
 50
0.0
 71
     0
 42
1.0
  3
txt
  4
bigfont.shx
  0
ENDTAB
  0
TABLE
  2
LAYER
 70
    6
  0
LAYER
  2
_0-0_
 70
   64
 62
    7
  6
CONTINUOUS
  0
LAYER
  2
_0-1_
 70
   64
 62
    7
  6
CONTINUOUS
  0
LAYER
  2
_0-8_
 70
   64
 62
    7
  6
CONTINUOUS
  0
LAYER
  2
_0-9_
 70
   64
 62
    7
  6
CONTINUOUS
  0
LAYER
  2
_0-f_
 70
   64
 62
    7
  6
CONTINUOUS
  0
LAYER
  2
ADD_LINE
 70
   64
 62
    7
  6
CONTINUOUS
  0
ENDTAB
  0
ENDSEC
  0
SECTION
  2
BLOCKS
  0
ENDSEC
  0
SECTION
  2
ENTITIES
  0
LINE
  8
_0-1_
  6
PHANTOM1
 62
  152
 10
9.0515049886679435
 20
365.89520312075678
 11
22.384094647557959
 21
316.13730111731172
  0
LINE
  8
_0-1_
  6
PHANTOM1
 62
  152
 10
20.918356068885828
 20
321.60751196352976
 11
144.70894946767623
 21
321.60751196352976
  0
LINE
  8
_0-1_
  6
PHANTOM1
 62
  152
 10
144.70894946767623
 20
321.60751196352976
 11
144.70894946767623
 21
424.45056212312562
  0
LINE
  8
_0-1_
  6
PHANTOM1
 62
  152
 10
139.20444917495428
 20
425.92548853129733
 11
190.40131638093425
 21
412.20732930845156
  0
LINE
  8
_0-1_
  6
PHANTOM1
 62
  152
 10
184.70894946767623
 20
413.73259442588073
 11
184.70894946767623
 21
321.60751196352976
  0
LINE
  8
_0-0_
  6
CONTINUOUS
 62
    7
 10
184.70894946767623
 20
321.60751196352976
 11
184.70894946767623
 21
306.60751196352976
  0
LINE
  8
_0-0_
  6
CONTINUOUS
 62
    7
 10
184.70894946767623
 20
306.60751196352976
 11
34.708949467676234
 21
306.60751196352976
  0
LINE
  8
_0-0_
  6
CONTINUOUS
 62
    7
 10
34.708949467676234
 20
306.60751196352976
 11
34.708949467676234
 21
321.60751196352976
  0
LINE
  8
_0-0_
  6
CONTINUOUS
 62
    7
 10
34.708949467676234
 20
321.60751196352976
 11
184.70894946767623
 21
321.60751196352976
  0
LINE
  8
_0-0_
  6
CONTINUOUS
 62
    7
 10
183.70894946767623
 20
321.60751196352976
 11
183.70894946767623
 21
306.60751196352976
  0
LINE
  8
_0-0_
  6
CONTINUOUS
 62
    7
 10
103.97317944586496
 20
306.10751196352976
 11
103.97317944586496
 21
301.80107686972042
  0
LINE
  8
_0-0_
  6
CONTINUOUS
 62
    7
 10
102.70894946767669
 20
301.80266299796858
 11
102.70894946767669
 21
303.40751196352949
  0
LINE
  8
_0-0_
  6
CONTINUOUS
 62
    7
 10
102.70894946767669
 20
303.40751196352949
 11
35.708949467676234
 21
303.40751196352949
  0
LINE
  8
_0-0_
  6
CONTINUOUS
 62
    7
 10
35.708949467676234
 20
303.40751196352949
 11
35.708949467676234
 21
301.80266299796858
  0
LINE
  8
_0-0_
  6
CONTINUOUS
 62
    7
 10
34.444719489487511
 20
301.80107686972042
 11
34.444719489487511
 21
306.10751196352976
  0
LINE
  8
_0-0_
  6
CONTINUOUS
 62
    7
 10
34.944719489487511
 20
306.60751196352976
 11
103.47317944586541
 21
306.60751196352976
  0
LINE
  8
_0-0_
  6
CONTINUOUS
 62
    7
 10
92.508949467676416
 20
298.40751196352949
 11
92.508949467676416
 21
229.60751196352976
  0
LINE
  8
_0-0_
  6
CONTINUOUS
 62
    7
 10
92.508949467676416
 20
229.60751196352976
 11
95.708949467676234
 21
229.60751196352976
  0
LINE
  8
_0-0_
  6
CONTINUOUS
 62
    7
 10
95.708949467676234
 20
229.60751196352976
 11
95.708949467676234
 21
259.6075119635293
  0
LINE
  8
_0-0_
  6
CONTINUOUS
 62
    7
 10
95.708949467676234
 20
253.60751196352976
 11
96.708949467676234
 21
253.60751196352976
  0
LINE
  8
_0-0_
  6
CONTINUOUS
 62
    7
 10
96.708949467676234
 20
253.60751196352976
 11
96.708949467676234
 21
236.6075119644006
  0
LINE
  8
_0-0_
  6
CONTINUOUS
 62
    7
 10
96.708949467676234
 20
236.6075119644006
 11
95.708949467676234
 21
236.6075119644006
  0
LINE
  8
_0-0_
  6
CONTINUOUS
 62
    7
 10
92.508949467676416
 20
235.10751196352976
 11
90.808949467676598
 21
235.10751196352976
  0
LINE
  8
_0-0_
  6
CONTINUOUS
 62
    7
 10
90.808949467676598
 20
225.60751196352976
 11
89.208949467676689
 21
224.10751196352976
  0
LINE
  8
_0-0_
  6
CONTINUOUS
 62
    7
 10
90.808949467676598
 20
225.60751196352976
 11
90.808949467676598
 21
264.60751196352976
  0
LINE
  8
_0-0_
  6
CONTINUOUS
 62
    7
 10
90.808949467676598
 20
264.60751196352976
 11
89.208949467676689
 21
266.10751196352976
  0
LINE
  8
_0-0_
  6
CONTINUOUS
 62
    7
 10
89.208949467676689
 20
274.60751196352976
 11
89.208949467676689
 21
215.60751196352976
  0
LINE
  8
_0-0_
  6
CONTINUOUS
 62
    7
 10
86.208949467676689
 20
212.60751196352976
 11
52.208949467676234
 21
212.60751196352976
  0
LINE
  8
_0-0_
  6
CONTINUOUS
 62
    7
 10
49.208949467676234
 20
215.60751196352976
 11
49.208949467676234
 21
274.60751196352976
  0
LINE
  8
_0-0_
  6
CONTINUOUS
 62
    7
 10
52.208949467676234
 20
277.60751196352976
 11
86.208949467676689
 21
277.60751196352976
  0
LINE
  8
_0-0_
  6
CONTINUOUS
 62
    7
 10
90.808949467676598
 20
255.10751196352976
 11
92.508949467676416
 21
255.10751196352976
  0
LINE
  8
_0-1_
  6
CENTER1
 62
  152
 10
100.70894946767623
 20
245.10751196352976
 11
30.708949467676689
 21
245.10751196352976
  0
LINE
  8
_0-0_
  6
CONTINUOUS
 62
    7
 10
30.708949467676689
 20
249.40751215426462
 11
34.708949467676234
 21
249.40751215426462
  0
LINE
  8
_0-0_
  6
CONTINUOUS
 62
    7
 10
34.708949467676234
 20
250.10751196352976
 11
31.408950230616142
 21
250.10751196352976
  0
LINE
  8
_0-0_
  6
CONTINUOUS
 62
    7
 10
31.408950230616142
 20
250.10751196352976
 11
31.408950230616142
 21
240.10751196352976
  0
LINE
  8
_0-0_
  6
CONTINUOUS
 62
    7
 10
31.408950230616142
 20
240.10751196352976
 11
34.708949467676234
 21
240.10751196352976
  0
LINE
  8
_0-0_
  6
CONTINUOUS
 62
    7
 10
34.708949467676234
 20
240.8075117727949
 11
30.708949467676689
 21
240.8075117727949
  0
LINE
  8
_0-0_
  6
CONTINUOUS
 62
    7
 10
30.708949467676689
 20
240.8075117727949
 11
30.708949467676689
 21
249.40751215426462
  0
LINE
  8
_0-0_
  6
CONTINUOUS
 62
    7
 10
30.708949467676689
 20
249.40751215426462
 11
31.408950230616142
 21
250.10751196352976
  0
LINE
  8
_0-0_
  6
CONTINUOUS
 62
    7
 10
37.103842467675918
 20
250.00751196353031
 11
41.958393967675534
 21
250.00751196353031
  0
LINE
  8
_0-0_
  6
CONTINUOUS
 62
    7
 10
42.708949467676689
 20
253.60751196352976
 11
41.958393967675534
 21
254.90751196352994
  0
LINE
  8
_0-0_
  6
CONTINUOUS
 62
    7
 10
41.958393967675534
 20
254.90751196352994
 11
37.103842467675918
 21
254.90751196352994
  0
LINE
  8
_0-0_
  6
CONTINUOUS
 62
    7
 10
37.103842467675918
 20
254.90751196352994
 11
36.208949467676234
 21
253.35751196352976
  0
LINE
  8
_0-0_
  6
CONTINUOUS
 62
    7
 10
36.208949467676234
 20
253.35751196352976
 11
35.458949467676234
 21
253.35751196352976
  0
LINE
  8
_0-0_
  6
CONTINUOUS
 62
    7
 10
34.708949467676234
 20
252.60751196352976
 11
34.708949467676234
 21
237.60751196352976
  0
LINE
  8
_0-0_
  6
CONTINUOUS
 62
    7
 10
35.458949467676234
 20
236.85751196352976
 11
36.208949467676234
 21
236.85751196352976
  0
LINE
  8
_0-0_
  6
CONTINUOUS
 62
    7
 10
36.208949467676234
 20
236.85751196352976
 11
37.103842467675918
 21
235.30751196352958
  0
LINE
  8
_0-0_
  6
CONTINUOUS
 62
    7
 10
37.103842467675918
 20
235.30751196352958
 11
41.958393967675534
 21
235.30751196352958
  0
LINE
  8
_0-0_
  6
CONTINUOUS
 62
    7
 10
41.958393967675534
 20
235.30751196352958
 11
42.708949467676689
 21
236.60751196352976
  0
LINE
  8
_0-0_
  6
CONTINUOUS
 62
    7
 10
41.958393967675534
 20
240.20751196353012
 11
37.103842467675918
 21
240.20751196353012
  0
LINE
  8
_0-0_
  6
CONTINUOUS
 62
    7
 10
31.408950230616142
 20
240.10751196352976
 11
30.708949467676689
 21
240.8075117727949
  0
LINE
  8
ADD_LINE
  6
DOT
 62
  152
 10
43.416056248861992
 20
244.40040518234309
 11
42.708949467676689
 21
245.10751196352976
  0
LINE
  8
ADD_LINE
  6
DOT
 62
  152
 10
42.708949467676689
 20
245.10751196352976
 11
43.416056248861992
 21
245.81461874471643
  0
LINE
  8
_0-0_
  6
CONTINUOUS
 62
    7
 10
45.908949467676507
 20
255.10751196352976
 11
47.608949467676325
 21
255.10751196352976
  0
LINE
  8
_0-0_
  6
CONTINUOUS
 62
    7
 10
42.708949467676689
 20
259.6075119635293
 11
42.708949467676689
 21
229.60751196352976
  0
LINE
  8
_0-0_
  6
CONTINUOUS
 62
    7
 10
42.708949467676689
 20
229.60751196352976
 11
45.908949467676507
 21
229.60751196352976
  0
LINE
  8
_0-0_
  6
CONTINUOUS
 62
    7
 10
45.908949467676507
 20
229.60751196352976
 11
45.908949467676507
 21
298.40751196352949
  0
LINE
  8
_0-0_
  6
CONTINUOUS
 62
    7
 10
56.208949467676234
 20
302.40751196352949
 11
55.208949467676234
 21
303.40751196352949
  0
LINE
  8
_0-0_
  6
CONTINUOUS
 62
    7
 10
56.208949467676234
 20
302.40751196352949
 11
82.208949467676234
 21
302.40751196352949
  0
LINE
  8
_0-0_
  6
CONTINUOUS
 62
    7
 10
82.208949467676234
 20
302.40751196352949
 11
83.208949467676689
 21
303.40751196352949
  0
LINE
  8
_0-1_
  6
CENTER1
 62
  152
 10
69.208949467676234
 20
306.60751196352976
 11
69.208949467676234
 21
212.60751196352953
  0
LINE
  8
_0-0_
  6
CONTINUOUS
 62
    7
 10
49.208949467676234
 20
224.10751196352976
 11
47.608949467676325
 21
225.60751196352976
  0
LINE
  8
_0-0_
  6
CONTINUOUS
 62
    7
 10
47.608949467676325
 20
225.60751196352976
 11
47.608949467676325
 21
264.60751196352976
  0
LINE
  8
_0-0_
  6
CONTINUOUS
 62
    7
 10
47.608949467676325
 20
264.60751196352976
 11
49.208949467676234
 21
266.10751196352976
  0
LINE
  8
_0-0_
  6
CONTINUOUS
 62
    7
 10
47.608949467676325
 20
235.10751196352976
 11
45.908949467676507
 21
235.10751196352976
  0
LINE
  8
_0-0_
  6
CONTINUOUS
 62
    7
 10
35.708949467676234
 20
306.60751196352976
 11
35.708949467676234
 21
321.60751196352976
  0
LINE
  8
_0-1_
  6
PHANTOM1
 62
  152
 10
10.200388371640997
 20
361.60751196352976
 11
144.70894946767623
 21
361.60751196352976
  0
LINE
  8
_0-0_
  6
CONTINUOUS
 62
    7
 10
240.46214636682117
 20
321.60751196352976
 11
240.46214636682117
 21
306.60751196352976
  0
LINE
  8
_0-0_
  6
CONTINUOUS
 62
    7
 10
240.46214636682117
 20
306.60751196352976
 11
425.46214636682117
 21
306.60751196352976
  0
LINE
  8
_0-0_
  6
CONTINUOUS
 62
    7
 10
425.46214636682117
 20
306.60751196352976
 11
425.46214636682117
 21
321.60751196352976
  0
LINE
  8
_0-0_
  6
CONTINUOUS
 62
    7
 10
425.46214636682117
 20
321.60751196352976
 11
240.46214636682117
 21
321.60751196352976
  0
LINE
  8
_0-1_
  6
PHANTOM1
 62
  152
 10
240.46214636682117
 20
321.60751196352976
 11
240.46214636682117
 21
424.45056212312562
  0
LINE
  8
_0-1_
  6
PHANTOM1
 62
  152
 10
234.92902048359269
 20
425.93315873515644
 11
285.8229476469337
 21
412.29617205209081
  0
LINE
  8
_0-1_
  6
PHANTOM1
 62
  152
 10
280.46214636682117
 20
413.73259442588073
 11
280.46214636682117
 21
321.60751196352976
  0
LINE
  8
_0-0_
  6
CONTINUOUS
 62
    7
 10
265.46214636682117
 20
298.76751181094187
 11
265.46214636682117
 21
305.66751196591395
  0
LINE
  8
_0-0_
  6
CONTINUOUS
 62
    7
 10
266.90214642404163
 20
305.66751196591395
 11
254.02214630960071
 21
305.66751196591395
  0
LINE
  8
_0-0_
  6
CONTINUOUS
 62
    7
 10
254.02214630960071
 20
305.66751196591395
 11
254.02214630960071
 21
306.60751196352976
  0
LINE
  8
_0-0_
  6
CONTINUOUS
 62
    7
 10
255.46214636682117
 20
305.66751196591395
 11
255.46214636682117
 21
298.76751181094187
  0
LINE
  8
_0-0_
  6
CONTINUOUS
 62
    7
 10
255.46214636682117
 20
298.76751181094187
 11
256.06214627145374
 21
298.16751238314646
  0
LINE
  8
_0-0_
  6
CONTINUOUS
 62
    7
 10
256.06214627145374
 20
298.16751238314646
 11
264.8621464621886
 21
298.16751238314646
  0
LINE
  8
_0-0_
  6
CONTINUOUS
 62
    7
 10
264.8621464621886
 20
298.16751238314646
 11
265.46214636682117
 21
298.76751181094187
  0
LINE
  8
_0-0_
  6
CONTINUOUS
 62
    7
 10
265.46214636682117
 20
298.76751181094187
 11
255.46214636682117
 21
298.76751181094187
  0
LINE
  8
_0-0_
  6
CONTINUOUS
 62
    7
 10
256.08714636682117
 20
298.76751181094187
 11
256.08714636682117
 21
304.1675119063093
  0
LINE
  8
_0-0_
  6
CONTINUOUS
 62
    7
 10
255.46214636682117
 20
304.1675119063093
 11
265.46214636682117
 21
304.1675119063093
  0
LINE
  8
_0-0_
  6
CONTINUOUS
 62
    7
 10
266.90214642404163
 20
305.66751196591395
 11
266.90214642404163
 21
306.60751196352976
  0
LINE
  8
ADD_LINE
  6
DOT
 62
  152
 10
260.46214636682117
 20
306.60751196352976
 11
259.75503958563451
 21
307.31461874471643
  0
LINE
  8
ADD_LINE
  6
DOT
 62
  152
 10
260.46214636682117
 20
306.60751196352976
 11
261.16925314800784
 21
307.31461874471643
  0
LINE
  8
_0-0_
  6
CONTINUOUS
 62
    7
 10
260.02913367270077
 20
305.66751196591395
 11
260.89515906094158
 21
304.1675119063093
  0
LINE
  8
_0-0_
  6
CONTINUOUS
 62
    7
 10
258.58714636682117
 20
304.1675119063093
 11
258.58714636682117
 21
298.76751181094187
  0
LINE
  8
_0-0_
  6
CONTINUOUS
 62
    7
 10
257.96214636682117
 20
298.76751181094187
 11
257.96214636682117
 21
304.1675119063093
  0
LINE
  8
_0-0_
  6
CONTINUOUS
 62
    7
 10
257.33714636682117
 20
304.1675119063093
 11
257.33714636682117
 21
298.76751181094187
  0
LINE
  8
_0-0_
  6
CONTINUOUS
 62
    7
 10
256.71214636682117
 20
298.76751181094187
 11
256.71214636682117
 21
304.1675119063093
  0
LINE
  8
_0-1_
  6
CENTER1
 62
  152
 10
260.46214636682117
 20
298.16751238314646
 11
260.46214636682117
 21
321.60751196352976
  0
LINE
  8
_0-0_
  6
CONTINUOUS
 62
    7
 10
241.46214636682117
 20
321.60751196352976
 11
241.46214636682117
 21
306.60751196352976
  0
LINE
  8
_0-1_
  6
PHANTOM1
 62
  152
 10
240.46214636682117
 20
321.60751196352976
 11
442.37920822503884
 21
321.60751196352976
  0
LINE
  8
_0-1_
  6
PHANTOM1
 62
  152
 10
443.84494680371091
 20
316.13730111731172
 11
430.5123571448209
 21
365.89520312075678
  0
LINE
  8
_0-1_
  6
PHANTOM1
 62
  152
 10
431.66124052779389
 20
361.60751196352999
 11
280.46214636682117
 21
361.60751196352999
  0
LINE
  8
_0-0_
  6
CONTINUOUS
 62
    7
 10
241.46214636682117
 20
166.71236887904729
 11
240.46214636682117
 21
165.71236887904729
  0
LINE
  8
_0-0_
  6
CONTINUOUS
 62
    7
 10
240.46214636682117
 20
165.71236887904729
 11
240.46214636682117
 21
17.71236887904729
  0
LINE
  8
_0-0_
  6
CONTINUOUS
 62
    7
 10
240.46214636682117
 20
17.71236887904729
 11
241.46214636682117
 21
16.71236887904729
  0
LINE
  8
_0-0_
  6
CONTINUOUS
 62
    7
 10
241.46214636682117
 20
16.71236887904729
 11
345.26581818321148
 21
16.71236887904729
  0
LINE
  8
_0-0_
  6
CONTINUOUS
 62
    7
 10
345.99760479166645
 20
16.516287248279923
 11
341.53376737564423
 21
17.712368879046835
  0
LINE
  8
_0-0_
  6
CONTINUOUS
 62
    7
 10
341.53376737564423
 20
17.712368879046835
 11
334.46214636682117
 21
17.712368879046835
  0
LINE
  8
_0-1_
  6
CENTER1
 62
  152
 10
340.46214636682117
 20
20.459928575856566
 11
340.46214636682117
 21
80.065089013146007
  0
LINE
  8
_0-0_
  6
CONTINUOUS
 62
    7
 10
340.46214636682117
 20
77.176470432010547
 11
337.46214636682117
 21
75.444419655528918
  0
LINE
  8
_0-0_
  6
CONTINUOUS
 62
    7
 10
337.46214636682117
 20
75.444419655528918
 11
337.46214636682117
 21
71.980318102565661
  0
LINE
  8
_0-0_
  6
CONTINUOUS
 62
    7
 10
337.46214636682117
 20
71.980318102565661
 11
340.46214636682117
 21
70.248267326084033
  0
LINE
  8
_0-0_
  6
CONTINUOUS
 62
    7
 10
340.46214636682117
 20
70.248267326084033
 11
343.46214636682117
 21
71.980318102565661
  0
LINE
  8
_0-0_
  6
CONTINUOUS
 62
    7
 10
343.46214636682117
 20
71.980318102565661
 11
343.46214636682117
 21
75.444419655528918
  0
LINE
  8
_0-0_
  6
CONTINUOUS
 62
    7
 10
343.46214636682117
 20
75.444419655528918
 11
340.46214636682117
 21
77.176470432010547
  0
LINE
  8
_0-0_
  6
CONTINUOUS
 62
    7
 10
341.53376737564423
 20
84.712368879046835
 11
345.99760479166645
 21
85.908450509813747
  0
LINE
  8
_0-0_
  6
CONTINUOUS
 62
    7
 10
341.53376737564423
 20
84.712368879046835
 11
334.46214636682117
 21
84.712368879046835
  0
LINE
  8
_0-0_
  6
CONTINUOUS
 62
    7
 10
329.46214636682117
 20
79.712368879046835
 11
329.46214636682117
 21
22.712368879046835
  0
LINE
  8
_0-1_
  6
CENTER1
 62
  152
 10
332.76008341558492
 20
28.71236887904729
 11
421.38400101222879
 21
28.71236887904729
  0
LINE
  8
_0-0_
  6
CONTINUOUS
 62
    7
 10
416.46214636682117
 20
26.980318102565661
 11
416.46214636682117
 21
30.444419655528918
  0
LINE
  8
_0-0_
  6
CONTINUOUS
 62
    7
 10
416.46214636682117
 20
30.444419655528918
 11
413.46214636682117
 21
32.176470432010547
  0
LINE
  8
_0-0_
  6
CONTINUOUS
 62
    7
 10
413.46214636682117
 20
32.176470432010547
 11
410.46214636682117
 21
30.444419655528918
  0
LINE
  8
_0-0_
  6
CONTINUOUS
 62
    7
 10
410.46214636682117
 20
30.444419655528918
 11
410.46214636682117
 21
26.980318102565661
  0
LINE
  8
_0-0_
  6
CONTINUOUS
 62
    7
 10
410.46214636682117
 20
26.980318102565661
 11
413.46214636682117
 21
25.248267326084033
  0
LINE
  8
_0-0_
  6
CONTINUOUS
 62
    7
 10
413.46214636682117
 20
25.248267326084033
 11
416.46214636682117
 21
26.980318102565661
  0
LINE
  8
_0-1_
  6
CENTER1
 62
  152
 10
413.46214636682117
 20
20.459928575856566
 11
413.46214636682117
 21
81.999635303387777
  0
LINE
  8
_0-0_
  6
CONTINUOUS
 62
    7
 10
412.39052535799811
 20
84.712368879046835
 11
419.46214636682117
 21
84.712368879046835
  0
LINE
  8
_0-0_
  6
CONTINUOUS
 62
    7
 10
412.39052535799811
 20
84.712368879046835
 11
407.9266879419759
 21
85.908450509813747
  0
LINE
  8
_0-1_
  6
CENTER1
 62
  152
 10
404.46214636682117
 20
88.359648745047252
 11
404.46214636682117
 21
101.06508901314601
  0
LINE
  8
_0-1_
  6
CENTER1
 62
  152
 10
411.61678892190167
 20
94.71236887904729
 11
345.5169969648644
 21
94.71236887904729
  0
LINE
  8
_0-1_
  6
CENTER1
 62
  152
 10
352.46214636682117
 20
88.359648745047252
 11
352.46214636682117
 21
101.06508901314601
  0
LINE
  8
_0-0_
  6
CONTINUOUS
 62
    7
 10
357.46214636682117
 20
72.812368879047426
 11
355.96214636682117
 21
71.212368879047517
  0
LINE
  8
_0-0_
  6
CONTINUOUS
 62
    7
 10
357.46214636682117
 20
72.812368879047426
 11
396.46214636682117
 21
72.812368879047426
  0
LINE
  8
_0-0_
  6
CONTINUOUS
 62
    7
 10
396.46214636682117
 20
72.812368879047426
 11
397.96214636682117
 21
71.212368879047517
  0
LINE
  8
_0-0_
  6
CONTINUOUS
 62
    7
 10
406.46214636682117
 20
71.212368879047517
 11
347.46214636682117
 21
71.212368879047517
  0
LINE
  8
_0-0_
  6
CONTINUOUS
 62
    7
 10
344.46214636682117
 20
68.212368879047517
 11
344.46214636682117
 21
34.212368879047062
  0
LINE
  8
_0-0_
  6
CONTINUOUS
 62
    7
 10
343.46214636682117
 20
30.444419655528918
 11
343.46214636682117
 21
26.980318102565661
  0
LINE
  8
_0-0_
  6
CONTINUOUS
 62
    7
 10
343.46214636682117
 20
26.980318102565661
 11
340.46214636682117
 21
25.248267326084033
  0
LINE
  8
_0-0_
  6
CONTINUOUS
 62
    7
 10
340.46214636682117
 20
25.248267326084033
 11
337.46214636682117
 21
26.980318102565661
  0
LINE
  8
_0-0_
  6
CONTINUOUS
 62
    7
 10
337.46214636682117
 20
26.980318102565661
 11
337.46214636682117
 21
30.444419655528918
  0
LINE
  8
_0-0_
  6
CONTINUOUS
 62
    7
 10
337.46214636682117
 20
30.444419655528918
 11
340.46214636682117
 21
32.176470432010547
  0
LINE
  8
_0-0_
  6
CONTINUOUS
 62
    7
 10
340.46214636682117
 20
32.176470432010547
 11
343.46214636682117
 21
30.444419655528918
  0
LINE
  8
_0-0_
  6
CONTINUOUS
 62
    7
 10
347.46214636682117
 20
31.212368879047062
 11
406.46214636682117
 21
31.212368879047062
  0
LINE
  8
_0-0_
  6
CONTINUOUS
 62
    7
 10
409.46214636682117
 20
34.212368879047062
 11
409.46214636682117
 21
68.212368879047517
  0
LINE
  8
_0-0_
  6
CONTINUOUS
 62
    7
 10
410.46214636682117
 20
71.980318102565661
 11
410.46214636682117
 21
75.444419655528918
  0
LINE
  8
_0-0_
  6
CONTINUOUS
 62
    7
 10
410.46214636682117
 20
75.444419655528918
 11
413.46214636682117
 21
77.176470432010547
  0
LINE
  8
_0-0_
  6
CONTINUOUS
 62
    7
 10
413.46214636682117
 20
77.176470432010547
 11
416.46214636682117
 21
75.444419655528918
  0
LINE
  8
_0-0_
  6
CONTINUOUS
 62
    7
 10
416.46214636682117
 20
75.444419655528918
 11
416.46214636682117
 21
71.980318102565661
  0
LINE
  8
_0-0_
  6
CONTINUOUS
 62
    7
 10
416.46214636682117
 20
71.980318102565661
 11
413.46214636682117
 21
70.248267326084033
  0
LINE
  8
_0-0_
  6
CONTINUOUS
 62
    7
 10
413.46214636682117
 20
70.248267326084033
 11
410.46214636682117
 21
71.980318102565661
  0
LINE
  8
_0-1_
  6
CENTER1
 62
  152
 10
421.38400101222879
 20
73.71236887904729
 11
333.94648240113776
 21
73.71236887904729
  0
LINE
  8
_0-1_
  6
CENTER1
 62
  152
 10
333.94648240113776
 20
51.21236887904729
 11
419.15407615405849
 21
51.21236887904729
  0
LINE
  8
_0-0_
  6
CONTINUOUS
 62
    7
 10
424.46214636682117
 20
79.712368879046835
 11
424.46214636682117
 21
22.712368879046835
  0
LINE
  8
_0-0_
  6
CONTINUOUS
 62
    7
 10
425.46214636682117
 20
17.71236887904729
 11
425.46214636682117
 21
165.71236887904729
  0
LINE
  8
_0-0_
  6
CONTINUOUS
 62
    7
 10
425.46214636682117
 20
165.71236887904729
 11
424.46214636682117
 21
166.71236887904729
  0
LINE
  8
_0-0_
  6
CONTINUOUS
 62
    7
 10
424.46214636682117
 20
166.71236887904729
 11
241.46214636682117
 21
166.71236887904729
  0
LINE
  8
_0-1_
  6
CENTER1
 62
  152
 10
261.46214636682117
 20
115.71236887904729
 11
321.46214636682117
 21
115.71236887904729
  0
LINE
  8
_0-1_
  6
CENTER1
 62
  152
 10
343.78532304752054
 20
146.71236887904729
 11
422.28811342964428
 21
146.71236887904729
  0
LINE
  8
_0-0_
  6
CONTINUOUS
 62
    7
 10
417.96214636682117
 20
145.26899317237462
 11
415.46214636682117
 21
143.82561746570195
  0
LINE
  8
_0-0_
  6
CONTINUOUS
 62
    7
 10
415.46214636682117
 20
143.82561746570195
 11
412.96214636682117
 21
145.26899317237462
  0
LINE
  8
_0-0_
  6
CONTINUOUS
 62
    7
 10
412.96214636682117
 20
145.26899317237462
 11
412.96214636682117
 21
148.15574458571996
  0
LINE
  8
_0-0_
  6
CONTINUOUS
 62
    7
 10
412.96214636682117
 20
148.15574458571996
 11
415.46214636682117
 21
149.59912029239263
  0
LINE
  8
_0-0_
  6
CONTINUOUS
 62
    7
 10
415.46214636682117
 20
149.59912029239263
 11
417.96214636682117
 21
148.15574458571996
  0
LINE
  8
_0-0_
  6
CONTINUOUS
 62
    7
 10
417.96214636682117
 20
148.15574458571996
 11
417.96214636682117
 21
145.26899317237462
  0
LINE
  8
_0-1_
  6
CENTER1
 62
  152
 10
415.46214636682117
 20
138.87859596830754
 11
415.46214636682117
 21
154.43397450375596
  0
LINE
  8
_0-1_
  6
CENTER1
 62
  152
 10
355.46214636682117
 20
154.11768193592479
 11
355.46214636682117
 21
138.87859596830754
  0
LINE
  8
_0-0_
  6
CONTINUOUS
 62
    7
 10
355.46214636682117
 20
143.82561746570195
 11
352.96214636682117
 21
145.26899317237462
  0
LINE
  8
_0-0_
  6
CONTINUOUS
 62
    7
 10
352.96214636682117
 20
145.26899317237462
 11
352.96214636682117
 21
148.15574458571996
  0
LINE
  8
_0-0_
  6
CONTINUOUS
 62
    7
 10
352.96214636682117
 20
148.15574458571996
 11
355.46214636682117
 21
149.59912029239263
  0
LINE
  8
_0-0_
  6
CONTINUOUS
 62
    7
 10
355.46214636682117
 20
149.59912029239263
 11
357.96214636682117
 21
148.15574458571996
  0
LINE
  8
_0-0_
  6
CONTINUOUS
 62
    7
 10
357.96214636682117
 20
148.15574458571996
 11
357.96214636682117
 21
145.26899317237462
  0
LINE
  8
_0-0_
  6
CONTINUOUS
 62
    7
 10
357.96214636682117
 20
145.26899317237462
 11
355.46214636682117
 21
143.82561746570195
  0
LINE
  8
_0-1_
  6
CENTER1
 62
  152
 10
291.46214636682117
 20
145.71236887904729
 11
291.46214636682117
 21
85.71236887904729
  0
LINE
  8
_0-1_
  6
CENTER1
 62
  152
 10
268.29591927756093
 20
86.71236887904729
 11
251.51056668433858
 21
86.71236887904729
  0
LINE
  8
_0-0_
  6
CONTINUOUS
 62
    7
 10
257.96214636682117
 20
88.155744585719958
 11
260.46214636682117
 21
89.599120292392627
  0
LINE
  8
_0-0_
  6
CONTINUOUS
 62
    7
 10
260.46214636682117
 20
89.599120292392627
 11
262.96214636682117
 21
88.155744585719958
  0
LINE
  8
_0-0_
  6
CONTINUOUS
 62
    7
 10
262.96214636682117
 20
88.155744585719958
 11
262.96214636682117
 21
85.268993172374621
  0
LINE
  8
_0-0_
  6
CONTINUOUS
 62
    7
 10
262.96214636682117
 20
85.268993172374621
 11
260.46214636682117
 21
83.825617465701953
  0
LINE
  8
_0-0_
  6
CONTINUOUS
 62
    7
 10
260.46214636682117
 20
83.825617465701953
 11
257.96214636682117
 21
85.268993172374621
  0
LINE
  8
_0-0_
  6
CONTINUOUS
 62
    7
 10
257.96214636682117
 20
85.268993172374621
 11
257.96214636682117
 21
88.155744585719958
  0
LINE
  8
_0-1_
  6
CENTER1
 62
  152
 10
260.46214636682117
 20
93.683673759509929
 11
260.46214636682117
 21
19.924400328876345
  0
LINE
  8
_0-0_
  6
CONTINUOUS
 62
    7
 10
260.46214636682117
 20
23.825617465701953
 11
257.96214636682117
 21
25.268993172374621
  0
LINE
  8
_0-0_
  6
CONTINUOUS
 62
    7
 10
257.96214636682117
 20
25.268993172374621
 11
257.96214636682117
 21
28.155744585719958
  0
LINE
  8
_0-0_
  6
CONTINUOUS
 62
    7
 10
257.96214636682117
 20
28.155744585719958
 11
260.46214636682117
 21
29.599120292392627
  0
LINE
  8
_0-0_
  6
CONTINUOUS
 62
    7
 10
260.46214636682117
 20
29.599120292392627
 11
262.96214636682117
 21
28.155744585719958
  0
LINE
  8
_0-0_
  6
CONTINUOUS
 62
    7
 10
262.96214636682117
 20
28.155744585719958
 11
262.96214636682117
 21
25.268993172374621
  0
LINE
  8
_0-0_
  6
CONTINUOUS
 62
    7
 10
262.96214636682117
 20
25.268993172374621
 11
260.46214636682117
 21
23.825617465701953
  0
LINE
  8
_0-1_
  6
CENTER1
 62
  152
 10
268.29591927756093
 20
26.71236887904729
 11
251.61979649611777
 21
26.71236887904729
  0
LINE
  8
_0-0_
  6
CONTINUOUS
 62
    7
 10
347.50877316897032
 20
16.71236887904729
 11
368.75503958563451
 21
16.71236887904729
  0
LINE
  8
_0-0_
  6
CONTINUOUS
 62
    7
 10
368.71214636682117
 20
16.962368879046153
 11
368.71214636682117
 21
17.712368879046153
  0
LINE
  8
_0-0_
  6
CONTINUOUS
 62
    7
 10
368.71214636682117
 20
17.712368879046153
 11
367.16214636682099
 21
18.607261879046291
  0
LINE
  8
_0-0_
  6
CONTINUOUS
 62
    7
 10
367.16214636682099
 20
18.607261879046291
 11
367.16214636682099
 21
23.461813379045907
  0
LINE
  8
_0-0_
  6
CONTINUOUS
 62
    7
 10
367.16214636682099
 20
23.461813379045907
 11
368.46214636682117
 21
24.212368879046835
  0
LINE
  8
_0-0_
  6
CONTINUOUS
 62
    7
 10
365.46214636682117
 20
24.212368879046835
 11
388.46214636682117
 21
24.212368879046835
  0
LINE
  8
_0-0_
  6
CONTINUOUS
 62
    7
 10
386.76214636682136
 20
23.461813379045907
 11
386.76214636682136
 21
18.607261879046291
  0
LINE
  8
_0-0_
  6
CONTINUOUS
 62
    7
 10
386.76214636682136
 20
18.607261879046291
 11
385.21214636682117
 21
17.712368879046153
  0
LINE
  8
_0-0_
  6
CONTINUOUS
 62
    7
 10
385.21214636682117
 20
17.712368879046153
 11
385.21214636682117
 21
16.962368879046153
  0
LINE
  8
_0-0_
  6
CONTINUOUS
 62
    7
 10
385.21214636682117
 20
16.71236887904729
 11
406.41551956467202
 21
16.71236887904729
  0
LINE
  8
_0-0_
  6
CONTINUOUS
 62
    7
 10
407.9266879419759
 20
16.516287248279923
 11
412.39052535799811
 21
17.712368879046835
  0
LINE
  8
_0-0_
  6
CONTINUOUS
 62
    7
 10
412.39052535799811
 20
17.712368879046835
 11
419.46214636682117
 21
17.712368879046835
  0
LINE
  8
_0-0_
  6
CONTINUOUS
 62
    7
 10
424.46214636682117
 20
16.71236887904729
 11
425.46214636682117
 21
17.71236887904729
  0
LINE
  8
_0-0_
  6
CONTINUOUS
 62
    7
 10
424.46214636682117
 20
16.71236887904729
 11
408.65847455042996
 21
16.71236887904729
  0
LINE
  8
_0-0_
  6
CONTINUOUS
 62
    7
 10
384.46214636682117
 20
16.212368879046153
 11
369.46214636682117
 21
16.212368879046153
  0
LINE
  8
_0-0_
  6
CONTINUOUS
 62
    7
 10
371.96214636682117
 20
16.212368879046153
 11
371.96214636682117
 21
12.912369641986288
  0
LINE
  8
_0-0_
  6
CONTINUOUS
 62
    7
 10
371.96214636682117
 20
12.912369641986288
 11
381.96214636682117
 21
12.912369641986288
  0
LINE
  8
_0-0_
  6
CONTINUOUS
 62
    7
 10
381.96214636682117
 20
12.912369641986288
 11
381.96214636682117
 21
16.212368879046153
  0
LINE
  8
_0-0_
  6
CONTINUOUS
 62
    7
 10
381.26214655755604
 20
16.212368879046153
 11
381.26214655755604
 21
12.212368879046835
  0
LINE
  8
_0-0_
  6
CONTINUOUS
 62
    7
 10
381.26214655755604
 20
12.212368879046835
 11
372.66214617608631
 21
12.212368879046835
  0
LINE
  8
_0-0_
  6
CONTINUOUS
 62
    7
 10
372.66214617608631
 20
12.212368879046835
 11
372.66214617608631
 21
16.212368879046153
  0
LINE
  8
_0-0_
  6
CONTINUOUS
 62
    7
 10
372.06214636682063
 20
18.607261879046291
 11
372.06214636682063
 21
23.461813379045907
  0
LINE
  8
_0-0_
  6
CONTINUOUS
 62
    7
 10
366.96214636682117
 20
27.912368879047335
 11
366.96214636682117
 21
29.612368879047153
  0
LINE
  8
_0-0_
  6
CONTINUOUS
 62
    7
 10
365.46214636682117
 20
27.41236887904688
 11
388.46214636682117
 21
27.41236887904688
  0
LINE
  8
_0-0_
  6
CONTINUOUS
 62
    7
 10
386.96214636682117
 20
27.912368879047335
 11
386.96214636682117
 21
29.612368879047153
  0
LINE
  8
_0-0_
  6
CONTINUOUS
 62
    7
 10
386.76214636682136
 20
23.461813379045907
 11
385.46214636682117
 21
24.212368879046835
  0
LINE
  8
_0-0_
  6
CONTINUOUS
 62
    7
 10
381.86214636682081
 20
23.461813379045907
 11
381.86214636682081
 21
18.607261879046291
  0
LINE
  8
_0-0_
  6
CONTINUOUS
 62
    7
 10
381.96214636682117
 20
12.912369641986288
 11
381.26214655755604
 21
12.212368879046835
  0
LINE
  8
_0-1_
  6
CENTER1
 62
  152
 10
376.96214636682117
 20
12.212368879046835
 11
376.96214636682117
 21
83.212368879046949
  0
LINE
  8
_0-0_
  6
CONTINUOUS
 62
    7
 10
385.46214636594988
 20
79.212368879046835
 11
368.46214636682117
 21
79.212368879046835
  0
LINE
  8
_0-0_
  6
CONTINUOUS
 62
    7
 10
368.46214636682117
 20
79.212368879046835
 11
368.46214636682117
 21
78.212368879046835
  0
LINE
  8
_0-0_
  6
CONTINUOUS
 62
    7
 10
365.46214636682117
 20
78.212368879046835
 11
388.46214636682117
 21
78.212368879046835
  0
LINE
  8
_0-0_
  6
CONTINUOUS
 62
    7
 10
385.46214636594988
 20
78.212368879046835
 11
385.46214636594988
 21
79.212368879046835
  0
LINE
  8
_0-0_
  6
CONTINUOUS
 62
    7
 10
386.96214636682117
 20
74.512368879047244
 11
386.96214636682117
 21
72.812368879047426
  0
LINE
  8
_0-0_
  6
CONTINUOUS
 62
    7
 10
388.46214636682117
 20
75.01236887904679
 11
365.46214636682117
 21
75.01236887904679
  0
LINE
  8
_0-0_
  6
CONTINUOUS
 62
    7
 10
366.96214636682117
 20
74.512368879047244
 11
366.96214636682117
 21
72.812368879047426
  0
LINE
  8
_0-0_
  6
CONTINUOUS
 62
    7
 10
355.96214636682117
 20
31.212368879047062
 11
357.46214636682117
 21
29.612368879047153
  0
LINE
  8
_0-0_
  6
CONTINUOUS
 62
    7
 10
357.46214636682117
 20
29.612368879047153
 11
396.46214636682117
 21
29.612368879047153
  0
LINE
  8
_0-0_
  6
CONTINUOUS
 62
    7
 10
396.46214636682117
 20
29.612368879047153
 11
397.96214636682117
 21
31.212368879047062
  0
LINE
  8
_0-0_
  6
CONTINUOUS
 62
    7
 10
371.96214636682117
 20
12.912369641986288
 11
372.66214617608631
 21
12.212368879046835
  0
LINE
  8
_0-0_
  6
CONTINUOUS
 62
    7
 10
565.63141376682108
 20
17.71236887904729
 11
565.63141376682108
 21
165.71236887904729
  0
LINE
  8
_0-0_
  6
CONTINUOUS
 62
    7
 10
565.63141376682108
 20
165.71236887904729
 11
566.63141376682108
 21
166.71236887904729
  0
LINE
  8
_0-0_
  6
CONTINUOUS
 62
    7
 10
566.63141376682108
 20
166.71236887904729
 11
749.63141376682108
 21
166.71236887904729
  0
LINE
  8
_0-0_
  6
CONTINUOUS
 62
    7
 10
749.63141376682108
 20
166.71236887904729
 11
750.63141376682108
 21
165.71236887904729
  0
LINE
  8
_0-0_
  6
CONTINUOUS
 62
    7
 10
750.63141376682108
 20
165.71236887904729
 11
750.63141376682108
 21
17.71236887904729
  0
LINE
  8
_0-0_
  6
CONTINUOUS
 62
    7
 10
750.63141376682108
 20
17.71236887904729
 11
749.63141376682108
 21
16.71236887904729
  0
LINE
  8
_0-0_
  6
CONTINUOUS
 62
    7
 10
749.63141376682108
 20
16.71236887904729
 11
566.63141376682108
 21
16.71236887904729
  0
LINE
  8
_0-0_
  6
CONTINUOUS
 62
    7
 10
566.63141376682108
 20
16.71236887904729
 11
565.63141376682108
 21
17.71236887904729
  0
LINE
  8
_0-0_
  6
CONTINUOUS
 62
    7
 10
571.63141376682108
 20
17.712368879047517
 11
656.63141376682108
 21
17.712368879047517
  0
LINE
  8
_0-0_
  6
CONTINUOUS
 62
    7
 10
654.63141376682108
 20
24.712368879047517
 11
634.6253152987407
 21
24.712368879047517
  0
LINE
  8
_0-0_
  6
CONTINUOUS
 62
    7
 10
634.23141376682145
 20
23.961813379047271
 11
634.23141376682145
 21
19.107261879047655
  0
LINE
  8
_0-0_
  6
CONTINUOUS
 62
    7
 10
634.13141376682108
 20
16.712368879047517
 11
634.13141376682108
 21
13.41236964198697
  0
LINE
  8
_0-0_
  6
CONTINUOUS
 62
    7
 10
634.13141376682108
 20
13.41236964198697
 11
644.13141376682108
 21
13.41236964198697
  0
LINE
  8
_0-0_
  6
CONTINUOUS
 62
    7
 10
644.13141376682108
 20
13.41236964198697
 11
644.13141376682108
 21
16.712368879047517
  0
LINE
  8
_0-0_
  6
CONTINUOUS
 62
    7
 10
643.43141395755595
 20
16.712368879047517
 11
643.43141395755595
 21
12.712368879047517
  0
LINE
  8
_0-0_
  6
CONTINUOUS
 62
    7
 10
643.43141395755595
 20
12.712368879047517
 11
634.83141357608622
 21
12.712368879047517
  0
LINE
  8
_0-0_
  6
CONTINUOUS
 62
    7
 10
634.83141357608622
 20
12.712368879047517
 11
634.13141376682108
 21
13.41236964198697
  0
LINE
  8
_0-0_
  6
CONTINUOUS
 62
    7
 10
634.83141357608622
 20
12.712368879047517
 11
634.83141357608622
 21
16.712368879047517
  0
LINE
  8
_0-0_
  6
CONTINUOUS
 62
    7
 10
630.88141376682108
 20
17.462368879047517
 11
630.88141376682108
 21
18.212368879047517
  0
LINE
  8
_0-0_
  6
CONTINUOUS
 62
    7
 10
630.88141376682108
 20
18.212368879047517
 11
629.3314137668209
 21
19.107261879047655
  0
LINE
  8
_0-0_
  6
CONTINUOUS
 62
    7
 10
629.3314137668209
 20
19.107261879047655
 11
629.3314137668209
 21
21.359228340738809
  0
LINE
  8
_0-0_
  6
CONTINUOUS
 62
    7
 10
633.50149378730714
 20
27.91236887904779
 11
654.63141376682108
 21
27.91236887904779
  0
LINE
  8
_0-0_
  6
CONTINUOUS
 62
    7
 10
654.63141376682108
 20
27.91236887904779
 11
654.63141376682108
 21
24.712368879047517
  0
LINE
  8
_0-0_
  6
CONTINUOUS
 62
    7
 10
648.93141376682127
 20
23.961813379047271
 11
648.93141376682127
 21
19.107261879047655
  0
LINE
  8
_0-0_
  6
CONTINUOUS
 62
    7
 10
648.93141376682127
 20
19.107261879047655
 11
647.38141376682108
 21
18.212368879047517
  0
LINE
  8
_0-0_
  6
CONTINUOUS
 62
    7
 10
647.38141376682108
 20
18.212368879047517
 11
647.38141376682108
 21
17.462368879047517
  0
LINE
  8
_0-0_
  6
CONTINUOUS
 62
    7
 10
644.03141376682163
 20
19.107261879047655
 11
644.03141376682163
 21
23.961813379047271
  0
LINE
  8
_0-0_
  6
CONTINUOUS
 62
    7
 10
647.63141376682108
 20
24.712368879047517
 11
648.93141376682127
 21
23.961813379047271
  0
LINE
  8
_0-1_
  6
CENTER1
 62
  152
 10
650.63141376682108
 20
20.953228400877379
 11
650.63141376682108
 21
81.064758452972455
  0
LINE
  8
_0-0_
  6
CONTINUOUS
 62
    7
 10
647.63141376682108
 20
78.71236887904729
 11
647.63141376682108
 21
77.712368879047744
  0
LINE
  8
_0-0_
  6
CONTINUOUS
 62
    7
 10
647.63141376682108
 20
78.71236887904729
 11
633.26254023652984
 21
78.71236887904729
  0
LINE
  8
_0-0_
  6
CONTINUOUS
 62
    7
 10
634.62531529873979
 20
77.712368879047744
 11
654.63141376682108
 21
77.712368879047744
  0
LINE
  8
_0-0_
  6
CONTINUOUS
 62
    7
 10
654.63141376682108
 20
77.712368879047744
 11
654.63141376682108
 21
74.512368879047699
  0
LINE
  8
_0-0_
  6
CONTINUOUS
 62
    7
 10
654.63141376682108
 20
74.512368879047699
 11
633.50149378730623
 21
74.512368879047699
  0
LINE
  8
_0-1_
  6
CENTER1
 62
  152
 10
639.13141376682108
 20
82.712368879047403
 11
639.13141376682108
 21
12.712368879047517
  0
LINE
  8
_0-0_
  6
CONTINUOUS
 62
    7
 10
643.43141395755595
 20
12.712368879047517
 11
644.13141376682108
 21
13.41236964198697
  0
LINE
  8
_0-0_
  6
CONTINUOUS
 62
    7
 10
661.63141376682108
 20
22.712368879047517
 11
661.63141376682108
 21
31.212368879047744
  0
LINE
  8
_0-0_
  6
CONTINUOUS
 62
    7
 10
660.13141376682108
 20
31.212368879047744
 11
658.63141376682108
 21
29.612368879047835
  0
LINE
  8
_0-0_
  6
CONTINUOUS
 62
    7
 10
658.63141376682108
 20
29.612368879047835
 11
619.63141376682108
 21
29.612368879047835
  0
LINE
  8
_0-0_
  6
CONTINUOUS
 62
    7
 10
619.63141376682108
 20
29.612368879047835
 11
618.13141376682108
 21
31.212368879047744
  0
LINE
  8
_0-0_
  6
CONTINUOUS
 62
    7
 10
609.63141376682108
 20
31.212368879047744
 11
668.63141376682108
 21
31.212368879047744
  0
LINE
  8
_0-0_
  6
CONTINUOUS
 62
    7
 10
671.63141376682108
 20
34.212368879047517
 11
671.63141376682108
 21
68.212368879047517
  0
LINE
  8
_0-0_
  6
CONTINUOUS
 62
    7
 10
668.63141376682108
 20
71.212368879047517
 11
609.63141376682108
 21
71.212368879047517
  0
LINE
  8
_0-0_
  6
CONTINUOUS
 62
    7
 10
606.63141376682108
 20
68.212368879047517
 11
606.63141376682108
 21
34.212368879047744
  0
LINE
  8
_0-1_
  6
CENTER1
 62
  152
 10
614.13141376682108
 20
22.712368879047517
 11
614.13141376682108
 21
79.712368879047517
  0
LINE
  8
_0-0_
  6
CONTINUOUS
 62
    7
 10
619.63141376682108
 20
72.812368879047426
 11
658.63141376682108
 21
72.812368879047426
  0
LINE
  8
_0-0_
  6
CONTINUOUS
 62
    7
 10
658.63141376682108
 20
72.812368879047426
 11
660.13141376682108
 21
71.212368879047517
  0
LINE
  8
_0-0_
  6
CONTINUOUS
 62
    7
 10
661.63141376682108
 20
71.212368879047517
 11
661.63141376682108
 21
79.712368879047517
  0
LINE
  8
_0-0_
  6
CONTINUOUS
 62
    7
 10
656.63141376682108
 20
84.712368879047517
 11
571.63141376682108
 21
84.712368879047517
  0
LINE
  8
_0-0_
  6
CONTINUOUS
 62
    7
 10
566.63141376682108
 20
79.712368879047517
 11
566.63141376682108
 21
22.712368879047517
  0
LINE
  8
_0-1_
  6
CENTER1
 62
  152
 10
577.63141376682108
 20
22.956946069280548
 11
577.63141376682108
 21
79.561970201670192
  0
LINE
  8
_0-0_
  6
CONTINUOUS
 62
    7
 10
577.63141376682108
 20
77.176470432010774
 11
574.63141376682108
 21
75.444419655529146
  0
LINE
  8
_0-0_
  6
CONTINUOUS
 62
    7
 10
574.63141376682108
 20
75.444419655529146
 11
574.63141376682108
 21
71.980318102565889
  0
LINE
  8
_0-0_
  6
CONTINUOUS
 62
    7
 10
574.63141376682108
 20
71.980318102565889
 11
577.63141376682108
 21
70.24826732608426
  0
LINE
  8
_0-0_
  6
CONTINUOUS
 62
    7
 10
577.63141376682108
 20
70.24826732608426
 11
580.63141376682108
 21
71.980318102565889
  0
LINE
  8
_0-0_
  6
CONTINUOUS
 62
    7
 10
580.63141376682108
 20
71.980318102565889
 11
580.63141376682108
 21
75.444419655529146
  0
LINE
  8
_0-0_
  6
CONTINUOUS
 62
    7
 10
580.63141376682108
 20
75.444419655529146
 11
577.63141376682108
 21
77.176470432010774
  0
LINE
  8
_0-1_
  6
CENTER1
 62
  152
 10
570.84263638251434
 20
73.712368879047517
 11
657.1470777325045
 21
73.712368879047517
  0
LINE
  8
_0-1_
  6
CENTER1
 62
  152
 10
638.63141376682108
 20
86.976826721750513
 11
638.63141376682108
 21
101.06508901314623
  0
LINE
  8
_0-1_
  6
CENTER1
 62
  152
 10
645.57656316877694
 20
94.71236887904729
 11
579.47677121174058
 21
94.71236887904729
  0
LINE
  8
_0-1_
  6
CENTER1
 62
  152
 10
586.63141376682108
 20
101.06508901314623
 11
586.63141376682108
 21
86.976826721750513
  0
LINE
  8
_0-0_
  6
CONTINUOUS
 62
    7
 10
619.63141376682108
 20
72.812368879047426
 11
618.13141376682108
 21
71.212368879047517
  0
LINE
  8
_0-1_
  6
CENTER1
 62
  152
 10
571.93948397958377
 20
51.212368879047517
 11
671.63141376682108
 21
51.212368879047517
  0
LINE
  8
_0-1_
  6
CENTER1
 62
  152
 10
657.1470777325045
 20
28.712368879047517
 11
571.93948397958377
 21
28.712368879047517
  0
LINE
  8
_0-0_
  6
CONTINUOUS
 62
    7
 10
574.63141376682108
 20
30.444419655529146
 11
577.63141376682108
 21
32.176470432010774
  0
LINE
  8
_0-0_
  6
CONTINUOUS
 62
    7
 10
577.63141376682108
 20
32.176470432010774
 11
580.63141376682108
 21
30.444419655529146
  0
LINE
  8
_0-0_
  6
CONTINUOUS
 62
    7
 10
580.63141376682108
 20
30.444419655529146
 11
580.63141376682108
 21
26.980318102565889
  0
LINE
  8
_0-0_
  6
CONTINUOUS
 62
    7
 10
580.63141376682108
 20
26.980318102565889
 11
577.63141376682108
 21
25.24826732608426
  0
LINE
  8
_0-0_
  6
CONTINUOUS
 62
    7
 10
577.63141376682108
 20
25.24826732608426
 11
574.63141376682108
 21
26.980318102565889
  0
LINE
  8
_0-0_
  6
CONTINUOUS
 62
    7
 10
574.63141376682108
 20
26.980318102565889
 11
574.63141376682108
 21
30.444419655529146
  0
LINE
  8
_0-1_
  6
CENTER1
 62
  152
 10
575.63141376682108
 20
138.87859596830754
 11
575.63141376682108
 21
154.43397450375619
  0
LINE
  8
_0-0_
  6
CONTINUOUS
 62
    7
 10
575.63141376682108
 20
149.59912029239263
 11
573.13141376682108
 21
148.15574458571996
  0
LINE
  8
_0-0_
  6
CONTINUOUS
 62
    7
 10
573.13141376682108
 20
148.15574458571996
 11
573.13141376682108
 21
145.26899317237462
  0
LINE
  8
_0-0_
  6
CONTINUOUS
 62
    7
 10
573.13141376682108
 20
145.26899317237462
 11
575.63141376682108
 21
143.82561746570195
  0
LINE
  8
_0-0_
  6
CONTINUOUS
 62
    7
 10
575.63141376682108
 20
143.82561746570195
 11
578.13141376682108
 21
145.26899317237462
  0
LINE
  8
_0-0_
  6
CONTINUOUS
 62
    7
 10
578.13141376682108
 20
145.26899317237462
 11
578.13141376682108
 21
148.15574458571996
  0
LINE
  8
_0-0_
  6
CONTINUOUS
 62
    7
 10
578.13141376682108
 20
148.15574458571996
 11
575.63141376682108
 21
149.59912029239263
  0
LINE
  8
_0-1_
  6
CENTER1
 62
  152
 10
568.80544670399797
 20
146.71236887904729
 11
647.30823708612081
 21
146.71236887904729
  0
LINE
  8
_0-0_
  6
CONTINUOUS
 62
    7
 10
638.13141376682108
 20
145.26899317237462
 11
635.63141376682108
 21
143.82561746570195
  0
LINE
  8
_0-0_
  6
CONTINUOUS
 62
    7
 10
635.63141376682108
 20
143.82561746570195
 11
633.13141376682108
 21
145.26899317237462
  0
LINE
  8
_0-0_
  6
CONTINUOUS
 62
    7
 10
633.13141376682108
 20
145.26899317237462
 11
633.13141376682108
 21
148.15574458571996
  0
LINE
  8
_0-0_
  6
CONTINUOUS
 62
    7
 10
633.13141376682108
 20
148.15574458571996
 11
635.63141376682108
 21
149.59912029239263
  0
LINE
  8
_0-0_
  6
CONTINUOUS
 62
    7
 10
635.63141376682108
 20
149.59912029239263
 11
638.13141376682108
 21
148.15574458571996
  0
LINE
  8
_0-0_
  6
CONTINUOUS
 62
    7
 10
638.13141376682108
 20
148.15574458571996
 11
638.13141376682108
 21
145.26899317237462
  0
LINE
  8
_0-1_
  6
CENTER1
 62
  152
 10
635.63141376682108
 20
138.87859596830754
 11
635.63141376682108
 21
154.11768193592479
  0
LINE
  8
_0-1_
  6
CENTER1
 62
  152
 10
639.13141376682108
 20
212.60751196352953
 11
639.13141376682108
 21
277.60751196352976
  0
LINE
  8
_0-0_
  6
CONTINUOUS
 62
    7
 10
641.36832637767259
 20
279.56357158210994
 11
647.63141376682108
 21
280.60751196352976
  0
LINE
  8
_0-0_
  6
CONTINUOUS
 62
    7
 10
647.63141376682108
 20
280.60751196352976
 11
647.63141376682108
 21
286.60751196352976
  0
LINE
  8
_0-0_
  6
CONTINUOUS
 62
    7
 10
641.63141376682108
 20
292.60751196352976
 11
586.63141376682108
 21
292.60751196352976
  0
LINE
  8
_0-0_
  6
CONTINUOUS
 62
    7
 10
585.13141376682108
 20
294.60751196342972
 11
643.13141376682108
 21
294.60751196342972
  0
LINE
  8
_0-0_
  6
CONTINUOUS
 62
    7
 10
643.13141376682108
 20
294.60751196342972
 11
643.13141376682108
 21
296.38528974122983
  0
LINE
  8
_0-0_
  6
CONTINUOUS
 62
    7
 10
643.13141376682108
 20
296.38528974122983
 11
585.13141376682108
 21
296.38528974122983
  0
LINE
  8
_0-0_
  6
CONTINUOUS
 62
    7
 10
585.13141376682108
 20
296.38528974122983
 11
585.13141376682108
 21
294.60751196342972
  0
LINE
  8
_0-0_
  6
CONTINUOUS
 62
    7
 10
585.13141376682108
 20
296.38528974122909
 11
585.35746058506243
 21
297.14970651120171
  0
LINE
  8
_0-0_
  6
CONTINUOUS
 62
    7
 10
585.35746058506243
 20
297.14970651120171
 11
585.43074121774293
 21
297.9374012888527
  0
LINE
  8
_0-0_
  6
CONTINUOUS
 62
    7
 10
585.43074121774293
 20
297.9374012888527
 11
585.42320983433865
 21
298.16306751902908
  0
LINE
  8
_0-0_
  6
CONTINUOUS
 62
    7
 10
585.42320983432148
 20
298.16306751902903
 11
642.83961769932068
 21
298.16306751902903
  0
LINE
  8
_0-0_
  6
CONTINUOUS
 62
    7
 10
642.83961769930352
 20
298.16306751902908
 11
642.86869906751269
 21
297.37310686294222
  0
LINE
  8
_0-0_
  6
CONTINUOUS
 62
    7
 10
642.86869906751269
 20
297.37310686294222
 11
643.05166075629415
 21
296.59963630789213
  0
LINE
  8
_0-0_
  6
CONTINUOUS
 62
    7
 10
643.05166075629415
 20
296.59963630789213
 11
643.13141376682108
 21
296.38528974122909
  0
LINE
  8
_0-0_
  6
CONTINUOUS
 62
    7
 10
642.83961769932034
 20
298.16306751902982
 11
642.39040865299955
 21
299.17149675843893
  0
LINE
  8
_0-0_
  6
CONTINUOUS
 62
    7
 10
642.39040865299955
 20
299.17149675843893
 11
640.6314137668212
 21
301.71285864157369
  0
LINE
  8
_0-0_
  6
CONTINUOUS
 62
    7
 10
641.33852054800775
 20
302.60751196352976
 11
661.63141376682108
 21
302.60751196352976
  0
LINE
  8
_0-0_
  6
CONTINUOUS
 62
    7
 10
661.63141376682108
 20
302.60751196352976
 11
661.63141376682108
 21
306.60751196352976
  0
LINE
  8
_0-0_
  6
CONTINUOUS
 62
    7
 10
642.07141382404166
 20
306.60751196352976
 11
642.07141382404166
 21
305.66751196591395
  0
LINE
  8
_0-0_
  6
CONTINUOUS
 62
    7
 10
642.07141382404166
 20
305.66751196591395
 11
629.19141370960074
 21
305.66751196591395
  0
LINE
  8
_0-0_
  6
CONTINUOUS
 62
    7
 10
629.19141370960074
 20
305.66751196591395
 11
629.19141370960074
 21
306.60751196352976
  0
LINE
  8
_0-0_
  6
CONTINUOUS
 62
    7
 10
630.6314137668212
 20
305.66751196591395
 11
630.6314137668212
 21
298.76751181094187
  0
LINE
  8
_0-0_
  6
CONTINUOUS
 62
    7
 10
630.6314137668212
 20
298.76751181094187
 11
631.23141367145377
 21
298.16751238314646
  0
LINE
  8
_0-0_
  6
CONTINUOUS
 62
    7
 10
631.23141367145377
 20
298.16751238314646
 11
640.03141386218863
 21
298.16751238314646
  0
LINE
  8
_0-0_
  6
CONTINUOUS
 62
    7
 10
640.03141386218863
 20
298.16751238314646
 11
640.6314137668212
 21
298.76751181094187
  0
LINE
  8
_0-0_
  6
CONTINUOUS
 62
    7
 10
640.6314137668212
 20
298.76751181094187
 11
630.6314137668212
 21
298.76751181094187
  0
LINE
  8
_0-0_
  6
CONTINUOUS
 62
    7
 10
630.6314137668212
 20
302.60751196352976
 11
580.6314137668212
 21
302.60751196352976
  0
LINE
  8
_0-0_
  6
CONTINUOUS
 62
    7
 10
580.6314137668212
 20
304.1675119063093
 11
570.6314137668212
 21
304.1675119063093
  0
LINE
  8
_0-0_
  6
CONTINUOUS
 62
    7
 10
570.6314137668212
 20
305.66751196591395
 11
570.6314137668212
 21
298.76751181094187
  0
LINE
  8
_0-0_
  6
CONTINUOUS
 62
    7
 10
570.6314137668212
 20
298.76751181094187
 11
571.23141367145377
 21
298.16751238314646
  0
LINE
  8
_0-0_
  6
CONTINUOUS
 62
    7
 10
571.23141367145377
 20
298.16751238314646
 11
580.03141386218863
 21
298.16751238314646
  0
LINE
  8
_0-0_
  6
CONTINUOUS
 62
    7
 10
580.03141386218863
 20
298.16751238314646
 11
580.6314137668212
 21
298.76751181094187
  0
LINE
  8
_0-0_
  6
CONTINUOUS
 62
    7
 10
580.6314137668212
 20
298.76751181094187
 11
580.6314137668212
 21
305.66751196591395
  0
LINE
  8
_0-0_
  6
CONTINUOUS
 62
    7
 10
582.07141382404166
 20
305.66751196591395
 11
582.07141382404166
 21
306.60751196352976
  0
LINE
  8
_0-0_
  6
CONTINUOUS
 62
    7
 10
582.07141382404166
 20
305.66751196591395
 11
569.19141370960074
 21
305.66751196591395
  0
LINE
  8
_0-0_
  6
CONTINUOUS
 62
    7
 10
569.19141370960074
 20
305.66751196591395
 11
569.19141370960074
 21
306.60751196352976
  0
LINE
  8
_0-0_
  6
CONTINUOUS
 62
    7
 10
565.63141376682108
 20
306.60751196352976
 11
565.63141376682108
 21
321.60751196352976
  0
LINE
  8
_0-0_
  6
CONTINUOUS
 62
    7
 10
565.63141376682108
 20
321.60751196352976
 11
750.63141376682108
 21
321.60751196352976
  0
LINE
  8
_0-0_
  6
CONTINUOUS
 62
    7
 10
750.63141376682108
 20
321.60751196352976
 11
750.63141376682108
 21
306.60751196352976
  0
LINE
  8
_0-0_
  6
CONTINUOUS
 62
    7
 10
750.63141376682108
 20
306.60751196352976
 11
565.63141376682108
 21
306.60751196352976
  0
LINE
  8
_0-0_
  6
CONTINUOUS
 62
    7
 10
566.63141376682108
 20
302.60751196352976
 11
566.63141376682108
 21
321.60751196352976
  0
LINE
  8
_0-1_
  6
CENTER1
 62
  152
 10
575.6314137668212
 20
321.60751196352976
 11
575.6314137668212
 21
298.16751238314646
  0
LINE
  8
_0-0_
  6
CONTINUOUS
 62
    7
 10
577.5064137668212
 20
298.76751181094187
 11
577.5064137668212
 21
304.1675119063093
  0
LINE
  8
_0-0_
  6
CONTINUOUS
 62
    7
 10
578.1314137668212
 20
304.1675119063093
 11
578.1314137668212
 21
298.76751181094187
  0
LINE
  8
_0-0_
  6
CONTINUOUS
 62
    7
 10
578.7564137668212
 20
298.76751181094187
 11
578.7564137668212
 21
304.1675119063093
  0
LINE
  8
_0-0_
  6
CONTINUOUS
 62
    7
 10
579.3814137668212
 20
304.1675119063093
 11
579.3814137668212
 21
298.76751181094187
  0
LINE
  8
_0-0_
  6
CONTINUOUS
 62
    7
 10
580.0064137668212
 20
298.76751181094187
 11
580.0064137668212
 21
304.1675119063093
  0
LINE
  8
_0-0_
  6
CONTINUOUS
 62
    7
 10
575.19840107270079
 20
304.1675119063093
 11
576.0644264609416
 21
305.66751196591395
  0
LINE
  8
ADD_LINE
  6
DOT
 62
  152
 10
575.6314137668212
 20
306.60751196352976
 11
576.33852054800786
 21
307.31461874471643
  0
LINE
  8
ADD_LINE
  6
DOT
 62
  152
 10
575.6314137668212
 20
306.60751196352976
 11
574.92430698563453
 21
307.31461874471643
  0
LINE
  8
_0-0_
  6
CONTINUOUS
 62
    7
 10
570.6314137668212
 20
302.60751196352976
 11
566.63141376682108
 21
302.60751196352976
  0
LINE
  8
_0-0_
  6
CONTINUOUS
 62
    7
 10
570.6314137668212
 20
298.76751181094187
 11
580.6314137668212
 21
298.76751181094187
  0
LINE
  8
_0-0_
  6
CONTINUOUS
 62
    7
 10
585.55356542131983
 20
298.51341507750499
 11
586.06923594033003
 21
299.49640085237979
  0
LINE
  8
_0-0_
  6
CONTINUOUS
 62
    7
 10
586.06923594033003
 20
299.49640085237979
 11
586.76910266498828
 21
300.38485709044045
  0
LINE
  8
_0-0_
  6
CONTINUOUS
 62
    7
 10
586.76910266498828
 20
300.38485709044045
 11
587.63190049901539
 21
301.1517884984741
  0
LINE
  8
_0-0_
  6
CONTINUOUS
 62
    7
 10
587.63190049901539
 20
301.1517884984741
 11
588.63141376682108
 21
301.77389225373366
  0
LINE
  8
_0-0_
  6
CONTINUOUS
 62
    7
 10
588.63141376682108
 20
301.77389225373366
 11
589.73727276354145
 21
302.23226604841517
  0
LINE
  8
_0-0_
  6
CONTINUOUS
 62
    7
 10
589.73727276354145
 20
302.23226604841517
 11
590.91587652315263
 21
302.51298242671567
  0
LINE
  8
_0-0_
  6
CONTINUOUS
 62
    7
 10
590.91587652315263
 20
302.51298242671567
 11
592.13141376682108
 21
302.60751196352976
  0
LINE
  8
_0-0_
  6
CONTINUOUS
 62
    7
 10
585.55356542131983
 20
298.51341507750499
 11
585.42320983432182
 21
298.16306751902982
  0
LINE
  8
_0-0_
  6
CONTINUOUS
 62
    7
 10
585.17233913411985
 20
282.60751196352976
 11
580.63141376682108
 21
286.60751196352976
  0
LINE
  8
_0-1_
  6
CENTER1
 62
  152
 10
614.13141376682108
 20
311.84902529607916
 11
614.13141376682108
 21
238.95226055256899
  0
LINE
  8
_0-0_
  6
CONTINUOUS
 62
    7
 10
626.12811150398613
 20
238.15723837995938
 11
633.23230105243204
 21
275.25689491072899
  0
LINE
  8
_0-1_
  6
CENTER1
 62
  152
 10
635.6314137668212
 20
298.16751238314646
 11
635.6314137668212
 21
321.60751196352976
  0
LINE
  8
ADD_LINE
  6
DOT
 62
  152
 10
635.6314137668212
 20
306.60751196352976
 11
636.33852054800786
 21
307.31461874471643
  0
LINE
  8
ADD_LINE
  6
DOT
 62
  152
 10
635.6314137668212
 20
306.60751196352976
 11
634.92430698563453
 21
307.31461874471643
  0
LINE
  8
_0-0_
  6
CONTINUOUS
 62
    7
 10
636.0644264609416
 20
305.66751196591395
 11
635.19840107270079
 21
304.1675119063093
  0
LINE
  8
_0-0_
  6
CONTINUOUS
 62
    7
 10
637.5064137668212
 20
304.1675119063093
 11
637.5064137668212
 21
298.76751181094187
  0
LINE
  8
_0-0_
  6
CONTINUOUS
 62
    7
 10
638.1314137668212
 20
298.76751181094187
 11
638.1314137668212
 21
304.1675119063093
  0
LINE
  8
_0-0_
  6
CONTINUOUS
 62
    7
 10
638.7564137668212
 20
304.1675119063093
 11
638.7564137668212
 21
298.76751181094187
  0
LINE
  8
_0-0_
  6
CONTINUOUS
 62
    7
 10
639.3814137668212
 20
298.76751181094187
 11
639.3814137668212
 21
304.1675119063093
  0
LINE
  8
_0-0_
  6
CONTINUOUS
 62
    7
 10
640.0064137668212
 20
304.1675119063093
 11
640.0064137668212
 21
298.76751181094187
  0
LINE
  8
_0-0_
  6
CONTINUOUS
 62
    7
 10
640.6314137668212
 20
298.76751181094187
 11
640.6314137668212
 21
305.66751196591395
  0
LINE
  8
_0-0_
  6
CONTINUOUS
 62
    7
 10
640.6314137668212
 20
304.1675119063093
 11
630.6314137668212
 21
304.1675119063093
  0
LINE
  8
_0-0_
  6
CONTINUOUS
 62
    7
 10
641.33852054800775
 20
300.5082352862438
 11
641.75102321426641
 21
300.09526850751894
  0
LINE
  8
_0-0_
  6
CONTINUOUS
 62
    7
 10
725.6314137668212
 20
298.76751181094187
 11
725.6314137668212
 21
305.66751196591395
  0
LINE
  8
_0-0_
  6
CONTINUOUS
 62
    7
 10
724.19141370960074
 20
305.66751196591395
 11
737.07141382404166
 21
305.66751196591395
  0
LINE
  8
_0-0_
  6
CONTINUOUS
 62
    7
 10
737.07141382404166
 20
305.66751196591395
 11
737.07141382404166
 21
306.60751196352976
  0
LINE
  8
_0-0_
  6
CONTINUOUS
 62
    7
 10
735.6314137668212
 20
305.66751196591395
 11
735.6314137668212
 21
298.76751181094187
  0
LINE
  8
_0-0_
  6
CONTINUOUS
 62
    7
 10
735.6314137668212
 20
298.76751181094187
 11
735.03141386218863
 21
298.16751238314646
  0
LINE
  8
_0-0_
  6
CONTINUOUS
 62
    7
 10
735.03141386218863
 20
298.16751238314646
 11
726.23141367145377
 21
298.16751238314646
  0
LINE
  8
_0-0_
  6
CONTINUOUS
 62
    7
 10
726.23141367145377
 20
298.16751238314646
 11
725.6314137668212
 21
298.76751181094187
  0
LINE
  8
_0-0_
  6
CONTINUOUS
 62
    7
 10
725.6314137668212
 20
298.76751181094187
 11
735.6314137668212
 21
298.76751181094187
  0
LINE
  8
_0-0_
  6
CONTINUOUS
 62
    7
 10
735.0064137668212
 20
298.76751181094187
 11
735.0064137668212
 21
304.1675119063093
  0
LINE
  8
_0-0_
  6
CONTINUOUS
 62
    7
 10
735.6314137668212
 20
304.1675119063093
 11
725.6314137668212
 21
304.1675119063093
  0
LINE
  8
_0-0_
  6
CONTINUOUS
 62
    7
 10
724.19141370960074
 20
305.66751196591395
 11
724.19141370960074
 21
306.60751196352976
  0
LINE
  8
ADD_LINE
  6
DOT
 62
  152
 10
730.6314137668212
 20
306.60751196352976
 11
731.33852054800786
 21
307.31461874471643
  0
LINE
  8
ADD_LINE
  6
DOT
 62
  152
 10
730.6314137668212
 20
306.60751196352976
 11
729.92430698563453
 21
307.31461874471643
  0
LINE
  8
_0-0_
  6
CONTINUOUS
 62
    7
 10
731.0644264609416
 20
305.66751196591395
 11
730.19840107270079
 21
304.1675119063093
  0
LINE
  8
_0-0_
  6
CONTINUOUS
 62
    7
 10
732.5064137668212
 20
304.1675119063093
 11
732.5064137668212
 21
298.76751181094187
  0
LINE
  8
_0-0_
  6
CONTINUOUS
 62
    7
 10
733.1314137668212
 20
298.76751181094187
 11
733.1314137668212
 21
304.1675119063093
  0
LINE
  8
_0-0_
  6
CONTINUOUS
 62
    7
 10
733.7564137668212
 20
304.1675119063093
 11
733.7564137668212
 21
298.76751181094187
  0
LINE
  8
_0-0_
  6
CONTINUOUS
 62
    7
 10
734.3814137668212
 20
298.76751181094187
 11
734.3814137668212
 21
304.1675119063093
  0
LINE
  8
_0-1_
  6
CENTER1
 62
  152
 10
730.6314137668212
 20
298.16751238314646
 11
730.6314137668212
 21
321.60751196352976
  0
LINE
  8
_0-0_
  6
CONTINUOUS
 62
    7
 10
749.63141376682108
 20
321.60751196352976
 11
749.63141376682108
 21
306.60751196352976
  0
LINE
  8
_0-1_
  6
PHANTOM1
 62
  152
 10
750.63141376682108
 20
321.60751196352976
 11
750.63141376682108
 21
424.45056212312562
  0
LINE
  8
_0-1_
  6
PHANTOM1
 62
  152
 10
756.16453965004962
 20
425.93315873515644
 11
705.27061248670861
 21
412.29617205209081
  0
LINE
  8
_0-1_
  6
PHANTOM1
 62
  152
 10
710.63141376682108
 20
413.73259442588073
 11
710.63141376682108
 21
321.60751196352976
  0
LINE
  8
_0-1_
  6
PHANTOM1
 62
  152
 10
750.63141376682108
 20
321.60751196352976
 11
548.71435190860348
 21
321.60751196352976
  0
LINE
  8
_0-1_
  6
PHANTOM1
 62
  152
 10
547.24861332993135
 20
316.13730111731172
 11
560.58120298882147
 21
365.89520312075678
  0
LINE
  8
_0-1_
  6
PHANTOM1
 62
  152
 10
559.43231960584842
 20
361.60751196352999
 11
710.63141376682108
 21
361.60751196352999
  0
LINE
  8
_0-1_
  6
CENTER1
 62
  152
 10
671.63141376682108
 20
245.10751196352976
 11
606.63141376682108
 21
245.10751196352976
  0
LINE
  8
_0-1_
  6
CENTER1
 62
  152
 10
699.63141376682108
 20
145.71236887904729
 11
699.63141376682108
 21
85.71236887904729
  0
LINE
  8
_0-1_
  6
CENTER1
 62
  152
 10
722.79764085608133
 20
86.71236887904729
 11
739.58299344930276
 21
86.71236887904729
  0
LINE
  8
_0-0_
  6
CONTINUOUS
 62
    7
 10
733.13141376682108
 20
88.155744585719958
 11
730.63141376682108
 21
89.599120292392627
  0
LINE
  8
_0-0_
  6
CONTINUOUS
 62
    7
 10
730.63141376682108
 20
89.599120292392627
 11
728.13141376682108
 21
88.155744585719958
  0
LINE
  8
_0-0_
  6
CONTINUOUS
 62
    7
 10
728.13141376682108
 20
88.155744585719958
 11
728.13141376682108
 21
85.268993172374621
  0
LINE
  8
_0-0_
  6
CONTINUOUS
 62
    7
 10
728.13141376682108
 20
85.268993172374621
 11
730.63141376682108
 21
83.825617465701953
  0
LINE
  8
_0-0_
  6
CONTINUOUS
 62
    7
 10
730.63141376682108
 20
83.825617465701953
 11
733.13141376682108
 21
85.268993172374621
  0
LINE
  8
_0-0_
  6
CONTINUOUS
 62
    7
 10
733.13141376682108
 20
85.268993172374621
 11
733.13141376682108
 21
88.155744585719958
  0
LINE
  8
_0-1_
  6
CENTER1
 62
  152
 10
730.63141376682108
 20
93.683673759509929
 11
730.63141376682108
 21
19.924400328876345
  0
LINE
  8
_0-0_
  6
CONTINUOUS
 62
    7
 10
730.63141376682108
 20
23.825617465701953
 11
733.13141376682108
 21
25.268993172374621
  0
LINE
  8
_0-0_
  6
CONTINUOUS
 62
    7
 10
733.13141376682108
 20
25.268993172374621
 11
733.13141376682108
 21
28.155744585719958
  0
LINE
  8
_0-0_
  6
CONTINUOUS
 62
    7
 10
733.13141376682108
 20
28.155744585719958
 11
730.63141376682108
 21
29.599120292392627
  0
LINE
  8
_0-0_
  6
CONTINUOUS
 62
    7
 10
730.63141376682108
 20
29.599120292392627
 11
728.13141376682108
 21
28.155744585719958
  0
LINE
  8
_0-0_
  6
CONTINUOUS
 62
    7
 10
728.13141376682108
 20
28.155744585719958
 11
728.13141376682108
 21
25.268993172374621
  0
LINE
  8
_0-0_
  6
CONTINUOUS
 62
    7
 10
728.13141376682108
 20
25.268993172374621
 11
730.63141376682108
 21
23.825617465701953
  0
LINE
  8
_0-1_
  6
CENTER1
 62
  152
 10
722.79764085608133
 20
26.71236887904729
 11
739.47376363752448
 21
26.71236887904729
  0
LINE
  8
_0-1_
  6
CENTER1
 62
  152
 10
729.63141376682108
 20
115.71236887904729
 11
686.25455663485047
 21
115.71236887904729
  0
LINE
  8
_0-1_
  6
PHANTOM1
 62
  152
 10
846.38461066596597
 20
361.60751196352976
 11
980.8931717620012
 21
361.60751196352976
  0
LINE
  8
_0-1_
  6
PHANTOM1
 62
  152
 10
982.04205514497426
 20
365.89520312075678
 11
968.70946548608435
 21
316.13730111731172
  0
LINE
  8
_0-1_
  6
PHANTOM1
 62
  152
 10
970.17520406475637
 20
321.60751196352976
 11
846.38461066596597
 21
321.60751196352976
  0
LINE
  8
_0-1_
  6
PHANTOM1
 62
  152
 10
846.38461066596597
 20
321.60751196352976
 11
846.38461066596597
 21
424.45056212312562
  0
LINE
  8
_0-1_
  6
PHANTOM1
 62
  152
 10
851.88911095868798
 20
425.92548853129733
 11
800.69224375270812
 21
412.20732930845156
  0
LINE
  8
_0-1_
  6
PHANTOM1
 62
  152
 10
806.38461066596597
 20
413.73259442588073
 11
806.38461066596597
 21
321.60751196352976
  0
LINE
  8
_0-0_
  6
CONTINUOUS
 62
    7
 10
806.38461066596597
 20
321.60751196352976
 11
806.38461066596597
 21
306.60751196352976
  0
LINE
  8
_0-0_
  6
CONTINUOUS
 62
    7
 10
806.38461066596597
 20
306.60751196352976
 11
956.38461066596597
 21
306.60751196352976
  0
LINE
  8
_0-0_
  6
CONTINUOUS
 62
    7
 10
956.38461066596597
 20
306.60751196352976
 11
956.38461066596597
 21
321.60751196352976
  0
LINE
  8
_0-0_
  6
CONTINUOUS
 62
    7
 10
956.38461066596597
 20
321.60751196352976
 11
806.38461066596597
 21
321.60751196352976
  0
LINE
  8
_0-0_
  6
CONTINUOUS
 62
    7
 10
807.38461066596597
 20
321.60751196352976
 11
807.38461066596597
 21
306.60751196352976
  0
LINE
  8
_0-0_
  6
CONTINUOUS
 62
    7
 10
888.38461066596597
 20
306.60751196352976
 11
888.38461066596597
 21
302.60751196352976
  0
LINE
  8
_0-0_
  6
CONTINUOUS
 62
    7
 10
888.38461066596597
 20
302.60751196352976
 11
955.38461066596597
 21
302.60751196352976
  0
LINE
  8
_0-0_
  6
CONTINUOUS
 62
    7
 10
955.38461066596597
 20
302.60751196352976
 11
955.38461066596597
 21
321.60751196352976
  0
LINE
  8
_0-0_
  6
CONTINUOUS
 62
    7
 10
948.69408568527706
 20
300.90631442912502
 11
949.50422011341129
 21
300.09526850751894
  0
LINE
  8
_0-0_
  6
CONTINUOUS
 62
    7
 10
949.50422011341129
 20
300.09526850751894
 11
950.14360555214444
 21
299.17149675843893
  0
LINE
  8
_0-0_
  6
CONTINUOUS
 62
    7
 10
950.14360555214444
 20
299.17149675843893
 11
950.59281459846534
 21
298.16306751902982
  0
LINE
  8
_0-0_
  6
CONTINUOUS
 62
    7
 10
950.59281459846557
 20
298.16306751902903
 11
893.17640673346637
 21
298.16306751902903
  0
LINE
  8
_0-0_
  6
CONTINUOUS
 62
    7
 10
893.17640673346682
 20
298.16306751902982
 11
893.30676232046471
 21
298.51341507750499
  0
LINE
  8
_0-0_
  6
CONTINUOUS
 62
    7
 10
893.30676232046471
 20
298.51341507750499
 11
893.82243283947491
 21
299.49640085237979
  0
LINE
  8
_0-0_
  6
CONTINUOUS
 62
    7
 10
893.82243283947491
 20
299.49640085237979
 11
894.52229956413316
 21
300.38485709044045
  0
LINE
  8
_0-0_
  6
CONTINUOUS
 62
    7
 10
894.52229956413316
 20
300.38485709044045
 11
895.38509739816027
 21
301.1517884984741
  0
LINE
  8
_0-0_
  6
CONTINUOUS
 62
    7
 10
895.38509739816027
 20
301.1517884984741
 11
896.38461066596597
 21
301.77389225373366
  0
LINE
  8
_0-0_
  6
CONTINUOUS
 62
    7
 10
896.38461066596597
 20
301.77389225373366
 11
897.49046966268634
 21
302.23226604841517
  0
LINE
  8
_0-0_
  6
CONTINUOUS
 62
    7
 10
897.49046966268634
 20
302.23226604841517
 11
898.66907342229752
 21
302.51298242671567
  0
LINE
  8
_0-0_
  6
CONTINUOUS
 62
    7
 10
898.66907342229752
 20
302.51298242671567
 11
899.88461066596597
 21
302.60751196352976
  0
LINE
  8
_0-0_
  6
CONTINUOUS
 62
    7
 10
893.17640673348365
 20
298.16306751902908
 11
893.18393811688793
 21
297.9374012888527
  0
LINE
  8
_0-0_
  6
CONTINUOUS
 62
    7
 10
893.18393811688793
 20
297.9374012888527
 11
893.11065748420742
 21
297.14970651120171
  0
LINE
  8
_0-0_
  6
CONTINUOUS
 62
    7
 10
893.11065748420742
 20
297.14970651120171
 11
892.88461066596597
 21
296.38528974122909
  0
LINE
  8
_0-0_
  6
CONTINUOUS
 62
    7
 10
892.88461066596597
 20
296.38528974122983
 11
950.88461066596597
 21
296.38528974122983
  0
LINE
  8
_0-0_
  6
CONTINUOUS
 62
    7
 10
950.88461066596597
 20
296.38528974122983
 11
950.88461066596597
 21
294.60751196342972
  0
LINE
  8
_0-0_
  6
CONTINUOUS
 62
    7
 10
950.88461066596597
 20
294.60751196342972
 11
892.88461066596597
 21
294.60751196342972
  0
LINE
  8
_0-0_
  6
CONTINUOUS
 62
    7
 10
892.88461066596597
 20
294.60751196342972
 11
892.88461066596597
 21
296.38528974122983
  0
LINE
  8
_0-0_
  6
CONTINUOUS
 62
    7
 10
894.38461066596597
 20
292.60751196352976
 11
949.38461066596597
 21
292.60751196352976
  0
LINE
  8
_0-0_
  6
CONTINUOUS
 62
    7
 10
950.88461066596597
 20
296.38528974122909
 11
950.80485765543904
 21
296.59963630789213
  0
LINE
  8
_0-0_
  6
CONTINUOUS
 62
    7
 10
950.80485765543904
 20
296.59963630789213
 11
950.62189596665758
 21
297.37310686294222
  0
LINE
  8
_0-0_
  6
CONTINUOUS
 62
    7
 10
950.62189596665758
 20
297.37310686294222
 11
950.59281459844851
 21
298.16306751902908
  0
LINE
  8
_0-0_
  6
CONTINUOUS
 62
    7
 10
948.69408568527706
 20
300.90631442912502
 11
947.73781779239289
 21
301.57999130333837
  0
LINE
  8
_0-0_
  6
CONTINUOUS
 62
    7
 10
947.73781779239289
 20
301.57999130333837
 11
946.66447215078915
 21
302.09582979923283
  0
LINE
  8
_0-0_
  6
CONTINUOUS
 62
    7
 10
946.66447215078915
 20
302.09582979923283
 11
945.5066618246467
 21
302.43815642513755
  0
LINE
  8
_0-0_
  6
CONTINUOUS
 62
    7
 10
945.5066618246467
 20
302.43815642513755
 11
944.29956629484536
 21
302.59656975975008
  0
LINE
  8
_0-0_
  6
CONTINUOUS
 62
    7
 10
944.29956629484536
 20
302.59656975975008
 11
943.88461066596597
 21
302.60751196352976
  0
LINE
  8
_0-0_
  6
CONTINUOUS
 62
    7
 10
943.18461066596615
 20
278.10733501838786
 11
943.18461066596615
 21
274.10751196352976
  0
LINE
  8
_0-0_
  6
CONTINUOUS
 62
    7
 10
943.45255985839708
 20
273.10751196352976
 11
944.9166614735343
 21
270.57161357866698
  0
LINE
  8
_0-0_
  6
CONTINUOUS
 62
    7
 10
945.18461066596615
 20
269.57161357866698
 11
945.18461066596615
 21
229.60751196352976
  0
LINE
  8
_0-0_
  6
CONTINUOUS
 62
    7
 10
945.18461066596615
 20
229.60751196352976
 11
948.38461066596597
 21
229.60751196352976
  0
LINE
  8
_0-0_
  6
CONTINUOUS
 62
    7
 10
948.38461066596597
 20
229.60751196352976
 11
948.38461066596597
 21
269.57161357866698
  0
LINE
  8
_0-0_
  6
CONTINUOUS
 62
    7
 10
948.11666147353503
 20
270.57161357866698
 11
945.18461066596615
 21
275.65007454774968
  0
LINE
  8
_0-0_
  6
CONTINUOUS
 62
    7
 10
945.18461066596615
 20
275.65007454774968
 11
945.18461066596615
 21
276.05015733942582
  0
LINE
  8
_0-0_
  6
CONTINUOUS
 62
    7
 10
941.88461066596597
 20
274.60751196352976
 11
941.88461066596597
 21
215.60751196352976
  0
LINE
  8
_0-0_
  6
CONTINUOUS
 62
    7
 10
938.88461066596597
 20
212.60751196352953
 11
904.88461066596597
 21
212.60751196352953
  0
LINE
  8
_0-0_
  6
CONTINUOUS
 62
    7
 10
901.88461066596597
 20
215.60751196352976
 11
901.88461066596597
 21
274.60751196352976
  0
LINE
  8
_0-0_
  6
CONTINUOUS
 62
    7
 10
900.58461066596578
 20
274.10751196352976
 11
900.58461066596578
 21
278.10733501838786
  0
LINE
  8
_0-0_
  6
CONTINUOUS
 62
    7
 10
898.58461066596578
 20
277.60751196352976
 11
898.58461066596578
 21
276.18597293261246
  0
LINE
  8
_0-0_
  6
CONTINUOUS
 62
    7
 10
898.31666147353485
 20
275.18597293261246
 11
895.6525598583969
 21
270.57161357866698
  0
LINE
  8
_0-0_
  6
CONTINUOUS
 62
    7
 10
895.38461066596597
 20
269.57161357866698
 11
895.38461066596597
 21
229.60751196352976
  0
LINE
  8
_0-0_
  6
CONTINUOUS
 62
    7
 10
895.38461066596597
 20
229.60751196352976
 11
890.38109237631693
 21
236.28702917459123
  0
LINE
  8
_0-0_
  6
CONTINUOUS
 62
    7
 10
894.38461066596597
 20
236.60751196440015
 11
894.38461066596597
 21
253.60751196352976
  0
LINE
  8
_0-0_
  6
CONTINUOUS
 62
    7
 10
894.38461066596597
 20
253.60751196352976
 11
895.38461066596597
 21
253.60751196352976
  0
LINE
  8
_0-0_
  6
CONTINUOUS
 62
    7
 10
898.58461066596578
 20
255.10751196352976
 11
900.28461066596651
 21
255.10751196352976
  0
LINE
  8
_0-0_
  6
CONTINUOUS
 62
    7
 10
900.28461066596651
 20
264.60751196352976
 11
901.88461066596597
 21
266.10751196352976
  0
LINE
  8
_0-0_
  6
CONTINUOUS
 62
    7
 10
900.28461066596651
 20
264.60751196352976
 11
900.28461066596651
 21
225.60751196352976
  0
LINE
  8
_0-0_
  6
CONTINUOUS
 62
    7
 10
900.28461066596651
 20
225.60751196352976
 11
901.88461066596597
 21
224.10751196352976
  0
LINE
  8
_0-0_
  6
CONTINUOUS
 62
    7
 10
898.58461066596578
 20
229.60751196352976
 11
898.58461066596578
 21
269.57161357866698
  0
LINE
  8
_0-0_
  6
CONTINUOUS
 62
    7
 10
898.85255985839763
 20
270.57161357866698
 11
900.31666147353485
 21
273.10751196352976
  0
LINE
  8
_0-0_
  6
CONTINUOUS
 62
    7
 10
904.88461066596597
 20
277.60751196352976
 11
938.88461066596597
 21
277.60751196352976
  0
LINE
  8
_0-0_
  6
CONTINUOUS
 62
    7
 10
941.88461066596597
 20
266.10751196352976
 11
943.48461066596542
 21
264.60751196352976
  0
LINE
  8
_0-0_
  6
CONTINUOUS
 62
    7
 10
943.48461066596542
 20
264.60751196352976
 11
943.48461066596542
 21
225.60751196352976
  0
LINE
  8
_0-0_
  6
CONTINUOUS
 62
    7
 10
943.48461066596542
 20
225.60751196352976
 11
941.88461066596597
 21
224.10751196352976
  0
LINE
  8
_0-0_
  6
CONTINUOUS
 62
    7
 10
948.38461066596597
 20
229.60751196352976
 11
952.65438845825452
 21
235.30751196352958
  0
LINE
  8
_0-0_
  6
CONTINUOUS
 62
    7
 10
953.98971766596628
 20
235.30751196352958
 11
954.88461066596597
 21
236.85751196352976
  0
LINE
  8
_0-0_
  6
CONTINUOUS
 62
    7
 10
954.88461066596597
 20
236.85751196352976
 11
955.63461066596597
 21
236.85751196352976
  0
LINE
  8
_0-0_
  6
CONTINUOUS
 62
    7
 10
956.38461066596597
 20
237.60751196352976
 11
956.38461066596597
 21
252.60751196352976
  0
LINE
  8
_0-0_
  6
CONTINUOUS
 62
    7
 10
955.63461066596597
 20
253.35751196352976
 11
954.88461066596597
 21
253.35751196352976
  0
LINE
  8
_0-0_
  6
CONTINUOUS
 62
    7
 10
954.88461066596597
 20
253.35751196352976
 11
953.98971766596628
 21
254.90751196352994
  0
LINE
  8
_0-0_
  6
CONTINUOUS
 62
    7
 10
953.98971766596628
 20
254.90751196352994
 11
949.13516616596667
 21
254.90751196352994
  0
LINE
  8
_0-0_
  6
CONTINUOUS
 62
    7
 10
949.13516616596667
 20
254.90751196352994
 11
948.38461066596597
 21
253.60751196352976
  0
LINE
  8
_0-0_
  6
CONTINUOUS
 62
    7
 10
949.13516616596667
 20
250.00751196353031
 11
953.98971766596628
 21
250.00751196353031
  0
LINE
  8
_0-0_
  6
CONTINUOUS
 62
    7
 10
956.38461066596597
 20
250.10751196352976
 11
959.68460990302651
 21
250.10751196352976
  0
LINE
  8
_0-0_
  6
CONTINUOUS
 62
    7
 10
959.68460990302651
 20
250.10751196352976
 11
959.68460990302651
 21
240.10751196352976
  0
LINE
  8
_0-0_
  6
CONTINUOUS
 62
    7
 10
959.68460990302651
 20
240.10751196352976
 11
956.38461066596597
 21
240.10751196352976
  0
LINE
  8
_0-0_
  6
CONTINUOUS
 62
    7
 10
956.38461066596597
 20
240.8075117727949
 11
960.38461066596597
 21
240.8075117727949
  0
LINE
  8
_0-0_
  6
CONTINUOUS
 62
    7
 10
960.38461066596597
 20
240.8075117727949
 11
959.68460990302651
 21
240.10751196352976
  0
LINE
  8
_0-0_
  6
CONTINUOUS
 62
    7
 10
960.38461066596597
 20
240.8075117727949
 11
960.38461066596597
 21
249.40751215426462
  0
LINE
  8
_0-0_
  6
CONTINUOUS
 62
    7
 10
960.38461066596597
 20
249.40751215426462
 11
956.38461066596597
 21
249.40751215426462
  0
LINE
  8
_0-0_
  6
CONTINUOUS
 62
    7
 10
959.68460990302651
 20
250.10751196352976
 11
960.38461066596597
 21
249.40751215426462
  0
LINE
  8
_0-1_
  6
CENTER1
 62
  152
 10
960.38461066596597
 20
245.10751196352976
 11
890.38461066596597
 21
245.10751196352976
  0
LINE
  8
_0-0_
  6
CONTINUOUS
 62
    7
 10
888.38461066596597
 20
242.28233525412088
 11
888.38461066596597
 21
286.60751196352976
  0
LINE
  8
_0-1_
  6
CENTER1
 62
  152
 10
921.88461066596597
 20
306.60751196352976
 11
921.88461066596597
 21
212.60751196352953
  0
LINE
  8
_0-0_
  6
CONTINUOUS
 62
    7
 10
898.58461066596578
 20
229.60751196352976
 11
895.38461066596597
 21
229.60751196352976
  0
LINE
  8
_0-0_
  6
CONTINUOUS
 62
    7
 10
895.38461066596597
 20
236.60751196440015
 11
894.38461066596597
 21
236.60751196440015
  0
LINE
  8
_0-0_
  6
CONTINUOUS
 62
    7
 10
898.58461066596578
 20
235.10751196352976
 11
900.28461066596651
 21
235.10751196352976
  0
LINE
  8
_0-0_
  6
CONTINUOUS
 62
    7
 10
943.48461066596542
 20
235.10751196352976
 11
945.18461066596615
 21
235.10751196352976
  0
LINE
  8
_0-0_
  6
CONTINUOUS
 62
    7
 10
949.13516616596667
 20
235.30751196352958
 11
953.98971766596628
 21
235.30751196352958
  0
LINE
  8
_0-0_
  6
CONTINUOUS
 62
    7
 10
949.13516616596667
 20
235.30751196352958
 11
948.38461066596597
 21
236.60751196352976
  0
LINE
  8
_0-0_
  6
CONTINUOUS
 62
    7
 10
949.13516616596667
 20
240.20751196353012
 11
953.98971766596628
 21
240.20751196353012
  0
LINE
  8
ADD_LINE
  6
DOT
 62
  152
 10
947.67750388478021
 20
244.40040518234309
 11
948.38461066596597
 21
245.10751196352976
  0
LINE
  8
ADD_LINE
  6
DOT
 62
  152
 10
948.38461066596597
 20
245.10751196352976
 11
947.67750388478021
 21
245.81461874471643
  0
LINE
  8
_0-0_
  6
CONTINUOUS
 62
    7
 10
945.18461066596615
 20
255.10751196352976
 11
943.48461066596542
 21
255.10751196352976
  0
LINE
  8
_0-0_
  6
CONTINUOUS
 62
    7
 10
955.38461066596597
 20
253.35751196352976
 11
955.38461066596597
 21
286.60751196352976
  0
LINE
  8
_0-0_
  6
CONTINUOUS
 62
    7
 10
424.46214636682117
 20
302.60751196352976
 11
424.46214636682117
 21
321.60751196352976
  0
LINE
  8
_0-1_
  6
CENTER1
 62
  152
 10
415.46214636682117
 20
321.60751196352976
 11
415.46214636682117
 21
298.16751238314646
  0
LINE
  8
_0-0_
  6
CONTINUOUS
 62
    7
 10
413.58714636682117
 20
298.76751181094187
 11
413.58714636682117
 21
304.1675119063093
  0
LINE
  8
_0-0_
  6
CONTINUOUS
 62
    7
 10
412.96214636682117
 20
304.1675119063093
 11
412.96214636682117
 21
298.76751181094187
  0
LINE
  8
_0-0_
  6
CONTINUOUS
 62
    7
 10
412.33714636682117
 20
298.76751181094187
 11
412.33714636682117
 21
304.1675119063093
  0
LINE
  8
_0-0_
  6
CONTINUOUS
 62
    7
 10
411.71214636682117
 20
304.1675119063093
 11
411.71214636682117
 21
298.76751181094187
  0
LINE
  8
_0-0_
  6
CONTINUOUS
 62
    7
 10
411.08714636682117
 20
298.76751181094187
 11
411.08714636682117
 21
304.1675119063093
  0
LINE
  8
_0-0_
  6
CONTINUOUS
 62
    7
 10
410.46214636682117
 20
304.1675119063093
 11
420.46214636682117
 21
304.1675119063093
  0
LINE
  8
_0-0_
  6
CONTINUOUS
 62
    7
 10
420.46214636682117
 20
305.66751196591395
 11
420.46214636682117
 21
298.76751181094187
  0
LINE
  8
_0-0_
  6
CONTINUOUS
 62
    7
 10
420.46214636682117
 20
298.76751181094187
 11
419.8621464621886
 21
298.16751238314646
  0
LINE
  8
_0-0_
  6
CONTINUOUS
 62
    7
 10
419.8621464621886
 20
298.16751238314646
 11
411.06214627145374
 21
298.16751238314646
  0
LINE
  8
_0-0_
  6
CONTINUOUS
 62
    7
 10
411.06214627145374
 20
298.16751238314646
 11
410.46214636682117
 21
298.76751181094187
  0
LINE
  8
_0-0_
  6
CONTINUOUS
 62
    7
 10
410.46214636682117
 20
298.76751181094187
 11
410.46214636682117
 21
305.66751196591395
  0
LINE
  8
_0-0_
  6
CONTINUOUS
 62
    7
 10
409.02214630960071
 20
305.66751196591395
 11
409.02214630960071
 21
306.60751196352976
  0
LINE
  8
_0-0_
  6
CONTINUOUS
 62
    7
 10
409.02214630960071
 20
305.66751196591395
 11
421.90214642404163
 21
305.66751196591395
  0
LINE
  8
_0-0_
  6
CONTINUOUS
 62
    7
 10
421.90214642404163
 20
305.66751196591395
 11
421.90214642404163
 21
306.60751196352976
  0
LINE
  8
ADD_LINE
  6
DOT
 62
  152
 10
415.46214636682117
 20
306.60751196352976
 11
414.75503958563451
 21
307.31461874471643
  0
LINE
  8
ADD_LINE
  6
DOT
 62
  152
 10
415.46214636682117
 20
306.60751196352976
 11
416.16925314800784
 21
307.31461874471643
  0
LINE
  8
_0-0_
  6
CONTINUOUS
 62
    7
 10
415.02913367270077
 20
305.66751196591395
 11
415.89515906094158
 21
304.1675119063093
  0
LINE
  8
_0-0_
  6
CONTINUOUS
 62
    7
 10
420.46214636682117
 20
298.76751181094187
 11
410.46214636682117
 21
298.76751181094187
  0
LINE
  8
_0-0_
  6
CONTINUOUS
 62
    7
 10
408.23247446807295
 20
299.30369799614482
 11
391.88813780988062
 21
240.92842361297653
  0
LINE
  8
_0-1_
  6
CENTER1
 62
  152
 10
409.46214636682112
 20
245.10751196352976
 11
344.46214636682112
 21
245.10751196352976
  0
LINE
  8
_0-0_
  6
CONTINUOUS
 62
    7
 10
362.03615492376252
 20
240.92842361297653
 11
345.69181826556837
 21
299.30369799614482
  0
LINE
  8
_0-0_
  6
CONTINUOUS
 62
    7
 10
345.62857581771846
 20
296.32014437442695
 11
356.80624702704449
 21
259.60751196352976
  0
LINE
  8
_0-0_
  6
CONTINUOUS
 62
    7
 10
360.96214636682112
 20
268.28589711326094
 11
360.96214636682112
 21
296.82807535618895
  0
LINE
  8
_0-0_
  6
CONTINUOUS
 62
    7
 10
360.46214636682117
 20
298.76751181094187
 11
360.46214636682117
 21
305.66751196591395
  0
LINE
  8
_0-0_
  6
CONTINUOUS
 62
    7
 10
361.90214642404163
 20
305.66751196591395
 11
349.02214630960071
 21
305.66751196591395
  0
LINE
  8
_0-0_
  6
CONTINUOUS
 62
    7
 10
349.02214630960071
 20
305.66751196591395
 11
349.02214630960071
 21
306.60751196352976
  0
LINE
  8
_0-0_
  6
CONTINUOUS
 62
    7
 10
350.46214636682117
 20
305.66751196591395
 11
350.46214636682117
 21
298.76751181094187
  0
LINE
  8
_0-0_
  6
CONTINUOUS
 62
    7
 10
350.46214636682117
 20
298.76751181094187
 11
351.06214627145374
 21
298.16751238314646
  0
LINE
  8
_0-0_
  6
CONTINUOUS
 62
    7
 10
351.06214627145374
 20
298.16751238314646
 11
359.8621464621886
 21
298.16751238314646
  0
LINE
  8
_0-0_
  6
CONTINUOUS
 62
    7
 10
359.8621464621886
 20
298.16751238314646
 11
360.46214636682117
 21
298.76751181094187
  0
LINE
  8
_0-0_
  6
CONTINUOUS
 62
    7
 10
360.46214636682117
 20
298.76751181094187
 11
350.46214636682117
 21
298.76751181094187
  0
LINE
  8
_0-0_
  6
CONTINUOUS
 62
    7
 10
351.08714636682117
 20
298.76751181094187
 11
351.08714636682117
 21
304.1675119063093
  0
LINE
  8
_0-0_
  6
CONTINUOUS
 62
    7
 10
350.46214636682117
 20
304.1675119063093
 11
360.46214636682117
 21
304.1675119063093
  0
LINE
  8
_0-0_
  6
CONTINUOUS
 62
    7
 10
361.90214642404163
 20
305.66751196591395
 11
361.90214642404163
 21
306.60751196352976
  0
LINE
  8
ADD_LINE
  6
DOT
 62
  152
 10
355.46214636682117
 20
306.60751196352976
 11
354.75503958563451
 21
307.31461874471643
  0
LINE
  8
ADD_LINE
  6
DOT
 62
  152
 10
355.46214636682117
 20
306.60751196352976
 11
356.16925314800784
 21
307.31461874471643
  0
LINE
  8
_0-0_
  6
CONTINUOUS
 62
    7
 10
355.02913367270077
 20
305.66751196591395
 11
355.89515906094158
 21
304.1675119063093
  0
LINE
  8
_0-0_
  6
CONTINUOUS
 62
    7
 10
353.58714636682117
 20
304.1675119063093
 11
353.58714636682117
 21
298.76751181094187
  0
LINE
  8
_0-0_
  6
CONTINUOUS
 62
    7
 10
352.96214636682117
 20
298.76751181094187
 11
352.96214636682117
 21
304.1675119063093
  0
LINE
  8
_0-0_
  6
CONTINUOUS
 62
    7
 10
352.33714636682117
 20
304.1675119063093
 11
352.33714636682117
 21
298.76751181094187
  0
LINE
  8
_0-0_
  6
CONTINUOUS
 62
    7
 10
351.71214636682117
 20
298.76751181094187
 11
351.71214636682117
 21
304.1675119063093
  0
LINE
  8
_0-1_
  6
CENTER1
 62
  152
 10
355.46214636682117
 20
298.16751238314646
 11
355.46214636682117
 21
321.60751196352976
  0
LINE
  8
_0-1_
  6
CENTER1
 62
  152
 10
376.96214636682112
 20
306.60751196352976
 11
376.96214636682112
 21
212.60751196352999
  0
LINE
  8
_0-0_
  6
CONTINUOUS
 62
    7
 10
397.11804570659774
 20
259.60751196352976
 11
408.29571691592378
 21
296.32014437442695
  0
LINE
  8
_0-0_
  6
CONTINUOUS
 62
    7
 10
392.96214636682112
 20
296.82807535618895
 11
392.96214636682112
 21
268.28589711326094
  0
LINE
  8
_0-0_
  6
CONTINUOUS
 62
    7
 10
336.06214636682063
 20
303.40751196352949
 11
329.46214636682117
 21
303.40751196352949
  0
LINE
  8
_0-0_
  6
CONTINUOUS
 62
    7
 10
329.46214636682117
 20
303.40751196352949
 11
329.46214636682117
 21
306.60751196352976
  0
CIRCLE
  8
_0-0_
  6
CONTINUOUS
 62
    7
 10
352.46214636682117
 20
94.71236887904729
 40
3.4500000476837158
  0
CIRCLE
  8
_0-0_
  6
CONTINUOUS
 62
    7
 10
404.46214636682117
 20
94.71236887904729
 40
3.4500000476837158
  0
CIRCLE
  8
_0-0_
  6
CONTINUOUS
 62
    7
 10
352.46214636682117
 20
94.71236887904729
 40
4
  0
CIRCLE
  8
_0-0_
  6
CONTINUOUS
 62
    7
 10
404.46214636682117
 20
94.71236887904729
 40
4
  0
ARC
  8
_0-0_
  6
CONTINUOUS
 62
    7
 10
388.46214636682117
 20
-0.787631120953165
 40
25.000000000000011
 50
45.433456228523383
 51
90
  0
ARC
  8
_0-0_
  6
CONTINUOUS
 62
    7
 10
407.40904985177104
 20
18.448138900858112
 40
2
 50
225.43345622852218
 51
285.00000000000091
  0
ARC
  8
_0-0_
  6
CONTINUOUS
 62
    7
 10
419.46214636682117
 20
22.712368879046835
 40
5
 50
270
 51
0
  0
ARC
  8
_0-0_
  6
CONTINUOUS
 62
    7
 10
346.5152428818713
 20
18.448138900858112
 40
2
 50
254.99999999999901
 51
314.56654377147777
  0
ARC
  8
_0-0_
  6
CONTINUOUS
 62
    7
 10
365.46214636682117
 20
-0.787631120953165
 40
25.000000000000007
 50
90
 51
134.56654377147663
  0
ARC
  8
_0-0_
  6
CONTINUOUS
 62
    7
 10
334.46214636682117
 20
22.712368879046835
 40
5
 50
180
 51
270
  0
ARC
  8
_0-0_
  6
CONTINUOUS
 62
    7
 10
407.40904985177104
 20
83.976598857235558
 40
2
 50
74.999999999999019
 51
134.5665437714778
  0
ARC
  8
_0-0_
  6
CONTINUOUS
 62
    7
 10
419.46214636682117
 20
79.712368879046835
 40
5
 50
0
 51
90
  0
ARC
  8
_0-0_
  6
CONTINUOUS
 62
    7
 10
346.5152428818713
 20
83.976598857235558
 40
2
 50
45.433456228522189
 51
105.00000000000098
  0
ARC
  8
_0-0_
  6
CONTINUOUS
 62
    7
 10
334.46214636682117
 20
79.712368879046835
 40
5
 50
90
 51
180
  0
ARC
  8
_0-0_
  6
CONTINUOUS
 62
    7
 10
406.46214636682117
 20
34.212368879047062
 40
3
 50
270
 51
0
  0
ARC
  8
_0-0_
  6
CONTINUOUS
 62
    7
 10
347.46214636682117
 20
68.212368879047517
 40
3
 50
90
 51
180
  0
ARC
  8
_0-0_
  6
CONTINUOUS
 62
    7
 10
347.46214636682117
 20
34.212368879047062
 40
3
 50
180
 51
270
  0
ARC
  8
_0-0_
  6
CONTINUOUS
 62
    7
 10
376.96214636682117
 20
72.181118880898111
 40
11.031249998148837
 50
39.597752704524432
 51
140.4022473025735
  0
ARC
  8
_0-0_
  6
CONTINUOUS
 62
    7
 10
365.46214636682117
 20
103.21236887904683
 40
25.000000000000007
 50
225.43345622852337
 51
270
  0
ARC
  8
_0-0_
  6
CONTINUOUS
 62
    7
 10
388.46214636682117
 20
103.21236887904683
 40
25.000000000000011
 50
270
 51
314.56654377147657
  0
ARC
  8
_0-0_
  6
CONTINUOUS
 62
    7
 10
365.46214636682117
 20
103.21236887904683
 40
28.200000000000006
 50
219.46016893331299
 51
270
  0
ARC
  8
_0-0_
  6
CONTINUOUS
 62
    7
 10
388.46214636682117
 20
103.21236887904683
 40
28.200000000000006
 50
270
 51
320.53983106668738
  0
ARC
  8
_0-0_
  6
CONTINUOUS
 62
    7
 10
369.46214636682117
 20
16.962368879046153
 40
0.75
 50
180
 51
270
  0
ARC
  8
_0-0_
  6
CONTINUOUS
 62
    7
 10
369.17679236682062
 20
22.690732379046267
 40
5
 50
264.66785499999975
 51
305.24477999999993
  0
ARC
  8
_0-0_
  6
CONTINUOUS
 62
    7
 10
376.25213136682061
 20
27.687130879046208
 40
10
 50
245.22862399999991
 51
274.07151099999959
  0
ARC
  8
_0-0_
  6
CONTINUOUS
 62
    7
 10
384.74750036682082
 20
22.690732379046267
 40
5
 50
234.75521999999967
 51
275.33214499999985
  0
ARC
  8
_0-0_
  6
CONTINUOUS
 62
    7
 10
384.46214636682117
 20
16.962368879046153
 40
0.75
 50
270
 51
0
  0
ARC
  8
_0-0_
  6
CONTINUOUS
 62
    7
 10
377.67216136682083
 20
27.687130879046208
 40
10
 50
265.92848900000001
 51
294.77137599999969
  0
ARC
  8
_0-0_
  6
CONTINUOUS
 62
    7
 10
375.978987866821
 20
14.260816379046673
 40
10
 50
95.64220432140786
 51
113.05933400000004
  0
ARC
  8
_0-0_
  6
CONTINUOUS
 62
    7
 10
377.94530486682135
 20
14.260816379046673
 40
10
 50
66.94066600000005
 51
84.357795678592126
  0
ARC
  8
_0-0_
  6
CONTINUOUS
 62
    7
 10
384.61113336682075
 20
19.285323379046758
 40
5
 50
99.799595538249349
 51
123.35311700000041
  0
ARC
  8
_0-0_
  6
CONTINUOUS
 62
    7
 10
369.31315936682068
 20
19.285323379046758
 40
5
 50
56.646882999999548
 51
80.200404461750779
  0
ARC
  8
_0-0_
  6
CONTINUOUS
 62
    7
 10
365.46214636682117
 20
-0.787631120953165
 40
28.200000000000006
 50
90.000000000000028
 51
140.53983106668704
  0
ARC
  8
_0-0_
  6
CONTINUOUS
 62
    7
 10
388.46214636682117
 20
-0.787631120953165
 40
28.200000000000006
 50
39.460168933312772
 51
89.999999999999986
  0
ARC
  8
_0-0_
  6
CONTINUOUS
 62
    7
 10
406.46214636682117
 20
68.212368879047517
 40
2.9999999999999996
 50
0.0000000000000127
 51
90.000000000000014
  0
ARC
  8
_0-0_
  6
CONTINUOUS
 62
    7
 10
340.46214636682117
 20
28.71236887904729
 40
6.5
 50
51.724085912436863
 51
24.590367262298173
  0
ARC
  8
_0-0_
  6
CONTINUOUS
 62
    7
 10
340.46214636682117
 20
73.71236887904729
 40
6.5
 50
335.40963273770183
 51
308.27591408756308
  0
ARC
  8
_0-0_
  6
CONTINUOUS
 62
    7
 10
413.46214636682117
 20
73.71236887904729
 40
6.5
 50
231.72408591244124
 51
204.59036726229593
  0
ARC
  8
_0-0_
  6
CONTINUOUS
 62
    7
 10
413.46214636682117
 20
28.71236887904729
 40
6.5
 50
155.40963273770404
 51
128.2759140875587
  0
CIRCLE
  8
_0-0_
  6
CONTINUOUS
 62
    7
 10
291.46214636682117
 20
115.71236887904729
 40
30
  0
CIRCLE
  8
_0-0_
  6
CONTINUOUS
 62
    7
 10
291.46214636682117
 20
115.71236887904729
 40
26
  0
CIRCLE
  8
_0-0_
  6
CONTINUOUS
 62
    7
 10
291.46214636682117
 20
115.71236887904729
 40
10
  0
CIRCLE
  8
_0-0_
  6
CONTINUOUS
 62
    7
 10
415.46214636682117
 20
146.71236887904729
 40
5
  0
CIRCLE
  8
_0-0_
  6
CONTINUOUS
 62
    7
 10
355.46214636682117
 20
146.71236887904729
 40
5
  0
CIRCLE
  8
_0-0_
  6
CONTINUOUS
 62
    7
 10
260.46214636682117
 20
86.71236887904729
 40
5
  0
CIRCLE
  8
_0-0_
  6
CONTINUOUS
 62
    7
 10
260.46214636682117
 20
26.71236887904729
 40
5
  0
ARC
  8
_0-0_
  6
CONTINUOUS
 62
    7
 10
897.38461066596597
 20
269.57161357866698
 40
2
 50
150.00000000000009
 51
180
  0
ARC
  8
_0-0_
  6
CONTINUOUS
 62
    7
 10
900.58461066596578
 20
269.57161357866698
 40
2
 50
149.99999999999855
 51
180
  0
ARC
  8
_0-0_
  6
CONTINUOUS
 62
    7
 10
898.58461066596578
 20
274.10751196352976
 40
2
 50
329.99999999999915
 51
0.000000000000019
  0
ARC
  8
_0-0_
  6
CONTINUOUS
 62
    7
 10
896.58461066596578
 20
276.18597293261246
 40
2
 50
330.00000000000011
 51
0
  0
ARC
  8
_0-0_
  6
CONTINUOUS
 62
    7
 10
945.18461066596615
 20
274.10751196352976
 40
2
 50
180
 51
210.00000000000006
  0
ARC
  8
_0-0_
  6
CONTINUOUS
 62
    7
 10
943.18461066596615
 20
269.57161357866698
 40
2
 50
0
 51
29.999999999999915
  0
ARC
  8
_0-0_
  6
CONTINUOUS
 62
    7
 10
946.38461066596597
 20
269.57161357866698
 40
2
 50
0
 51
30.00000000000022
  0
ARC
  8
_0-0_
  6
CONTINUOUS
 62
    7
 10
943.18461066596615
 20
276.05015733942582
 40
2
 50
0
 51
76.307268958849207
  0
ARC
  8
_0-0_
  6
CONTINUOUS
 62
    7
 10
921.88461066596597
 20
188.62584530252275
 40
91.981666661191412
 50
76.307268958851552
 51
104.67354761998524
  0
ARC
  8
_0-0_
  6
CONTINUOUS
 62
    7
 10
898.38461066596597
 20
242.28233525412088
 40
10
 50
180
 51
216.83628730845086
  0
ARC
  8
_0-0_
  6
CONTINUOUS
 62
    7
 10
894.38461066596597
 20
286.60751196352976
 40
6
 50
90
 51
180
  0
ARC
  8
_0-0_
  6
CONTINUOUS
 62
    7
 10
949.38461066596597
 20
286.60751196352976
 40
6
 50
0
 51
90
  0
ARC
  8
_0-0_
  6
CONTINUOUS
 62
    7
 10
896.88461066596597
 20
294.60751196342972
 40
1.9999999998999982
 50
180
 51
270
  0
ARC
  8
_0-0_
  6
CONTINUOUS
 62
    7
 10
946.88461066596597
 20
294.60751196342972
 40
1.9999999998999982
 50
270
 51
0
  0
ARC
  8
_0-0_
  6
CONTINUOUS
 62
    7
 10
955.63461066596597
 20
252.60751196352976
 40
0.75
 50
0
 51
90
  0
ARC
  8
_0-0_
  6
CONTINUOUS
 62
    7
 10
949.90624716596653
 20
252.89286596353031
 40
5
 50
324.75522000000001
 51
5.3321450000002173
  0
ARC
  8
_0-0_
  6
CONTINUOUS
 62
    7
 10
944.90984866596614
 20
245.81752696353033
 40
10
 50
355.92848900000041
 51
24.771376000000082
  0
ARC
  8
_0-0_
  6
CONTINUOUS
 62
    7
 10
949.90624716596653
 20
237.32215796353012
 40
5
 50
354.66785500000015
 51
35.244780000000354
  0
ARC
  8
_0-0_
  6
CONTINUOUS
 62
    7
 10
955.63461066596597
 20
237.60751196352976
 40
0.75
 50
270
 51
0
  0
ARC
  8
_0-0_
  6
CONTINUOUS
 62
    7
 10
944.90984866596614
 20
244.3974969635301
 40
10
 50
335.22862400000025
 51
4.071510999999945
  0
ARC
  8
_0-0_
  6
CONTINUOUS
 62
    7
 10
958.33616316596658
 20
246.09067046352993
 40
10
 50
156.94066599999999
 51
174.35779567859217
  0
ARC
  8
_0-0_
  6
CONTINUOUS
 62
    7
 10
958.33616316596658
 20
244.12435346352959
 40
10
 50
185.64220432140786
 51
203.05933399999995
  0
ARC
  8
_0-0_
  6
CONTINUOUS
 62
    7
 10
953.3116561659665
 20
237.45852496353018
 40
5
 50
146.6468829999996
 51
170.20040446175059
  0
ARC
  8
_0-0_
  6
CONTINUOUS
 62
    7
 10
953.3116561659665
 20
252.75649896353025
 40
5
 50
189.79959553824918
 51
213.3531170000004
  0
ARC
  8
_0-0_
  6
CONTINUOUS
 62
    7
 10
901.41586066411514
 20
245.10751196352976
 40
11.031249998148837
 50
129.59775269742644
 51
230.40224729547555
  0
ARC
  8
_0-0_
  6
CONTINUOUS
 62
    7
 10
938.88461066596597
 20
215.60751196352976
 40
3
 50
270
 51
0
  0
ARC
  8
_0-0_
  6
CONTINUOUS
 62
    7
 10
904.88461066596597
 20
215.60751196352976
 40
3
 50
180
 51
270
  0
ARC
  8
_0-0_
  6
CONTINUOUS
 62
    7
 10
904.88461066596597
 20
274.60751196352976
 40
3
 50
90
 51
180
  0
ARC
  8
_0-0_
  6
CONTINUOUS
 62
    7
 10
938.88461066596597
 20
274.60751196352976
 40
3
 50
0
 51
90
  0
ARC
  8
_0-0_
  6
CONTINUOUS
 62
    7
 10
639.13141376682108
 20
245.10751196352976
 40
32.499999999999986
 50
181.18784253166186
 51
92.301457078637455
  0
ARC
  8
_0-0_
  6
CONTINUOUS
 62
    7
 10
639.13141376682108
 20
245.10751196352976
 40
15
 50
259.85445556610318
 51
57.486385369999823
  0
ARC
  8
_0-0_
  6
CONTINUOUS
 62
    7
 10
642.35480533212797
 20
273.64522221151583
 40
6
 50
99.463145391943172
 51
195.86116881036628
  0
ARC
  8
_0-0_
  6
CONTINUOUS
 62
    7
 10
660.63141376492388
 20
278.83806191578424
 40
24.999999999999943
 50
195.86116881036611
 51
237.48638536999999
  0
ARC
  8
_0-0_
  6
CONTINUOUS
 62
    7
 10
641.63141376682108
 20
286.60751196352976
 40
6
 50
0
 51
90
  0
ARC
  8
_0-0_
  6
CONTINUOUS
 62
    7
 10
647.63141376682108
 20
292.60751196352976
 40
63.254533465779254
 50
189.09613364186058
 51
259.85445556610347
  0
ARC
  8
_0-0_
  6
CONTINUOUS
 62
    7
 10
589.13141376682108
 20
294.60751196342972
 40
1.9999999998999982
 50
180
 51
270
  0
ARC
  8
_0-0_
  6
CONTINUOUS
 62
    7
 10
639.13141376682108
 20
294.60751196342972
 40
1.9999999998999982
 50
270
 51
0
  0
ARC
  8
_0-0_
  6
CONTINUOUS
 62
    7
 10
586.63141376682108
 20
286.60751196352976
 40
6
 50
90
 51
180
  0
CIRCLE
  8
_0-0_
  6
CONTINUOUS
 62
    7
 10
639.13141376682108
 20
245.10751196352976
 40
8.5
  0
ARC
  8
_0-0_
  6
CONTINUOUS
 62
    7
 10
639.13141376682108
 20
245.10751196352976
 40
26.499999999999986
 50
192.15277431056961
 51
95.153094682691744
  0
ARC
  8
_0-0_
  6
CONTINUOUS
 62
    7
 10
639.13141376682108
 20
245.10751196352976
 40
24.999999999999986
 50
195.58964815835668
 51
94.356283015843786
  0
ARC
  8
_0-0_
  6
CONTINUOUS
 62
    7
 10
639.13141376682108
 20
245.10751196352976
 40
20.999999999999986
 50
207.27841698540968
 51
90.04331720745428
  0
CIRCLE
  8
_0-0_
  6
CONTINUOUS
 62
    7
 10
260.46214636682117
 20
86.71236887904729
 40
6.4400000569999998
  0
CIRCLE
  8
_0-0_
  6
CONTINUOUS
 62
    7
 10
260.46214636682117
 20
26.71236887904729
 40
6.4400000569999998
  0
CIRCLE
  8
_0-0_
  6
CONTINUOUS
 62
    7
 10
355.46214636682117
 20
146.71236887904729
 40
6.4400000569999998
  0
CIRCLE
  8
_0-0_
  6
CONTINUOUS
 62
    7
 10
415.46214636682117
 20
146.71236887904729
 40
6.4400000569999998
  0
CIRCLE
  8
_0-0_
  6
CONTINUOUS
 62
    7
 10
575.63141376682108
 20
146.71236887904729
 40
6.4400000569999998
  0
CIRCLE
  8
_0-0_
  6
CONTINUOUS
 62
    7
 10
635.63141376682108
 20
146.71236887904729
 40
6.4400000569999998
  0
CIRCLE
  8
_0-0_
  6
CONTINUOUS
 62
    7
 10
730.63141376682108
 20
86.71236887904729
 40
6.4400000569999998
  0
CIRCLE
  8
_0-0_
  6
CONTINUOUS
 62
    7
 10
730.63141376682108
 20
26.71236887904729
 40
6.4400000569999998
  0
CIRCLE
  8
_0-0_
  6
CONTINUOUS
 62
    7
 10
638.63141376682108
 20
94.71236887904729
 40
3.4500000476837158
  0
CIRCLE
  8
_0-0_
  6
CONTINUOUS
 62
    7
 10
586.63141376682108
 20
94.71236887904729
 40
3.4500000476837158
  0
CIRCLE
  8
_0-0_
  6
CONTINUOUS
 62
    7
 10
635.63141376682108
 20
146.71236887904729
 40
5
  0
CIRCLE
  8
_0-0_
  6
CONTINUOUS
 62
    7
 10
575.63141376682108
 20
146.71236887904729
 40
5
  0
CIRCLE
  8
_0-0_
  6
CONTINUOUS
 62
    7
 10
730.63141376682108
 20
26.71236887904729
 40
5
  0
CIRCLE
  8
_0-0_
  6
CONTINUOUS
 62
    7
 10
730.63141376682108
 20
86.71236887904729
 40
5
  0
CIRCLE
  8
_0-0_
  6
CONTINUOUS
 62
    7
 10
699.63141376682108
 20
115.71236887904729
 40
10
  0
CIRCLE
  8
_0-0_
  6
CONTINUOUS
 62
    7
 10
699.63141376682108
 20
115.71236887904729
 40
30
  0
CIRCLE
  8
_0-0_
  6
CONTINUOUS
 62
    7
 10
577.63141376682108
 20
73.712368879047517
 40
6.5
  0
CIRCLE
  8
_0-0_
  6
CONTINUOUS
 62
    7
 10
577.63141376682108
 20
28.712368879047517
 40
6.5
  0
CIRCLE
  8
_0-0_
  6
CONTINUOUS
 62
    7
 10
586.63141376682108
 20
94.71236887904729
 40
4
  0
CIRCLE
  8
_0-0_
  6
CONTINUOUS
 62
    7
 10
638.63141376682108
 20
94.71236887904729
 40
4
  0
ARC
  8
_0-0_
  6
CONTINUOUS
 62
    7
 10
614.13141376682108
 20
51.212368879047517
 40
24
 50
64.158067236832395
 51
295.84193276316887
  0
ARC
  8
_0-0_
  6
CONTINUOUS
 62
    7
 10
668.63141376682108
 20
68.212368879047517
 40
3
 50
0
 51
90
  0
ARC
  8
_0-0_
  6
CONTINUOUS
 62
    7
 10
668.63141376682108
 20
34.212368879047517
 40
3
 50
270
 51
0
  0
ARC
  8
_0-0_
  6
CONTINUOUS
 62
    7
 10
571.63141376682108
 20
22.712368879047517
 40
5
 50
180
 51
270
  0
ARC
  8
_0-0_
  6
CONTINUOUS
 62
    7
 10
656.63141376682108
 20
22.712368879047517
 40
5
 50
270
 51
0
  0
ARC
  8
_0-0_
  6
CONTINUOUS
 62
    7
 10
571.63141376682108
 20
79.712368879047517
 40
5
 50
90
 51
180
  0
ARC
  8
_0-0_
  6
CONTINUOUS
 62
    7
 10
656.63141376682108
 20
79.712368879047517
 40
5
 50
0
 51
90
  0
ARC
  8
_0-0_
  6
CONTINUOUS
 62
    7
 10
646.63141376682108
 20
17.462368879047517
 40
0.75
 50
270
 51
0
  0
ARC
  8
_0-0_
  6
CONTINUOUS
 62
    7
 10
646.91676776682164
 20
23.190732379047176
 40
5
 50
234.75521999999998
 51
275.33214500000025
  0
ARC
  8
_0-0_
  6
CONTINUOUS
 62
    7
 10
639.84142876682165
 20
28.187130879047118
 40
10
 50
265.92848900000041
 51
294.77137600000009
  0
ARC
  8
_0-0_
  6
CONTINUOUS
 62
    7
 10
631.34605976682144
 20
23.190732379047176
 40
5
 50
264.66785500000015
 51
305.24478000000033
  0
ARC
  8
_0-0_
  6
CONTINUOUS
 62
    7
 10
631.63141376682108
 20
17.462368879047517
 40
0.75
 50
180
 51
270
  0
ARC
  8
_0-0_
  6
CONTINUOUS
 62
    7
 10
638.42139876682143
 20
28.187130879047118
 40
10
 50
245.22862400000025
 51
274.07151099999993
  0
ARC
  8
_0-0_
  6
CONTINUOUS
 62
    7
 10
640.11457226682126
 20
14.760816379047355
 40
10
 50
66.940665999999979
 51
84.357795678592126
  0
ARC
  8
_0-0_
  6
CONTINUOUS
 62
    7
 10
638.14825526682091
 20
14.760816379047355
 40
10
 50
95.64220432140786
 51
113.05933399999994
  0
ARC
  8
_0-0_
  6
CONTINUOUS
 62
    7
 10
646.78040076682157
 20
19.785323379047441
 40
5
 50
99.799595538249221
 51
123.35311700000045
  0
ARC
  8
_0-0_
  6
CONTINUOUS
 62
    7
 10
609.63141376682108
 20
34.212368879047744
 40
3
 50
180
 51
270
  0
ARC
  8
_0-0_
  6
CONTINUOUS
 62
    7
 10
609.63141376682108
 20
68.212368879047517
 40
3
 50
90.000000000000028
 51
180
  0
ARC
  8
_0-0_
  6
CONTINUOUS
 62
    7
 10
650.63141376682108
 20
28.712368879047517
 40
5.5
 50
305.09680122758482
 51
313.34175822722233
  0
ARC
  8
_0-0_
  6
CONTINUOUS
 62
    7
 10
614.13141376682108
 20
51.212368879047517
 40
12
 50
128.68218745348943
 51
231.31781254651054
  0
ARC
  8
_0-0_
  6
CONTINUOUS
 62
    7
 10
614.13141376682108
 20
51.212368879047517
 40
21
 50
77.672305229046586
 51
282.32769477095388
  0
ARC
  8
_0-0_
  6
CONTINUOUS
 62
    7
 10
614.13141376682108
 20
51.212368879047517
 40
33.5
 50
52.283254907217547
 51
307.7167450927833
  0
ARC
  8
_0-0_
  6
CONTINUOUS
 62
    7
 10
614.13141376682108
 20
51.212368879047517
 40
30.300000000000001
 50
50.262103848460065
 51
309.73789615154118
  0
ARC
  8
_0-0_
  6
CONTINUOUS
 62
    7
 10
639.13141376682108
 20
71.681118880898566
 40
11.031249998148837
 50
39.597752697426472
 51
132.80001986930969
  0
ARC
  8
_0-0_
  6
CONTINUOUS
 62
    7
 10
631.4824267668215
 20
19.785323379047441
 40
5
 50
56.646882999999583
 51
61.135577346073767
  0
CIRCLE
  8
_0-0_
  6
CONTINUOUS
 62
    7
 10
699.63141376682108
 20
115.71236887904729
 40
26
  0
ARC
  8
_0-1_
  6
CENTER1
 62
  152
 10
614.13141376682108
 20
51.212368879047517
 40
59.960403601043033
 50
16.470428439608629
 51
77.969201557181719
  0
ARC
  8
_0-0_
  6
CONTINUOUS
 62
    7
 10
87.508949467675961
 20
298.40751196352949
 40
5
 50
0
 51
90
  0
ARC
  8
_0-0_
  6
CONTINUOUS
 62
    7
 10
50.908949467676052
 20
298.40751196352949
 40
5
 50
90
 51
180
  0
ARC
  8
_0-0_
  6
CONTINUOUS
 62
    7
 10
-67.13416365382443
 20
259.6075119635293
 40
109.84311312150078
 50
0
 51
22.16386014875571
  0
ARC
  8
_0-0_
  6
CONTINUOUS
 62
    7
 10
-44.467068705696079
 20
259.6075119635293
 40
90.376018173817897
 50
0.0000000036577523
 51
27.179265601897853
  0
ARC
  8
_0-0_
  6
CONTINUOUS
 62
    7
 10
36.444719489487511
 20
301.80107686972042
 40
2
 50
180
 51
202.16386014875627
  0
ARC
  8
_0-0_
  6
CONTINUOUS
 62
    7
 10
37.708949467676234
 20
301.80266299796858
 40
2
 50
180
 51
207.17926560189804
  0
ARC
  8
_0-0_
  6
CONTINUOUS
 62
    7
 10
34.944719489487511
 20
306.10751196352976
 40
0.5
 50
90
 51
180
  0
ARC
  8
_0-0_
  6
CONTINUOUS
 62
    7
 10
101.97317944586541
 20
301.80107686972042
 40
2
 50
337.83613985124373
 51
0.0000000000000063
  0
ARC
  8
_0-0_
  6
CONTINUOUS
 62
    7
 10
205.55206258917735
 20
259.6075119635293
 40
109.84311312150078
 50
157.8361398512443
 51
180
  0
ARC
  8
_0-0_
  6
CONTINUOUS
 62
    7
 10
100.70894946767623
 20
301.80266299796858
 40
2
 50
332.82073439810193
 51
0.000000000000019
  0
ARC
  8
_0-0_
  6
CONTINUOUS
 62
    7
 10
182.88496764104877
 20
259.6075119635293
 40
90.376018173817897
 50
152.82073439810216
 51
179.99999999634227
  0
ARC
  8
_0-0_
  6
CONTINUOUS
 62
    7
 10
103.47317944586541
 20
306.10751196352976
 40
0.5
 50
0
 51
90
  0
ARC
  8
_0-0_
  6
CONTINUOUS
 62
    7
 10
35.458949467676234
 20
252.60751196352976
 40
0.75
 50
90
 51
180
  0
ARC
  8
_0-0_
  6
CONTINUOUS
 62
    7
 10
41.187312967676121
 20
252.89286596353031
 40
5
 50
174.66785499999978
 51
215.24477999999985
  0
ARC
  8
_0-0_
  6
CONTINUOUS
 62
    7
 10
46.183711467676062
 20
245.81752696353033
 40
10
 50
155.22862399999991
 51
184.07151099999959
  0
ARC
  8
_0-0_
  6
CONTINUOUS
 62
    7
 10
41.187312967676121
 20
237.32215796353012
 40
5
 50
144.75521999999964
 51
185.33214499999971
  0
ARC
  8
_0-0_
  6
CONTINUOUS
 62
    7
 10
35.458949467676234
 20
237.60751196352976
 40
0.75
 50
180
 51
270
  0
ARC
  8
_0-0_
  6
CONTINUOUS
 62
    7
 10
46.183711467676062
 20
244.3974969635301
 40
10
 50
175.92848900000004
 51
204.77137599999966
  0
ARC
  8
_0-0_
  6
CONTINUOUS
 62
    7
 10
32.757396967676527
 20
246.09067046352993
 40
10
 50
5.6422043214078608
 51
23.059334000000003
  0
ARC
  8
_0-0_
  6
CONTINUOUS
 62
    7
 10
32.757396967676527
 20
244.12435346352959
 40
10
 50
336.94066600000002
 51
354.35779567859214
  0
ARC
  8
_0-0_
  6
CONTINUOUS
 62
    7
 10
37.781903967676612
 20
237.45852496353018
 40
5
 50
9.7995955382493722
 51
33.353117000000431
  0
ARC
  8
_0-0_
  6
CONTINUOUS
 62
    7
 10
37.781903967676612
 20
252.75649896353025
 40
5
 50
326.64688299999955
 51
350.20040446175079
  0
ARC
  8
_0-0_
  6
CONTINUOUS
 62
    7
 10
89.677699469527511
 20
245.10751196352976
 40
11.031249998148837
 50
309.59775270452445
 51
50.402247302573535
  0
ARC
  8
_0-0_
  6
CONTINUOUS
 62
    7
 10
52.208949467676234
 20
215.60751196352976
 40
3
 50
180
 51
270
  0
ARC
  8
_0-0_
  6
CONTINUOUS
 62
    7
 10
86.208949467676689
 20
215.60751196352976
 40
3
 50
270
 51
0
  0
ARC
  8
_0-0_
  6
CONTINUOUS
 62
    7
 10
86.208949467676689
 20
274.60751196352976
 40
3
 50
0
 51
90
  0
ARC
  8
_0-0_
  6
CONTINUOUS
 62
    7
 10
52.208949467676234
 20
274.60751196352976
 40
3
 50
90
 51
180
  0
ARC
  8
_0-0_
  6
CONTINUOUS
 62
    7
 10
376.96214636682112
 20
245.10751196352976
 40
32.499999999999986
 50
134.5367044831703
 51
45.463295516829703
  0
ARC
  8
_0-0_
  6
CONTINUOUS
 62
    7
 10
376.96214636682112
 20
245.10751196352976
 40
15.499999999999986
 50
270
 51
344.20565913301544
  0
CIRCLE
  8
_0-0_
  6
CONTINUOUS
 62
    7
 10
376.96214636682112
 20
245.10751196352976
 40
8.5
  0
ARC
  8
_0-0_
  6
CONTINUOUS
 62
    7
 10
376.96214636682112
 20
245.10751196352976
 40
15.499999999999986
 50
195.79434086698456
 51
270
  0
ARC
  8
_0-0_
  6
CONTINUOUS
 62
    7
 10
336.06214636682063
 20
293.40751196352949
 40
9.9999999999999858
 50
16.933599563886567
 51
90.000000000000014
  0
ARC
  8
_0-0_
  6
CONTINUOUS
 62
    7
 10
336.06214636682063
 20
296.60751196352976
 40
9.9999999999999858
 50
15.641572788779481
 51
90.000000000000014
  0
ARC
  8
_0-0_
  6
CONTINUOUS
 62
    7
 10
376.96214636682112
 20
245.10751196352976
 40
26.499999999999986
 50
141.56203196710715
 51
38.437968032892911
  0
ARC
  8
_0-0_
  6
CONTINUOUS
 62
    7
 10
376.96214636682112
 20
245.10751196352976
 40
24.999999999999986
 50
143.9577072624455
 51
36.042292737554533
  0
ARC
  8
_0-0_
  6
CONTINUOUS
 62
    7
 10
376.96214636682112
 20
245.10751196352976
 40
20.999999999999986
 50
153.21098365441662
 51
26.789016345583377
  0
ARC
  8
_0-0_
  6
CONTINUOUS
 62
    7
 10
376.96214636682112
 20
245.10751196352976
 40
19.499999999999986
 50
158.28472081587677
 51
21.715279184123233
  0
TEXT
  8
_0-f_
 62
    7
 10
13.246461047707271
 20
10.254220625628136
 40
4.2999999999999998
 41
0.744186046511628
 50
0
  1
AIFKB-M16
  0
LINE
  8
_0-8_
  6
CONTINUOUS
 62
  152
 10
158.70894946767623
 20
215.40751196353
 11
108.70894946767623
 21
215.40751196353
  0
LINE
  8
_0-8_
  6
CONTINUOUS
 62
    7
 10
108.45894946767646
 20
207.60751196352999
 11
108.45894946767646
 21
204.60751196352987
  0
LINE
  8
_0-8_
  6
CONTINUOUS
 62
    7
 10
108.45894946767646
 20
204.60751196352987
 11
158.95894946767601
 21
204.60751196352987
  0
LINE
  8
_0-8_
  6
CONTINUOUS
 62
    7
 10
158.95894946767601
 20
204.60751196352987
 11
158.95894946767601
 21
207.60751196352999
  0
LINE
  8
_0-8_
  6
CONTINUOUS
 62
    7
 10
158.95894946767601
 20
207.60751196352999
 11
108.45894946767646
 21
207.60751196352999
  0
LINE
  8
_0-8_
  6
CONTINUOUS
 62
    7
 10
110.40894946767639
 20
204.60751196352987
 11
110.40894946767639
 21
201.60751196352976
  0
LINE
  8
_0-8_
  6
CONTINUOUS
 62
    7
 10
110.40894946767639
 20
201.60751196352976
 11
157.00894946767664
 21
201.60751196352976
  0
LINE
  8
_0-8_
  6
CONTINUOUS
 62
    7
 10
157.00894946767664
 20
201.60751196352976
 11
157.00894946767664
 21
204.60751196352987
  0
LINE
  8
_0-8_
  6
CONTINUOUS
 62
    7
 10
121.00724354550482
 20
228.60751196352976
 11
146.41065538984765
 21
228.60751196352976
  0
LINE
  8
_0-8_
  6
CONTINUOUS
 62
    7
 10
127.35809650659053
 20
228.60751196352976
 11
127.35809650659053
 21
220.80751196352986
  0
LINE
  8
_0-8_
  6
CONTINUOUS
 62
    7
 10
121.00724354550482
 20
220.80751196352986
 11
121.00724354550482
 21
228.60751196352976
  0
LINE
  8
_0-8_
  6
CONTINUOUS
 62
    7
 10
146.41065538984765
 20
228.60751196352976
 11
146.41065538984765
 21
220.80751196352986
  0
LINE
  8
_0-8_
  6
CONTINUOUS
 62
    7
 10
140.05980242659052
 20
220.80751196352986
 11
140.05980242659052
 21
228.60751196352976
  0
LINE
  8
_0-8_
  6
CONTINUOUS
 62
    7
 10
151.70894946767635
 20
218.80751196352998
 11
151.70894946767635
 21
218.40751196352977
  0
LINE
  8
_0-8_
  6
CONTINUOUS
 62
    7
 10
151.70894946767635
 20
218.80751196352998
 11
115.70894946767612
 21
218.80751196352998
  0
LINE
  8
_0-8_
  6
CONTINUOUS
 62
    7
 10
115.70894946767612
 20
218.80751196352998
 11
115.70894946767612
 21
218.40751196352977
  0
LINE
  8
_0-8_
  6
CONTINUOUS
 62
    7
 10
111.70894946767635
 20
218.40751196352977
 11
155.7089494673811
 21
218.40751196352977
  0
LINE
  8
_0-8_
  6
CONTINUOUS
 62
    7
 10
108.70894946767623
 20
215.40751196353
 11
108.70894946767623
 21
207.60751196352999
  0
LINE
  8
_0-8_
  6
CONTINUOUS
 62
    7
 10
158.70894946767623
 20
207.60751196352999
 11
158.70894946767623
 21
215.40751196353
  0
ARC
  8
_0-8_
  6
CONTINUOUS
 62
    7
 10
111.70894946767635
 20
215.40751196353
 40
2.9999999999999858
 50
89.999999999999829
 51
180.0000000000002
  0
ARC
  8
_0-8_
  6
CONTINUOUS
 62
    7
 10
155.70894946767612
 20
215.40751196353
 40
2.9999999999999933
 50
359.99999999999977
 51
90.000000000000199
  0
LINE
  8
_0-8_
  6
CONTINUOUS
 62
    7
 10
121.00724354550539
 20
220.80751196352986
 11
121.05548540888935
 21
220.46021560819605
  0
LINE
  8
_0-8_
  6
CONTINUOUS
 62
    7
 10
121.05548540888935
 20
220.46021560819605
 11
121.19874519443397
 21
220.12347167687858
  0
LINE
  8
_0-8_
  6
CONTINUOUS
 62
    7
 10
121.19874519443397
 20
220.12347167687858
 11
121.4326700260483
 21
219.80751196352992
  0
LINE
  8
_0-8_
  6
CONTINUOUS
 62
    7
 10
121.4326700260483
 20
219.80751196352992
 11
121.75015221609544
 21
219.52193674415685
  0
LINE
  8
_0-8_
  6
CONTINUOUS
 62
    7
 10
121.75015221609544
 20
219.52193674415685
 11
122.14154522888464
 21
219.27542307729198
  0
LINE
  8
_0-8_
  6
CONTINUOUS
 62
    7
 10
122.14154522888464
 20
219.27542307729198
 11
122.59495678577662
 21
219.07546115596108
  0
LINE
  8
_0-8_
  6
CONTINUOUS
 62
    7
 10
122.59495678577662
 20
219.07546115596108
 11
123.09661020605267
 21
218.92812672195817
  0
LINE
  8
_0-8_
  6
CONTINUOUS
 62
    7
 10
123.09661020605267
 20
218.92812672195817
 11
123.63126300438648
 21
218.83789645750556
  0
LINE
  8
_0-8_
  6
CONTINUOUS
 62
    7
 10
123.63126300438648
 20
218.83789645750556
 11
124.18267002604796
 21
218.80751196352998
  0
LINE
  8
_0-8_
  6
CONTINUOUS
 62
    7
 10
124.18267002604796
 20
218.80751196352998
 11
124.73407704770943
 21
218.83789645750556
  0
LINE
  8
_0-8_
  6
CONTINUOUS
 62
    7
 10
124.73407704770943
 20
218.83789645750556
 11
125.26872984604324
 21
218.92812672195817
  0
LINE
  8
_0-8_
  6
CONTINUOUS
 62
    7
 10
125.26872984604324
 20
218.92812672195817
 11
125.77038326631919
 21
219.07546115596108
  0
LINE
  8
_0-8_
  6
CONTINUOUS
 62
    7
 10
125.77038326631919
 20
219.07546115596108
 11
126.22379482321128
 21
219.27542307729198
  0
LINE
  8
_0-8_
  6
CONTINUOUS
 62
    7
 10
126.22379482321128
 20
219.27542307729198
 11
126.61518783600047
 21
219.52193674415685
  0
LINE
  8
_0-8_
  6
CONTINUOUS
 62
    7
 10
126.61518783600047
 20
219.52193674415685
 11
126.93267002604762
 21
219.80751196352992
  0
LINE
  8
_0-8_
  6
CONTINUOUS
 62
    7
 10
126.93267002604762
 20
219.80751196352992
 11
127.16659485766195
 21
220.12347167687858
  0
LINE
  8
_0-8_
  6
CONTINUOUS
 62
    7
 10
127.16659485766195
 20
220.12347167687858
 11
127.30985464320656
 21
220.46021560819605
  0
LINE
  8
_0-8_
  6
CONTINUOUS
 62
    7
 10
127.30985464320656
 20
220.46021560819605
 11
127.35809650659053
 21
220.80751196352986
  0
LINE
  8
_0-8_
  6
CONTINUOUS
 62
    7
 10
127.35809650659053
 20
220.80751196352986
 11
127.35809650659053
 21
220.80751210715869
  0
LINE
  8
_0-8_
  6
CONTINUOUS
 62
    7
 10
127.35809650659053
 20
220.80751210715869
 11
127.45458015414408
 21
220.46021574964283
  0
LINE
  8
_0-8_
  6
CONTINUOUS
 62
    7
 10
127.45458015414408
 20
220.46021574964283
 11
127.74109964839272
 21
220.12347181184549
  0
LINE
  8
_0-8_
  6
CONTINUOUS
 62
    7
 10
127.74109964839272
 20
220.12347181184549
 11
128.20894923948958
 21
219.80751208791611
  0
LINE
  8
_0-8_
  6
CONTINUOUS
 62
    7
 10
128.20894923948958
 20
219.80751208791611
 11
128.84391355435253
 21
219.52193685418291
  0
LINE
  8
_0-8_
  6
CONTINUOUS
 62
    7
 10
128.84391355435253
 20
219.52193685418291
 11
129.62669952358181
 21
219.27542316961484
  0
LINE
  8
_0-8_
  6
CONTINUOUS
 62
    7
 10
129.62669952358181
 20
219.27542316961484
 11
130.53352259161124
 21
219.07546122777552
  0
LINE
  8
_0-8_
  6
CONTINUOUS
 62
    7
 10
130.53352259161124
 20
219.07546122777552
 11
131.53682939839348
 21
218.92812677108208
  0
LINE
  8
_0-8_
  6
CONTINUOUS
 62
    7
 10
131.53682939839348
 20
218.92812677108208
 11
132.60613497430199
 21
218.83789648244647
  0
LINE
  8
_0-8_
  6
CONTINUOUS
 62
    7
 10
132.60613497430199
 20
218.83789648244647
 11
133.70894901050769
 21
218.80751196352998
  0
LINE
  8
_0-8_
  6
CONTINUOUS
 62
    7
 10
133.70894901050769
 20
218.80751196352998
 11
134.81176306057125
 21
218.83789643256466
  0
LINE
  8
_0-8_
  6
CONTINUOUS
 62
    7
 10
134.81176306057125
 20
218.83789643256466
 11
135.88106867763236
 21
218.9281266728342
  0
LINE
  8
_0-8_
  6
CONTINUOUS
 62
    7
 10
135.88106867763236
 20
218.9281266728342
 11
136.88437555161124
 21
219.0754610841467
  0
LINE
  8
_0-8_
  6
CONTINUOUS
 62
    7
 10
136.88437555161124
 20
219.0754610841467
 11
137.79119871083992
 21
219.27542298496917
  0
LINE
  8
_0-8_
  6
CONTINUOUS
 62
    7
 10
137.79119871083992
 20
219.27542298496917
 11
138.57398479249991
 21
219.52193663413078
  0
LINE
  8
_0-8_
  6
CONTINUOUS
 62
    7
 10
138.57398479249991
 20
219.52193663413078
 11
139.20894923760875
 21
219.80751183914373
  0
LINE
  8
_0-8_
  6
CONTINUOUS
 62
    7
 10
139.20894923760875
 20
219.80751183914373
 11
139.67679897280937
 21
220.12347154191161
  0
LINE
  8
_0-8_
  6
CONTINUOUS
 62
    7
 10
139.67679897280937
 20
220.12347154191161
 11
139.96331862064108
 21
220.46021546674922
  0
LINE
  8
_0-8_
  6
CONTINUOUS
 62
    7
 10
139.96331862064108
 20
220.46021546674922
 11
140.05980242659052
 21
220.80751181990104
  0
LINE
  8
_0-8_
  6
CONTINUOUS
 62
    7
 10
140.05980242659052
 20
220.80751181990104
 11
140.05980242659052
 21
220.80751196352986
  0
LINE
  8
_0-8_
  6
CONTINUOUS
 62
    7
 10
140.05980242876194
 20
220.80751210715869
 11
140.10804425254696
 21
220.46021574964283
  0
LINE
  8
_0-8_
  6
CONTINUOUS
 62
    7
 10
140.10804425254696
 20
220.46021574964283
 11
140.25130399969578
 21
220.12347181184549
  0
LINE
  8
_0-8_
  6
CONTINUOUS
 62
    7
 10
140.25130399969578
 20
220.12347181184549
 11
140.48522879528412
 21
219.80751208791611
  0
LINE
  8
_0-8_
  6
CONTINUOUS
 62
    7
 10
140.48522879528412
 20
219.80751208791611
 11
140.80271095276987
 21
219.52193685418291
  0
LINE
  8
_0-8_
  6
CONTINUOUS
 62
    7
 10
140.80271095276987
 20
219.52193685418291
 11
141.19410393745136
 21
219.27542316961484
  0
LINE
  8
_0-8_
  6
CONTINUOUS
 62
    7
 10
141.19410393745136
 20
219.27542316961484
 11
141.64751547154356
 21
219.07546122777552
  0
LINE
  8
_0-8_
  6
CONTINUOUS
 62
    7
 10
141.64751547154356
 20
219.07546122777552
 11
142.14916887502045
 21
218.92812677108208
  0
LINE
  8
_0-8_
  6
CONTINUOUS
 62
    7
 10
142.14916887502045
 20
218.92812677108208
 11
142.68382166306606
 21
218.83789648244647
  0
LINE
  8
_0-8_
  6
CONTINUOUS
 62
    7
 10
142.68382166306606
 20
218.83789648244647
 11
143.23522868126315
 21
218.80751196352998
  0
LINE
  8
_0-8_
  6
CONTINUOUS
 62
    7
 10
143.23522868126315
 20
218.80751196352998
 11
143.78663570638912
 21
218.83789643256466
  0
LINE
  8
_0-8_
  6
CONTINUOUS
 62
    7
 10
143.78663570638912
 20
218.83789643256466
 11
144.32128851501102
 21
218.9281266728342
  0
LINE
  8
_0-8_
  6
CONTINUOUS
 62
    7
 10
144.32128851501102
 20
218.9281266728342
 11
144.82294195208613
 21
219.0754610841467
  0
LINE
  8
_0-8_
  6
CONTINUOUS
 62
    7
 10
144.82294195208613
 20
219.0754610841467
 11
145.276353531778
 21
219.27542298496917
  0
LINE
  8
_0-8_
  6
CONTINUOUS
 62
    7
 10
145.276353531778
 20
219.27542298496917
 11
145.66774657267479
 21
219.52193663413078
  0
LINE
  8
_0-8_
  6
CONTINUOUS
 62
    7
 10
145.66774657267479
 20
219.52193663413078
 11
145.98522879528343
 21
219.80751183914373
  0
LINE
  8
_0-8_
  6
CONTINUOUS
 62
    7
 10
145.98522879528343
 20
219.80751183914373
 11
146.21915366292376
 21
220.12347154191161
  0
LINE
  8
_0-8_
  6
CONTINUOUS
 62
    7
 10
146.21915366292376
 20
220.12347154191161
 11
146.36241348686417
 21
220.46021546674922
  0
LINE
  8
_0-8_
  6
CONTINUOUS
 62
    7
 10
146.36241348686417
 20
220.46021546674922
 11
146.41065538984708
 21
220.80751181990104
  0
LINE
  8
_0-8_
  6
CONTINUOUS
 62
    7
 10
146.41065538984708
 20
220.80751181990104
 11
146.41065538984708
 21
220.80751196352986
  0
LINE
  8
_0-8_
  6
CONTINUOUS
 62
    7
 10
120.42989327631506
 20
304.60751196352987
 11
120.42989327631506
 21
299.9075119635296
  0
LINE
  8
_0-8_
  6
CONTINUOUS
 62
    7
 10
123.74965732415535
 20
297.90751196352971
 11
143.66824161119712
 21
297.90751196352971
  0
LINE
  8
_0-8_
  6
CONTINUOUS
 62
    7
 10
140.34847756335682
 20
299.9075119635296
 11
140.34847756335682
 21
304.60751196352987
  0
LINE
  8
_0-8_
  6
CONTINUOUS
 62
    7
 10
143.66824161119712
 20
306.60751196352976
 11
123.74965732415535
 21
306.60751196352976
  0
LINE
  8
_0-8_
  6
CONTINUOUS
 62
    7
 10
127.06942137199565
 20
304.60751196352987
 11
127.06942137199565
 21
299.9075119635296
  0
LINE
  8
_0-8_
  6
CONTINUOUS
 62
    7
 10
146.98800565903741
 20
299.9075119635296
 11
146.98800565903741
 21
304.60751196352987
  0
LINE
  8
_0-8_
  6
CONTINUOUS
 62
    7
 10
120.42989327631506
 20
299.9075119635296
 11
120.48032795167103
 21
299.56021560819579
  0
LINE
  8
_0-8_
  6
CONTINUOUS
 62
    7
 10
120.48032795167103
 20
299.56021560819579
 11
120.6300995456495
 21
299.22347167687826
  0
LINE
  8
_0-8_
  6
CONTINUOUS
 62
    7
 10
120.6300995456495
 20
299.22347167687826
 11
120.87465732415535
 21
298.90751196352966
  0
LINE
  8
_0-8_
  6
CONTINUOUS
 62
    7
 10
120.87465732415535
 20
298.90751196352966
 11
121.20657052284116
 21
298.62193674415659
  0
LINE
  8
_0-8_
  6
CONTINUOUS
 62
    7
 10
121.20657052284116
 20
298.62193674415659
 11
121.61575412712079
 21
298.37542307729177
  0
LINE
  8
_0-8_
  6
CONTINUOUS
 62
    7
 10
121.61575412712079
 20
298.37542307729177
 11
122.08977530023515
 21
298.17546115596082
  0
LINE
  8
_0-8_
  6
CONTINUOUS
 62
    7
 10
122.08977530023515
 20
298.17546115596082
 11
122.61423114870558
 21
298.0281267219579
  0
LINE
  8
_0-8_
  6
CONTINUOUS
 62
    7
 10
122.61423114870558
 20
298.0281267219579
 11
123.17318634696369
 21
297.9378964575053
  0
LINE
  8
_0-8_
  6
CONTINUOUS
 62
    7
 10
123.17318634696369
 20
297.9378964575053
 11
123.74965732415535
 21
297.90751196352971
  0
LINE
  8
_0-8_
  6
CONTINUOUS
 62
    7
 10
123.74965732415535
 20
297.90751196352971
 11
124.32612830134701
 21
297.9378964575053
  0
LINE
  8
_0-8_
  6
CONTINUOUS
 62
    7
 10
124.32612830134701
 20
297.9378964575053
 11
124.88508349960512
 21
298.0281267219579
  0
LINE
  8
_0-8_
  6
CONTINUOUS
 62
    7
 10
124.88508349960512
 20
298.0281267219579
 11
125.40953934807544
 21
298.17546115596082
  0
LINE
  8
_0-8_
  6
CONTINUOUS
 62
    7
 10
125.40953934807544
 20
298.17546115596082
 11
125.88356052118991
 21
298.37542307729177
  0
LINE
  8
_0-8_
  6
CONTINUOUS
 62
    7
 10
125.88356052118991
 20
298.37542307729177
 11
126.29274412546954
 21
298.62193674415659
  0
LINE
  8
_0-8_
  6
CONTINUOUS
 62
    7
 10
126.29274412546954
 20
298.62193674415659
 11
126.62465732415535
 21
298.90751196352966
  0
LINE
  8
_0-8_
  6
CONTINUOUS
 62
    7
 10
126.62465732415535
 20
298.90751196352966
 11
126.8692151026612
 21
299.22347167687826
  0
LINE
  8
_0-8_
  6
CONTINUOUS
 62
    7
 10
126.8692151026612
 20
299.22347167687826
 11
127.01898669663967
 21
299.56021560819579
  0
LINE
  8
_0-8_
  6
CONTINUOUS
 62
    7
 10
127.01898669663967
 20
299.56021560819579
 11
127.06942137199565
 21
299.90751189928488
  0
LINE
  8
_0-8_
  6
CONTINUOUS
 62
    7
 10
127.06942137199565
 20
299.9075119635296
 11
127.17029072270759
 21
299.56021560819579
  0
LINE
  8
_0-8_
  6
CONTINUOUS
 62
    7
 10
127.17029072270759
 20
299.56021560819579
 11
127.46983391066442
 21
299.22347167687826
  0
LINE
  8
_0-8_
  6
CONTINUOUS
 62
    7
 10
127.46983391066442
 20
299.22347167687826
 11
127.95894946767635
 21
298.90751196352966
  0
LINE
  8
_0-8_
  6
CONTINUOUS
 62
    7
 10
127.95894946767635
 20
298.90751196352966
 11
128.62277586504774
 21
298.62193674415659
  0
LINE
  8
_0-8_
  6
CONTINUOUS
 62
    7
 10
128.62277586504774
 20
298.62193674415659
 11
129.44114307360712
 21
298.37542307729177
  0
LINE
  8
_0-8_
  6
CONTINUOUS
 62
    7
 10
129.44114307360712
 20
298.37542307729177
 11
130.38918541983594
 21
298.17546115596082
  0
LINE
  8
_0-8_
  6
CONTINUOUS
 62
    7
 10
130.38918541983594
 20
298.17546115596082
 11
131.4380971167767
 21
298.0281267219579
  0
LINE
  8
_0-8_
  6
CONTINUOUS
 62
    7
 10
131.4380971167767
 20
298.0281267219579
 11
132.55600751329291
 21
297.9378964575053
  0
LINE
  8
_0-8_
  6
CONTINUOUS
 62
    7
 10
132.55600751329291
 20
297.9378964575053
 11
133.70894946767623
 21
297.90751196352971
  0
LINE
  8
_0-8_
  6
CONTINUOUS
 62
    7
 10
133.70894946767623
 20
297.90751196352971
 11
134.86189142205956
 21
297.9378964575053
  0
LINE
  8
_0-8_
  6
CONTINUOUS
 62
    7
 10
134.86189142205956
 20
297.9378964575053
 11
135.97980181857577
 21
298.0281267219579
  0
LINE
  8
_0-8_
  6
CONTINUOUS
 62
    7
 10
135.97980181857577
 20
298.0281267219579
 11
137.02871351551653
 21
298.17546115596082
  0
LINE
  8
_0-8_
  6
CONTINUOUS
 62
    7
 10
137.02871351551653
 20
298.17546115596082
 11
137.97675586174535
 21
298.37542307729177
  0
LINE
  8
_0-8_
  6
CONTINUOUS
 62
    7
 10
137.97675586174535
 20
298.37542307729177
 11
138.79512307030473
 21
298.62193674415659
  0
LINE
  8
_0-8_
  6
CONTINUOUS
 62
    7
 10
138.79512307030473
 20
298.62193674415659
 11
139.45894946767612
 21
298.90751196352966
  0
LINE
  8
_0-8_
  6
CONTINUOUS
 62
    7
 10
139.45894946767612
 20
298.90751196352966
 11
139.94806502468805
 21
299.22347167687826
  0
LINE
  8
_0-8_
  6
CONTINUOUS
 62
    7
 10
139.94806502468805
 20
299.22347167687826
 11
140.24760821264488
 21
299.56021560819579
  0
LINE
  8
_0-8_
  6
CONTINUOUS
 62
    7
 10
140.24760821264488
 20
299.56021560819579
 11
140.34847756335682
 21
299.9075119635296
  0
LINE
  8
_0-8_
  6
CONTINUOUS
 62
    7
 10
140.34847756335682
 20
299.90751189928488
 11
140.39891225723045
 21
299.56021554492708
  0
LINE
  8
_0-8_
  6
CONTINUOUS
 62
    7
 10
140.39891225723045
 20
299.56021554492708
 11
140.54868386916382
 21
299.22347161650805
  0
LINE
  8
_0-8_
  6
CONTINUOUS
 62
    7
 10
140.54868386916382
 20
299.22347161650805
 11
140.79324166451647
 21
298.90751190789211
  0
LINE
  8
_0-8_
  6
CONTINUOUS
 62
    7
 10
140.79324166451647
 20
298.90751190789211
 11
141.12515487842893
 21
298.62193669494229
  0
LINE
  8
_0-8_
  6
CONTINUOUS
 62
    7
 10
141.12515487842893
 20
298.62193669494229
 11
141.53433849585247
 21
298.37542303599605
  0
LINE
  8
_0-8_
  6
CONTINUOUS
 62
    7
 10
141.53433849585247
 20
298.37542303599605
 11
142.00835967962871
 21
298.17546112383843
  0
LINE
  8
_0-8_
  6
CONTINUOUS
 62
    7
 10
142.00835967962871
 20
298.17546112383843
 11
142.53281553595491
 21
298.02812669998491
  0
LINE
  8
_0-8_
  6
CONTINUOUS
 62
    7
 10
142.53281553595491
 20
298.02812669998491
 11
143.09177073902401
 21
297.93789644634933
  0
LINE
  8
_0-8_
  6
CONTINUOUS
 62
    7
 10
143.09177073902401
 20
297.93789644634933
 11
143.66824171783571
 21
297.90751196352971
  0
LINE
  8
_0-8_
  6
CONTINUOUS
 62
    7
 10
143.66824171783571
 20
297.90751196352971
 11
144.24471269340734
 21
297.93789646866128
  0
LINE
  8
_0-8_
  6
CONTINUOUS
 62
    7
 10
144.24471269340734
 20
297.93789646866128
 11
144.80366788685444
 21
298.0281267439309
  0
LINE
  8
_0-8_
  6
CONTINUOUS
 62
    7
 10
144.80366788685444
 20
298.0281267439309
 11
145.32812372746901
 21
298.1754611880832
  0
LINE
  8
_0-8_
  6
CONTINUOUS
 62
    7
 10
145.32812372746901
 20
298.1754611880832
 11
145.80214488992158
 21
298.37542311858743
  0
LINE
  8
_0-8_
  6
CONTINUOUS
 62
    7
 10
145.80214488992158
 20
298.37542311858743
 11
146.21132848105731
 21
298.62193679337088
  0
LINE
  8
_0-8_
  6
CONTINUOUS
 62
    7
 10
146.21132848105731
 20
298.62193679337088
 11
146.54324166451636
 21
298.9075120191672
  0
LINE
  8
_0-8_
  6
CONTINUOUS
 62
    7
 10
146.54324166451636
 20
298.9075120191672
 11
146.78779942617552
 21
299.22347173724859
  0
LINE
  8
_0-8_
  6
CONTINUOUS
 62
    7
 10
146.78779942617552
 20
299.22347173724859
 11
146.93757100219898
 21
299.56021567146445
  0
LINE
  8
_0-8_
  6
CONTINUOUS
 62
    7
 10
146.93757100219898
 20
299.56021567146445
 11
146.98800565903741
 21
299.9075119635296
  0
LINE
  8
_0-8_
  6
CONTINUOUS
 62
    7
 10
140.34847756335682
 20
304.60751196352987
 11
140.24760821264488
 21
304.95480831886368
  0
LINE
  8
_0-8_
  6
CONTINUOUS
 62
    7
 10
140.24760821264488
 20
304.95480831886368
 11
139.94806502468805
 21
305.29155225018121
  0
LINE
  8
_0-8_
  6
CONTINUOUS
 62
    7
 10
139.94806502468805
 20
305.29155225018121
 11
139.45894946767612
 21
305.60751196352982
  0
LINE
  8
_0-8_
  6
CONTINUOUS
 62
    7
 10
139.45894946767612
 20
305.60751196352982
 11
138.79512307030473
 21
305.89308718290289
  0
LINE
  8
_0-8_
  6
CONTINUOUS
 62
    7
 10
138.79512307030473
 20
305.89308718290289
 11
137.97675586174535
 21
306.1396008497677
  0
LINE
  8
_0-8_
  6
CONTINUOUS
 62
    7
 10
137.97675586174535
 20
306.1396008497677
 11
137.02871351551653
 21
306.33956277109866
  0
LINE
  8
_0-8_
  6
CONTINUOUS
 62
    7
 10
137.02871351551653
 20
306.33956277109866
 11
135.97980181857577
 21
306.48689720510157
  0
LINE
  8
_0-8_
  6
CONTINUOUS
 62
    7
 10
135.97980181857577
 20
306.48689720510157
 11
134.86189142205956
 21
306.57712746955417
  0
LINE
  8
_0-8_
  6
CONTINUOUS
 62
    7
 10
134.86189142205956
 20
306.57712746955417
 11
133.70894946767623
 21
306.60751196352976
  0
LINE
  8
_0-8_
  6
CONTINUOUS
 62
    7
 10
133.70894946767623
 20
306.60751196352976
 11
132.55600751329291
 21
306.57712746955417
  0
LINE
  8
_0-8_
  6
CONTINUOUS
 62
    7
 10
132.55600751329291
 20
306.57712746955417
 11
131.4380971167767
 21
306.48689720510157
  0
LINE
  8
_0-8_
  6
CONTINUOUS
 62
    7
 10
131.4380971167767
 20
306.48689720510157
 11
130.38918541983594
 21
306.33956277109866
  0
LINE
  8
_0-8_
  6
CONTINUOUS
 62
    7
 10
130.38918541983594
 20
306.33956277109866
 11
129.44114307360712
 21
306.1396008497677
  0
LINE
  8
_0-8_
  6
CONTINUOUS
 62
    7
 10
129.44114307360712
 20
306.1396008497677
 11
128.62277586504774
 21
305.89308718290289
  0
LINE
  8
_0-8_
  6
CONTINUOUS
 62
    7
 10
128.62277586504774
 20
305.89308718290289
 11
127.95894946767635
 21
305.60751196352982
  0
LINE
  8
_0-8_
  6
CONTINUOUS
 62
    7
 10
127.95894946767635
 20
305.60751196352982
 11
127.46983391066442
 21
305.29155225018121
  0
LINE
  8
_0-8_
  6
CONTINUOUS
 62
    7
 10
127.46983391066442
 20
305.29155225018121
 11
127.17029072270759
 21
304.95480831886368
  0
LINE
  8
_0-8_
  6
CONTINUOUS
 62
    7
 10
127.17029072270759
 20
304.95480831886368
 11
127.06942137199565
 21
304.60751196352987
  0
LINE
  8
_0-8_
  6
CONTINUOUS
 62
    7
 10
146.98800565903741
 20
304.60751196352987
 11
146.93757098368144
 21
304.95480831886368
  0
LINE
  8
_0-8_
  6
CONTINUOUS
 62
    7
 10
146.93757098368144
 20
304.95480831886368
 11
146.78779938970297
 21
305.29155225018121
  0
LINE
  8
_0-8_
  6
CONTINUOUS
 62
    7
 10
146.78779938970297
 20
305.29155225018121
 11
146.54324161119712
 21
305.60751196352982
  0
LINE
  8
_0-8_
  6
CONTINUOUS
 62
    7
 10
146.54324161119712
 20
305.60751196352982
 11
146.21132841251131
 21
305.89308718290289
  0
LINE
  8
_0-8_
  6
CONTINUOUS
 62
    7
 10
146.21132841251131
 20
305.89308718290289
 11
145.80214480823167
 21
306.1396008497677
  0
LINE
  8
_0-8_
  6
CONTINUOUS
 62
    7
 10
145.80214480823167
 20
306.1396008497677
 11
145.32812363511732
 21
306.33956277109866
  0
LINE
  8
_0-8_
  6
CONTINUOUS
 62
    7
 10
145.32812363511732
 20
306.33956277109866
 11
144.80366778664688
 21
306.48689720510157
  0
LINE
  8
_0-8_
  6
CONTINUOUS
 62
    7
 10
144.80366778664688
 20
306.48689720510157
 11
144.24471258838878
 21
306.57712746955417
  0
LINE
  8
_0-8_
  6
CONTINUOUS
 62
    7
 10
144.24471258838878
 20
306.57712746955417
 11
143.66824161119712
 21
306.60751196352976
  0
LINE
  8
_0-8_
  6
CONTINUOUS
 62
    7
 10
143.66824161119712
 20
306.60751196352976
 11
143.09177063400546
 21
306.57712746955417
  0
LINE
  8
_0-8_
  6
CONTINUOUS
 62
    7
 10
143.09177063400546
 20
306.57712746955417
 11
142.53281543574735
 21
306.48689720510157
  0
LINE
  8
_0-8_
  6
CONTINUOUS
 62
    7
 10
142.53281543574735
 20
306.48689720510157
 11
142.00835958727703
 21
306.33956277109866
  0
LINE
  8
_0-8_
  6
CONTINUOUS
 62
    7
 10
142.00835958727703
 20
306.33956277109866
 11
141.53433841416256
 21
306.1396008497677
  0
LINE
  8
_0-8_
  6
CONTINUOUS
 62
    7
 10
141.53433841416256
 20
306.1396008497677
 11
141.12515480988293
 21
305.89308718290289
  0
LINE
  8
_0-8_
  6
CONTINUOUS
 62
    7
 10
141.12515480988293
 20
305.89308718290289
 11
140.79324161119712
 21
305.60751196352982
  0
LINE
  8
_0-8_
  6
CONTINUOUS
 62
    7
 10
140.79324161119712
 20
305.60751196352982
 11
140.54868383269127
 21
305.29155225018121
  0
LINE
  8
_0-8_
  6
CONTINUOUS
 62
    7
 10
140.54868383269127
 20
305.29155225018121
 11
140.3989122387128
 21
304.95480831886368
  0
LINE
  8
_0-8_
  6
CONTINUOUS
 62
    7
 10
140.3989122387128
 20
304.95480831886368
 11
140.34847756335682
 21
304.60751202777459
  0
LINE
  8
_0-8_
  6
CONTINUOUS
 62
    7
 10
127.06942137199565
 20
304.60751202777459
 11
127.01898667812202
 21
304.9548083821324
  0
LINE
  8
_0-8_
  6
CONTINUOUS
 62
    7
 10
127.01898667812202
 20
304.9548083821324
 11
126.86921506618864
 21
305.29155231055142
  0
LINE
  8
_0-8_
  6
CONTINUOUS
 62
    7
 10
126.86921506618864
 20
305.29155231055142
 11
126.624657270836
 21
305.60751201916736
  0
LINE
  8
_0-8_
  6
CONTINUOUS
 62
    7
 10
126.624657270836
 20
305.60751201916736
 11
126.29274405692354
 21
305.89308723211718
  0
LINE
  8
_0-8_
  6
CONTINUOUS
 62
    7
 10
126.29274405692354
 20
305.89308723211718
 11
125.8835604395
 21
306.13960089106342
  0
LINE
  8
_0-8_
  6
CONTINUOUS
 62
    7
 10
125.8835604395
 20
306.13960089106342
 11
125.40953925572376
 21
306.33956280322104
  0
LINE
  8
_0-8_
  6
CONTINUOUS
 62
    7
 10
125.40953925572376
 20
306.33956280322104
 11
124.88508339939756
 21
306.48689722707456
  0
LINE
  8
_0-8_
  6
CONTINUOUS
 62
    7
 10
124.88508339939756
 20
306.48689722707456
 11
124.32612819632845
 21
306.57712748071015
  0
LINE
  8
_0-8_
  6
CONTINUOUS
 62
    7
 10
124.32612819632845
 20
306.57712748071015
 11
123.74965721751676
 21
306.60751196352976
  0
LINE
  8
_0-8_
  6
CONTINUOUS
 62
    7
 10
123.74965721751676
 20
306.60751196352976
 11
123.17318624194513
 21
306.57712745839819
  0
LINE
  8
_0-8_
  6
CONTINUOUS
 62
    7
 10
123.17318624194513
 20
306.57712745839819
 11
122.61423104849803
 21
306.48689718312858
  0
LINE
  8
_0-8_
  6
CONTINUOUS
 62
    7
 10
122.61423104849803
 20
306.48689718312858
 11
122.08977520788346
 21
306.33956273897627
  0
LINE
  8
_0-8_
  6
CONTINUOUS
 62
    7
 10
122.08977520788346
 20
306.33956273897627
 11
121.61575404543089
 21
306.13960080847204
  0
LINE
  8
_0-8_
  6
CONTINUOUS
 62
    7
 10
121.61575404543089
 20
306.13960080847204
 11
121.20657045429516
 21
305.8930871336886
  0
LINE
  8
_0-8_
  6
CONTINUOUS
 62
    7
 10
121.20657045429516
 20
305.8930871336886
 11
120.87465727083611
 21
305.60751190789227
  0
LINE
  8
_0-8_
  6
CONTINUOUS
 62
    7
 10
120.87465727083611
 20
305.60751190789227
 11
120.63009950917694
 21
305.29155218981089
  0
LINE
  8
_0-8_
  6
CONTINUOUS
 62
    7
 10
120.63009950917694
 20
305.29155218981089
 11
120.48032793315349
 21
304.95480825559503
  0
LINE
  8
_0-8_
  6
CONTINUOUS
 62
    7
 10
120.48032793315349
 20
304.95480825559503
 11
120.42989327631506
 21
304.60751196352987
  0
LINE
  8
_0-8_
  6
CONTINUOUS
 62
    7
 10
141.70894943289443
 20
297.90751196352971
 11
141.70894943289443
 21
228.60751196352976
  0
LINE
  8
_0-8_
  6
CONTINUOUS
 62
    7
 10
140.80894937229448
 20
228.60751196352976
 11
140.80894937229448
 21
297.90751196352971
  0
LINE
  8
_0-8_
  6
CONTINUOUS
 62
    7
 10
126.60894956299421
 20
297.90751196352971
 11
126.60894956299421
 21
228.60751196352976
  0
LINE
  8
_0-8_
  6
CONTINUOUS
 62
    7
 10
125.7089494328942
 20
228.60751196352976
 11
125.7089494328942
 21
297.90751196352971
  0
LINE
  8
_0-9_
  6
PHANTOM1
 62
  152
 10
108.70894946767623
 20
273.6075119635293
 11
108.70894946767623
 21
276.60751196352999
  0
LINE
  8
_0-9_
  6
PHANTOM1
 62
  152
 10
110.65894946767605
 20
270.60751196352976
 11
110.65894946767605
 21
273.6075119635293
  0
LINE
  8
_0-9_
  6
PHANTOM1
 62
  152
 10
108.95894946767601
 20
276.60751196352999
 11
108.95894946767601
 21
284.10751196352999
  0
ARC
  8
_0-9_
  6
PHANTOM1
 62
  152
 10
111.95894946767623
 20
284.10751196352999
 40
2.9999999999999858
 50
89.999999999999829
 51
180.0000000000002
  0
LINE
  8
_0-9_
  6
PHANTOM1
 62
  152
 10
156.75894946767687
 20
270.60751196352976
 11
110.65894946767605
 21
270.60751196352976
  0
ARC
  8
_0-9_
  6
PHANTOM1
 62
  152
 10
155.45894946767623
 20
284.10751196352999
 40
2.9999999999999933
 50
359.99999999999977
 51
90.000000000000199
  0
LINE
  8
_0-9_
  6
PHANTOM1
 62
  152
 10
158.45894946767646
 20
284.10751196352999
 11
158.45894946767646
 21
276.60751196352999
  0
LINE
  8
_0-9_
  6
PHANTOM1
 62
  152
 10
158.70894946767623
 20
276.60751196352999
 11
158.70894946767623
 21
273.6075119635293
  0
LINE
  8
_0-9_
  6
PHANTOM1
 62
  152
 10
156.75894946767687
 20
273.6075119635293
 11
156.75894946767687
 21
270.60751196352976
  0
LINE
  8
_0-9_
  6
PHANTOM1
 62
  152
 10
108.70894946767623
 20
276.60751196352999
 11
108.95894946767601
 21
276.60751196352999
  0
LINE
  8
_0-9_
  6
PHANTOM1
 62
  152
 10
158.45894946767646
 20
276.60751196352999
 11
158.70894946767623
 21
276.60751196352999
  0
LINE
  8
_0-9_
  6
PHANTOM1
 62
  152
 10
158.70894946767623
 20
273.6075119635293
 11
156.75894946767687
 21
273.6075119635293
  0
LINE
  8
_0-9_
  6
PHANTOM1
 62
  152
 10
110.65894946767605
 20
273.6075119635293
 11
108.70894946767623
 21
273.6075119635293
  0
LINE
  8
_0-9_
  6
PHANTOM1
 62
  152
 10
151.70894946767623
 20
287.10751196352953
 11
155.45894946767623
 21
287.10751196352953
  0
LINE
  8
_0-9_
  6
PHANTOM1
 62
  152
 10
121.00724354550482
 20
296.6075119635293
 11
121.00724354550482
 21
289.50751196352962
  0
LINE
  8
_0-9_
  6
PHANTOM1
 62
  152
 10
151.70894946767623
 20
287.10751196352953
 11
151.70894946767623
 21
287.50751196352985
  0
LINE
  8
_0-9_
  6
PHANTOM1
 62
  152
 10
115.95894946767578
 20
287.50751196352985
 11
115.95894946767578
 21
287.10751196352953
  0
LINE
  8
_0-9_
  6
PHANTOM1
 62
  152
 10
111.95894946767623
 20
287.10751196352953
 11
115.95894946767578
 21
287.10751196352953
  0
LINE
  8
_0-9_
  6
PHANTOM1
 62
  152
 10
143.23522890930451
 20
287.50751196352974
 11
143.23522890930451
 21
287.50751196352974
  0
LINE
  8
_0-9_
  6
PHANTOM1
 62
  152
 10
143.23522890930451
 20
287.50751196352974
 11
143.78663593096604
 21
287.53789645750533
  0
LINE
  8
_0-9_
  6
PHANTOM1
 62
  152
 10
143.78663593096604
 20
287.53789645750533
 11
144.32128872929979
 21
287.62812672195793
  0
LINE
  8
_0-9_
  6
PHANTOM1
 62
  152
 10
144.32128872929979
 20
287.62812672195793
 11
144.82294214957579
 21
287.77546115596084
  0
LINE
  8
_0-9_
  6
PHANTOM1
 62
  152
 10
144.82294214957579
 20
287.77546115596084
 11
145.2763537064678
 21
287.97542307729174
  0
LINE
  8
_0-9_
  6
PHANTOM1
 62
  152
 10
145.2763537064678
 20
287.97542307729174
 11
145.667746719257
 21
288.22193674415661
  0
LINE
  8
_0-9_
  6
PHANTOM1
 62
  152
 10
145.667746719257
 20
288.22193674415661
 11
145.9852289093042
 21
288.50751196352968
  0
LINE
  8
_0-9_
  6
PHANTOM1
 62
  152
 10
145.9852289093042
 20
288.50751196352968
 11
146.21915374091853
 21
288.82347167687834
  0
LINE
  8
_0-9_
  6
PHANTOM1
 62
  152
 10
146.21915374091853
 20
288.82347167687834
 11
146.36241352646311
 21
289.16021560819576
  0
LINE
  8
_0-9_
  6
PHANTOM1
 62
  152
 10
146.36241352646311
 20
289.16021560819576
 11
146.41065538984708
 21
289.50751196352962
  0
LINE
  8
_0-9_
  6
PHANTOM1
 62
  152
 10
151.70894946767623
 20
287.50751196352985
 11
143.23522890930451
 21
287.50751196352985
  0
LINE
  8
_0-9_
  6
PHANTOM1
 62
  152
 10
115.95894946767578
 20
287.50751196352985
 11
124.18267002604796
 21
287.50751196352985
  0
LINE
  8
_0-9_
  6
PHANTOM1
 62
  152
 10
121.00724354550539
 20
289.50751196352962
 11
121.00724354550539
 21
289.50751196352962
  0
LINE
  8
_0-9_
  6
PHANTOM1
 62
  152
 10
121.00724354550539
 20
289.50751196352962
 11
121.05548540888937
 21
289.16021560819576
  0
LINE
  8
_0-9_
  6
PHANTOM1
 62
  152
 10
121.05548540888937
 20
289.16021560819576
 11
121.19874519443394
 21
288.82347167687834
  0
LINE
  8
_0-9_
  6
PHANTOM1
 62
  152
 10
121.19874519443394
 20
288.82347167687834
 11
121.43267002604829
 21
288.50751196352968
  0
LINE
  8
_0-9_
  6
PHANTOM1
 62
  152
 10
121.43267002604829
 20
288.50751196352968
 11
121.75015221609547
 21
288.22193674415661
  0
LINE
  8
_0-9_
  6
PHANTOM1
 62
  152
 10
121.75015221609547
 20
288.22193674415661
 11
122.14154522888467
 21
287.97542307729174
  0
LINE
  8
_0-9_
  6
PHANTOM1
 62
  152
 10
122.14154522888467
 20
287.97542307729174
 11
122.59495678577667
 21
287.77546115596084
  0
LINE
  8
_0-9_
  6
PHANTOM1
 62
  152
 10
122.59495678577667
 20
287.77546115596084
 11
123.09661020605266
 21
287.62812672195793
  0
LINE
  8
_0-9_
  6
PHANTOM1
 62
  152
 10
123.09661020605266
 20
287.62812672195793
 11
123.63126300438643
 21
287.53789645750533
  0
LINE
  8
_0-9_
  6
PHANTOM1
 62
  152
 10
123.63126300438643
 20
287.53789645750533
 11
124.18267002604796
 21
287.50751196352974
  0
LINE
  8
_0-9_
  6
PHANTOM1
 62
  152
 10
146.41065538984765
 20
289.50751196352962
 11
146.41065538984765
 21
296.6075119635293
  0
LINE
  8
_0-8_
  6
CONTINUOUS
 62
  152
 10
316.46214636682117
 20
215.40751196353
 11
266.46214636682117
 21
215.40751196353
  0
LINE
  8
_0-8_
  6
CONTINUOUS
 62
    7
 10
266.2121463668214
 20
207.60751196352999
 11
266.2121463668214
 21
204.60751196352987
  0
LINE
  8
_0-8_
  6
CONTINUOUS
 62
    7
 10
266.2121463668214
 20
204.60751196352987
 11
316.71214636682095
 21
204.60751196352987
  0
LINE
  8
_0-8_
  6
CONTINUOUS
 62
    7
 10
316.71214636682095
 20
204.60751196352987
 11
316.71214636682095
 21
207.60751196352999
  0
LINE
  8
_0-8_
  6
CONTINUOUS
 62
    7
 10
316.71214636682095
 20
207.60751196352999
 11
266.2121463668214
 21
207.60751196352999
  0
LINE
  8
_0-8_
  6
CONTINUOUS
 62
    7
 10
268.16214636682133
 20
204.60751196352987
 11
268.16214636682133
 21
201.60751196352976
  0
LINE
  8
_0-8_
  6
CONTINUOUS
 62
    7
 10
268.16214636682133
 20
201.60751196352976
 11
314.76214636682158
 21
201.60751196352976
  0
LINE
  8
_0-8_
  6
CONTINUOUS
 62
    7
 10
314.76214636682158
 20
201.60751196352976
 11
314.76214636682158
 21
204.60751196352987
  0
LINE
  8
_0-8_
  6
CONTINUOUS
 62
    7
 10
278.76044044464976
 20
228.60751196352976
 11
304.16385228899259
 21
228.60751196352976
  0
LINE
  8
_0-8_
  6
CONTINUOUS
 62
    7
 10
285.11129340573547
 20
228.60751196352976
 11
285.11129340573547
 21
220.80751196352986
  0
LINE
  8
_0-8_
  6
CONTINUOUS
 62
    7
 10
278.76044044464976
 20
220.80751196352986
 11
278.76044044464976
 21
228.60751196352976
  0
LINE
  8
_0-8_
  6
CONTINUOUS
 62
    7
 10
304.16385228899259
 20
228.60751196352976
 11
304.16385228899259
 21
220.80751196352986
  0
LINE
  8
_0-8_
  6
CONTINUOUS
 62
    7
 10
297.81299932573546
 20
220.80751196352986
 11
297.81299932573546
 21
228.60751196352976
  0
LINE
  8
_0-8_
  6
CONTINUOUS
 62
    7
 10
309.46214636682129
 20
218.80751196352998
 11
309.46214636682129
 21
218.40751196352977
  0
LINE
  8
_0-8_
  6
CONTINUOUS
 62
    7
 10
309.46214636682129
 20
218.80751196352998
 11
273.46214636682106
 21
218.80751196352998
  0
LINE
  8
_0-8_
  6
CONTINUOUS
 62
    7
 10
273.46214636682106
 20
218.80751196352998
 11
273.46214636682106
 21
218.40751196352977
  0
LINE
  8
_0-8_
  6
CONTINUOUS
 62
    7
 10
269.46214636682129
 20
218.40751196352977
 11
313.46214636652604
 21
218.40751196352977
  0
LINE
  8
_0-8_
  6
CONTINUOUS
 62
    7
 10
266.46214636682117
 20
215.40751196353
 11
266.46214636682117
 21
207.60751196352999
  0
LINE
  8
_0-8_
  6
CONTINUOUS
 62
    7
 10
316.46214636682117
 20
207.60751196352999
 11
316.46214636682117
 21
215.40751196353
  0
ARC
  8
_0-8_
  6
CONTINUOUS
 62
    7
 10
269.46214636682129
 20
215.40751196353
 40
2.9999999999999858
 50
89.999999999999829
 51
180.0000000000002
  0
ARC
  8
_0-8_
  6
CONTINUOUS
 62
    7
 10
313.46214636682106
 20
215.40751196353
 40
2.9999999999999933
 50
359.99999999999977
 51
90.000000000000199
  0
LINE
  8
_0-8_
  6
CONTINUOUS
 62
    7
 10
278.76044044465033
 20
220.80751196352986
 11
278.80868230803429
 21
220.46021560819605
  0
LINE
  8
_0-8_
  6
CONTINUOUS
 62
    7
 10
278.80868230803429
 20
220.46021560819605
 11
278.95194209357891
 21
220.12347167687858
  0
LINE
  8
_0-8_
  6
CONTINUOUS
 62
    7
 10
278.95194209357891
 20
220.12347167687858
 11
279.18586692519324
 21
219.80751196352992
  0
LINE
  8
_0-8_
  6
CONTINUOUS
 62
    7
 10
279.18586692519324
 20
219.80751196352992
 11
279.50334911524038
 21
219.52193674415685
  0
LINE
  8
_0-8_
  6
CONTINUOUS
 62
    7
 10
279.50334911524038
 20
219.52193674415685
 11
279.89474212802958
 21
219.27542307729198
  0
LINE
  8
_0-8_
  6
CONTINUOUS
 62
    7
 10
279.89474212802958
 20
219.27542307729198
 11
280.34815368492156
 21
219.07546115596108
  0
LINE
  8
_0-8_
  6
CONTINUOUS
 62
    7
 10
280.34815368492156
 20
219.07546115596108
 11
280.84980710519761
 21
218.92812672195817
  0
LINE
  8
_0-8_
  6
CONTINUOUS
 62
    7
 10
280.84980710519761
 20
218.92812672195817
 11
281.38445990353142
 21
218.83789645750556
  0
LINE
  8
_0-8_
  6
CONTINUOUS
 62
    7
 10
281.38445990353142
 20
218.83789645750556
 11
281.9358669251929
 21
218.80751196352998
  0
LINE
  8
_0-8_
  6
CONTINUOUS
 62
    7
 10
281.9358669251929
 20
218.80751196352998
 11
282.48727394685437
 21
218.83789645750556
  0
LINE
  8
_0-8_
  6
CONTINUOUS
 62
    7
 10
282.48727394685437
 20
218.83789645750556
 11
283.02192674518818
 21
218.92812672195817
  0
LINE
  8
_0-8_
  6
CONTINUOUS
 62
    7
 10
283.02192674518818
 20
218.92812672195817
 11
283.52358016546413
 21
219.07546115596108
  0
LINE
  8
_0-8_
  6
CONTINUOUS
 62
    7
 10
283.52358016546413
 20
219.07546115596108
 11
283.97699172235622
 21
219.27542307729198
  0
LINE
  8
_0-8_
  6
CONTINUOUS
 62
    7
 10
283.97699172235622
 20
219.27542307729198
 11
284.36838473514541
 21
219.52193674415685
  0
LINE
  8
_0-8_
  6
CONTINUOUS
 62
    7
 10
284.36838473514541
 20
219.52193674415685
 11
284.68586692519256
 21
219.80751196352992
  0
LINE
  8
_0-8_
  6
CONTINUOUS
 62
    7
 10
284.68586692519256
 20
219.80751196352992
 11
284.91979175680689
 21
220.12347167687858
  0
LINE
  8
_0-8_
  6
CONTINUOUS
 62
    7
 10
284.91979175680689
 20
220.12347167687858
 11
285.0630515423515
 21
220.46021560819605
  0
LINE
  8
_0-8_
  6
CONTINUOUS
 62
    7
 10
285.0630515423515
 20
220.46021560819605
 11
285.11129340573547
 21
220.80751196352986
  0
LINE
  8
_0-8_
  6
CONTINUOUS
 62
    7
 10
285.11129340573547
 20
220.80751196352986
 11
285.11129340573547
 21
220.80751210715869
  0
LINE
  8
_0-8_
  6
CONTINUOUS
 62
    7
 10
285.11129340573547
 20
220.80751210715869
 11
285.20777705328902
 21
220.46021574964283
  0
LINE
  8
_0-8_
  6
CONTINUOUS
 62
    7
 10
285.20777705328902
 20
220.46021574964283
 11
285.49429654753766
 21
220.12347181184549
  0
LINE
  8
_0-8_
  6
CONTINUOUS
 62
    7
 10
285.49429654753766
 20
220.12347181184549
 11
285.96214613863452
 21
219.80751208791611
  0
LINE
  8
_0-8_
  6
CONTINUOUS
 62
    7
 10
285.96214613863452
 20
219.80751208791611
 11
286.59711045349746
 21
219.52193685418291
  0
LINE
  8
_0-8_
  6
CONTINUOUS
 62
    7
 10
286.59711045349746
 20
219.52193685418291
 11
287.37989642272674
 21
219.27542316961484
  0
LINE
  8
_0-8_
  6
CONTINUOUS
 62
    7
 10
287.37989642272674
 20
219.27542316961484
 11
288.28671949075618
 21
219.07546122777552
  0
LINE
  8
_0-8_
  6
CONTINUOUS
 62
    7
 10
288.28671949075618
 20
219.07546122777552
 11
289.29002629753842
 21
218.92812677108208
  0
LINE
  8
_0-8_
  6
CONTINUOUS
 62
    7
 10
289.29002629753842
 20
218.92812677108208
 11
290.35933187344693
 21
218.83789648244647
  0
LINE
  8
_0-8_
  6
CONTINUOUS
 62
    7
 10
290.35933187344693
 20
218.83789648244647
 11
291.46214590965263
 21
218.80751196352998
  0
LINE
  8
_0-8_
  6
CONTINUOUS
 62
    7
 10
291.46214590965263
 20
218.80751196352998
 11
292.56495995971619
 21
218.83789643256466
  0
LINE
  8
_0-8_
  6
CONTINUOUS
 62
    7
 10
292.56495995971619
 20
218.83789643256466
 11
293.6342655767773
 21
218.9281266728342
  0
LINE
  8
_0-8_
  6
CONTINUOUS
 62
    7
 10
293.6342655767773
 20
218.9281266728342
 11
294.63757245075618
 21
219.0754610841467
  0
LINE
  8
_0-8_
  6
CONTINUOUS
 62
    7
 10
294.63757245075618
 20
219.0754610841467
 11
295.54439560998486
 21
219.27542298496917
  0
LINE
  8
_0-8_
  6
CONTINUOUS
 62
    7
 10
295.54439560998486
 20
219.27542298496917
 11
296.32718169164485
 21
219.52193663413078
  0
LINE
  8
_0-8_
  6
CONTINUOUS
 62
    7
 10
296.32718169164485
 20
219.52193663413078
 11
296.96214613675369
 21
219.80751183914373
  0
LINE
  8
_0-8_
  6
CONTINUOUS
 62
    7
 10
296.96214613675369
 20
219.80751183914373
 11
297.4299958719543
 21
220.12347154191161
  0
LINE
  8
_0-8_
  6
CONTINUOUS
 62
    7
 10
297.4299958719543
 20
220.12347154191161
 11
297.71651551978601
 21
220.46021546674922
  0
LINE
  8
_0-8_
  6
CONTINUOUS
 62
    7
 10
297.71651551978601
 20
220.46021546674922
 11
297.81299932573546
 21
220.80751181990104
  0
LINE
  8
_0-8_
  6
CONTINUOUS
 62
    7
 10
297.81299932573546
 20
220.80751181990104
 11
297.81299932573546
 21
220.80751196352986
  0
LINE
  8
_0-8_
  6
CONTINUOUS
 62
    7
 10
297.81299932790688
 20
220.80751210715869
 11
297.8612411516919
 21
220.46021574964283
  0
LINE
  8
_0-8_
  6
CONTINUOUS
 62
    7
 10
297.8612411516919
 20
220.46021574964283
 11
298.00450089884072
 21
220.12347181184549
  0
LINE
  8
_0-8_
  6
CONTINUOUS
 62
    7
 10
298.00450089884072
 20
220.12347181184549
 11
298.23842569442905
 21
219.80751208791611
  0
LINE
  8
_0-8_
  6
CONTINUOUS
 62
    7
 10
298.23842569442905
 20
219.80751208791611
 11
298.55590785191481
 21
219.52193685418291
  0
LINE
  8
_0-8_
  6
CONTINUOUS
 62
    7
 10
298.55590785191481
 20
219.52193685418291
 11
298.9473008365963
 21
219.27542316961484
  0
LINE
  8
_0-8_
  6
CONTINUOUS
 62
    7
 10
298.9473008365963
 20
219.27542316961484
 11
299.4007123706885
 21
219.07546122777552
  0
LINE
  8
_0-8_
  6
CONTINUOUS
 62
    7
 10
299.4007123706885
 20
219.07546122777552
 11
299.90236577416539
 21
218.92812677108208
  0
LINE
  8
_0-8_
  6
CONTINUOUS
 62
    7
 10
299.90236577416539
 20
218.92812677108208
 11
300.43701856221099
 21
218.83789648244647
  0
LINE
  8
_0-8_
  6
CONTINUOUS
 62
    7
 10
300.43701856221099
 20
218.83789648244647
 11
300.98842558040809
 21
218.80751196352998
  0
LINE
  8
_0-8_
  6
CONTINUOUS
 62
    7
 10
300.98842558040809
 20
218.80751196352998
 11
301.53983260553406
 21
218.83789643256466
  0
LINE
  8
_0-8_
  6
CONTINUOUS
 62
    7
 10
301.53983260553406
 20
218.83789643256466
 11
302.07448541415596
 21
218.9281266728342
  0
LINE
  8
_0-8_
  6
CONTINUOUS
 62
    7
 10
302.07448541415596
 20
218.9281266728342
 11
302.57613885123106
 21
219.0754610841467
  0
LINE
  8
_0-8_
  6
CONTINUOUS
 62
    7
 10
302.57613885123106
 20
219.0754610841467
 11
303.02955043092294
 21
219.27542298496917
  0
LINE
  8
_0-8_
  6
CONTINUOUS
 62
    7
 10
303.02955043092294
 20
219.27542298496917
 11
303.42094347181973
 21
219.52193663413078
  0
LINE
  8
_0-8_
  6
CONTINUOUS
 62
    7
 10
303.42094347181973
 20
219.52193663413078
 11
303.73842569442837
 21
219.80751183914373
  0
LINE
  8
_0-8_
  6
CONTINUOUS
 62
    7
 10
303.73842569442837
 20
219.80751183914373
 11
303.9723505620687
 21
220.12347154191161
  0
LINE
  8
_0-8_
  6
CONTINUOUS
 62
    7
 10
303.9723505620687
 20
220.12347154191161
 11
304.11561038600911
 21
220.46021546674922
  0
LINE
  8
_0-8_
  6
CONTINUOUS
 62
    7
 10
304.11561038600911
 20
220.46021546674922
 11
304.16385228899202
 21
220.80751181990104
  0
LINE
  8
_0-8_
  6
CONTINUOUS
 62
    7
 10
304.16385228899202
 20
220.80751181990104
 11
304.16385228899202
 21
220.80751196352986
  0
LINE
  8
_0-8_
  6
CONTINUOUS
 62
    7
 10
278.18309017545999
 20
304.60751196352987
 11
278.18309017545999
 21
299.9075119635296
  0
LINE
  8
_0-8_
  6
CONTINUOUS
 62
    7
 10
281.50285422330029
 20
297.90751196352971
 11
301.42143851034206
 21
297.90751196352971
  0
LINE
  8
_0-8_
  6
CONTINUOUS
 62
    7
 10
298.10167446250176
 20
299.9075119635296
 11
298.10167446250176
 21
304.60751196352987
  0
LINE
  8
_0-8_
  6
CONTINUOUS
 62
    7
 10
301.42143851034206
 20
306.60751196352976
 11
281.50285422330029
 21
306.60751196352976
  0
LINE
  8
_0-8_
  6
CONTINUOUS
 62
    7
 10
284.82261827114058
 20
304.60751196352987
 11
284.82261827114058
 21
299.9075119635296
  0
LINE
  8
_0-8_
  6
CONTINUOUS
 62
    7
 10
304.74120255818235
 20
299.9075119635296
 11
304.74120255818235
 21
304.60751196352987
  0
LINE
  8
_0-8_
  6
CONTINUOUS
 62
    7
 10
278.18309017545999
 20
299.9075119635296
 11
278.23352485081597
 21
299.56021560819579
  0
LINE
  8
_0-8_
  6
CONTINUOUS
 62
    7
 10
278.23352485081597
 20
299.56021560819579
 11
278.38329644479444
 21
299.22347167687826
  0
LINE
  8
_0-8_
  6
CONTINUOUS
 62
    7
 10
278.38329644479444
 20
299.22347167687826
 11
278.62785422330029
 21
298.90751196352966
  0
LINE
  8
_0-8_
  6
CONTINUOUS
 62
    7
 10
278.62785422330029
 20
298.90751196352966
 11
278.9597674219861
 21
298.62193674415659
  0
LINE
  8
_0-8_
  6
CONTINUOUS
 62
    7
 10
278.9597674219861
 20
298.62193674415659
 11
279.36895102626573
 21
298.37542307729177
  0
LINE
  8
_0-8_
  6
CONTINUOUS
 62
    7
 10
279.36895102626573
 20
298.37542307729177
 11
279.84297219938009
 21
298.17546115596082
  0
LINE
  8
_0-8_
  6
CONTINUOUS
 62
    7
 10
279.84297219938009
 20
298.17546115596082
 11
280.36742804785052
 21
298.0281267219579
  0
LINE
  8
_0-8_
  6
CONTINUOUS
 62
    7
 10
280.36742804785052
 20
298.0281267219579
 11
280.92638324610863
 21
297.9378964575053
  0
LINE
  8
_0-8_
  6
CONTINUOUS
 62
    7
 10
280.92638324610863
 20
297.9378964575053
 11
281.50285422330029
 21
297.90751196352971
  0
LINE
  8
_0-8_
  6
CONTINUOUS
 62
    7
 10
281.50285422330029
 20
297.90751196352971
 11
282.07932520049195
 21
297.9378964575053
  0
LINE
  8
_0-8_
  6
CONTINUOUS
 62
    7
 10
282.07932520049195
 20
297.9378964575053
 11
282.63828039875006
 21
298.0281267219579
  0
LINE
  8
_0-8_
  6
CONTINUOUS
 62
    7
 10
282.63828039875006
 20
298.0281267219579
 11
283.16273624722038
 21
298.17546115596082
  0
LINE
  8
_0-8_
  6
CONTINUOUS
 62
    7
 10
283.16273624722038
 20
298.17546115596082
 11
283.63675742033485
 21
298.37542307729177
  0
LINE
  8
_0-8_
  6
CONTINUOUS
 62
    7
 10
283.63675742033485
 20
298.37542307729177
 11
284.04594102461448
 21
298.62193674415659
  0
LINE
  8
_0-8_
  6
CONTINUOUS
 62
    7
 10
284.04594102461448
 20
298.62193674415659
 11
284.37785422330029
 21
298.90751196352966
  0
LINE
  8
_0-8_
  6
CONTINUOUS
 62
    7
 10
284.37785422330029
 20
298.90751196352966
 11
284.62241200180614
 21
299.22347167687826
  0
LINE
  8
_0-8_
  6
CONTINUOUS
 62
    7
 10
284.62241200180614
 20
299.22347167687826
 11
284.77218359578461
 21
299.56021560819579
  0
LINE
  8
_0-8_
  6
CONTINUOUS
 62
    7
 10
284.77218359578461
 20
299.56021560819579
 11
284.82261827114058
 21
299.90751189928488
  0
LINE
  8
_0-8_
  6
CONTINUOUS
 62
    7
 10
284.82261827114058
 20
299.9075119635296
 11
284.92348762185253
 21
299.56021560819579
  0
LINE
  8
_0-8_
  6
CONTINUOUS
 62
    7
 10
284.92348762185253
 20
299.56021560819579
 11
285.22303080980936
 21
299.22347167687826
  0
LINE
  8
_0-8_
  6
CONTINUOUS
 62
    7
 10
285.22303080980936
 20
299.22347167687826
 11
285.71214636682129
 21
298.90751196352966
  0
LINE
  8
_0-8_
  6
CONTINUOUS
 62
    7
 10
285.71214636682129
 20
298.90751196352966
 11
286.37597276419268
 21
298.62193674415659
  0
LINE
  8
_0-8_
  6
CONTINUOUS
 62
    7
 10
286.37597276419268
 20
298.62193674415659
 11
287.19433997275206
 21
298.37542307729177
  0
LINE
  8
_0-8_
  6
CONTINUOUS
 62
    7
 10
287.19433997275206
 20
298.37542307729177
 11
288.14238231898088
 21
298.17546115596082
  0
LINE
  8
_0-8_
  6
CONTINUOUS
 62
    7
 10
288.14238231898088
 20
298.17546115596082
 11
289.19129401592164
 21
298.0281267219579
  0
LINE
  8
_0-8_
  6
CONTINUOUS
 62
    7
 10
289.19129401592164
 20
298.0281267219579
 11
290.30920441243785
 21
297.9378964575053
  0
LINE
  8
_0-8_
  6
CONTINUOUS
 62
    7
 10
290.30920441243785
 20
297.9378964575053
 11
291.46214636682117
 21
297.90751196352971
  0
LINE
  8
_0-8_
  6
CONTINUOUS
 62
    7
 10
291.46214636682117
 20
297.90751196352971
 11
292.6150883212045
 21
297.9378964575053
  0
LINE
  8
_0-8_
  6
CONTINUOUS
 62
    7
 10
292.6150883212045
 20
297.9378964575053
 11
293.7329987177207
 21
298.0281267219579
  0
LINE
  8
_0-8_
  6
CONTINUOUS
 62
    7
 10
293.7329987177207
 20
298.0281267219579
 11
294.78191041466147
 21
298.17546115596082
  0
LINE
  8
_0-8_
  6
CONTINUOUS
 62
    7
 10
294.78191041466147
 20
298.17546115596082
 11
295.72995276089028
 21
298.37542307729177
  0
LINE
  8
_0-8_
  6
CONTINUOUS
 62
    7
 10
295.72995276089028
 20
298.37542307729177
 11
296.54831996944966
 21
298.62193674415659
  0
LINE
  8
_0-8_
  6
CONTINUOUS
 62
    7
 10
296.54831996944966
 20
298.62193674415659
 11
297.21214636682106
 21
298.90751196352966
  0
LINE
  8
_0-8_
  6
CONTINUOUS
 62
    7
 10
297.21214636682106
 20
298.90751196352966
 11
297.70126192383299
 21
299.22347167687826
  0
LINE
  8
_0-8_
  6
CONTINUOUS
 62
    7
 10
297.70126192383299
 20
299.22347167687826
 11
298.00080511178982
 21
299.56021560819579
  0
LINE
  8
_0-8_
  6
CONTINUOUS
 62
    7
 10
298.00080511178982
 20
299.56021560819579
 11
298.10167446250176
 21
299.9075119635296
  0
LINE
  8
_0-8_
  6
CONTINUOUS
 62
    7
 10
298.10167446250176
 20
299.90751189928488
 11
298.15210915637539
 21
299.56021554492708
  0
LINE
  8
_0-8_
  6
CONTINUOUS
 62
    7
 10
298.15210915637539
 20
299.56021554492708
 11
298.30188076830876
 21
299.22347161650805
  0
LINE
  8
_0-8_
  6
CONTINUOUS
 62
    7
 10
298.30188076830876
 20
299.22347161650805
 11
298.54643856366141
 21
298.90751190789211
  0
LINE
  8
_0-8_
  6
CONTINUOUS
 62
    7
 10
298.54643856366141
 20
298.90751190789211
 11
298.87835177757387
 21
298.62193669494229
  0
LINE
  8
_0-8_
  6
CONTINUOUS
 62
    7
 10
298.87835177757387
 20
298.62193669494229
 11
299.28753539499741
 21
298.37542303599605
  0
LINE
  8
_0-8_
  6
CONTINUOUS
 62
    7
 10
299.28753539499741
 20
298.37542303599605
 11
299.76155657877365
 21
298.17546112383843
  0
LINE
  8
_0-8_
  6
CONTINUOUS
 62
    7
 10
299.76155657877365
 20
298.17546112383843
 11
300.28601243509985
 21
298.02812669998491
  0
LINE
  8
_0-8_
  6
CONTINUOUS
 62
    7
 10
300.28601243509985
 20
298.02812669998491
 11
300.84496763816895
 21
297.93789644634933
  0
LINE
  8
_0-8_
  6
CONTINUOUS
 62
    7
 10
300.84496763816895
 20
297.93789644634933
 11
301.42143861698065
 21
297.90751196352971
  0
LINE
  8
_0-8_
  6
CONTINUOUS
 62
    7
 10
301.42143861698065
 20
297.90751196352971
 11
301.99790959255228
 21
297.93789646866128
  0
LINE
  8
_0-8_
  6
CONTINUOUS
 62
    7
 10
301.99790959255228
 20
297.93789646866128
 11
302.55686478599938
 21
298.0281267439309
  0
LINE
  8
_0-8_
  6
CONTINUOUS
 62
    7
 10
302.55686478599938
 20
298.0281267439309
 11
303.08132062661394
 21
298.1754611880832
  0
LINE
  8
_0-8_
  6
CONTINUOUS
 62
    7
 10
303.08132062661394
 20
298.1754611880832
 11
303.55534178906652
 21
298.37542311858743
  0
LINE
  8
_0-8_
  6
CONTINUOUS
 62
    7
 10
303.55534178906652
 20
298.37542311858743
 11
303.96452538020225
 21
298.62193679337088
  0
LINE
  8
_0-8_
  6
CONTINUOUS
 62
    7
 10
303.96452538020225
 20
298.62193679337088
 11
304.2964385636613
 21
298.9075120191672
  0
LINE
  8
_0-8_
  6
CONTINUOUS
 62
    7
 10
304.2964385636613
 20
298.9075120191672
 11
304.54099632532046
 21
299.22347173724859
  0
LINE
  8
_0-8_
  6
CONTINUOUS
 62
    7
 10
304.54099632532046
 20
299.22347173724859
 11
304.69076790134392
 21
299.56021567146445
  0
LINE
  8
_0-8_
  6
CONTINUOUS
 62
    7
 10
304.69076790134392
 20
299.56021567146445
 11
304.74120255818235
 21
299.9075119635296
  0
LINE
  8
_0-8_
  6
CONTINUOUS
 62
    7
 10
298.10167446250176
 20
304.60751196352987
 11
298.00080511178982
 21
304.95480831886368
  0
LINE
  8
_0-8_
  6
CONTINUOUS
 62
    7
 10
298.00080511178982
 20
304.95480831886368
 11
297.70126192383299
 21
305.29155225018121
  0
LINE
  8
_0-8_
  6
CONTINUOUS
 62
    7
 10
297.70126192383299
 20
305.29155225018121
 11
297.21214636682106
 21
305.60751196352982
  0
LINE
  8
_0-8_
  6
CONTINUOUS
 62
    7
 10
297.21214636682106
 20
305.60751196352982
 11
296.54831996944966
 21
305.89308718290289
  0
LINE
  8
_0-8_
  6
CONTINUOUS
 62
    7
 10
296.54831996944966
 20
305.89308718290289
 11
295.72995276089028
 21
306.1396008497677
  0
LINE
  8
_0-8_
  6
CONTINUOUS
 62
    7
 10
295.72995276089028
 20
306.1396008497677
 11
294.78191041466147
 21
306.33956277109866
  0
LINE
  8
_0-8_
  6
CONTINUOUS
 62
    7
 10
294.78191041466147
 20
306.33956277109866
 11
293.7329987177207
 21
306.48689720510157
  0
LINE
  8
_0-8_
  6
CONTINUOUS
 62
    7
 10
293.7329987177207
 20
306.48689720510157
 11
292.6150883212045
 21
306.57712746955417
  0
LINE
  8
_0-8_
  6
CONTINUOUS
 62
    7
 10
292.6150883212045
 20
306.57712746955417
 11
291.46214636682117
 21
306.60751196352976
  0
LINE
  8
_0-8_
  6
CONTINUOUS
 62
    7
 10
291.46214636682117
 20
306.60751196352976
 11
290.30920441243785
 21
306.57712746955417
  0
LINE
  8
_0-8_
  6
CONTINUOUS
 62
    7
 10
290.30920441243785
 20
306.57712746955417
 11
289.19129401592164
 21
306.48689720510157
  0
LINE
  8
_0-8_
  6
CONTINUOUS
 62
    7
 10
289.19129401592164
 20
306.48689720510157
 11
288.14238231898088
 21
306.33956277109866
  0
LINE
  8
_0-8_
  6
CONTINUOUS
 62
    7
 10
288.14238231898088
 20
306.33956277109866
 11
287.19433997275206
 21
306.1396008497677
  0
LINE
  8
_0-8_
  6
CONTINUOUS
 62
    7
 10
287.19433997275206
 20
306.1396008497677
 11
286.37597276419268
 21
305.89308718290289
  0
LINE
  8
_0-8_
  6
CONTINUOUS
 62
    7
 10
286.37597276419268
 20
305.89308718290289
 11
285.71214636682129
 21
305.60751196352982
  0
LINE
  8
_0-8_
  6
CONTINUOUS
 62
    7
 10
285.71214636682129
 20
305.60751196352982
 11
285.22303080980936
 21
305.29155225018121
  0
LINE
  8
_0-8_
  6
CONTINUOUS
 62
    7
 10
285.22303080980936
 20
305.29155225018121
 11
284.92348762185253
 21
304.95480831886368
  0
LINE
  8
_0-8_
  6
CONTINUOUS
 62
    7
 10
284.92348762185253
 20
304.95480831886368
 11
284.82261827114058
 21
304.60751196352987
  0
LINE
  8
_0-8_
  6
CONTINUOUS
 62
    7
 10
304.74120255818235
 20
304.60751196352987
 11
304.69076788282638
 21
304.95480831886368
  0
LINE
  8
_0-8_
  6
CONTINUOUS
 62
    7
 10
304.69076788282638
 20
304.95480831886368
 11
304.54099628884791
 21
305.29155225018121
  0
LINE
  8
_0-8_
  6
CONTINUOUS
 62
    7
 10
304.54099628884791
 20
305.29155225018121
 11
304.29643851034206
 21
305.60751196352982
  0
LINE
  8
_0-8_
  6
CONTINUOUS
 62
    7
 10
304.29643851034206
 20
305.60751196352982
 11
303.96452531165625
 21
305.89308718290289
  0
LINE
  8
_0-8_
  6
CONTINUOUS
 62
    7
 10
303.96452531165625
 20
305.89308718290289
 11
303.55534170737661
 21
306.1396008497677
  0
LINE
  8
_0-8_
  6
CONTINUOUS
 62
    7
 10
303.55534170737661
 20
306.1396008497677
 11
303.08132053426226
 21
306.33956277109866
  0
LINE
  8
_0-8_
  6
CONTINUOUS
 62
    7
 10
303.08132053426226
 20
306.33956277109866
 11
302.55686468579182
 21
306.48689720510157
  0
LINE
  8
_0-8_
  6
CONTINUOUS
 62
    7
 10
302.55686468579182
 20
306.48689720510157
 11
301.99790948753372
 21
306.57712746955417
  0
LINE
  8
_0-8_
  6
CONTINUOUS
 62
    7
 10
301.99790948753372
 20
306.57712746955417
 11
301.42143851034206
 21
306.60751196352976
  0
LINE
  8
_0-8_
  6
CONTINUOUS
 62
    7
 10
301.42143851034206
 20
306.60751196352976
 11
300.8449675331504
 21
306.57712746955417
  0
LINE
  8
_0-8_
  6
CONTINUOUS
 62
    7
 10
300.8449675331504
 20
306.57712746955417
 11
300.28601233489229
 21
306.48689720510157
  0
LINE
  8
_0-8_
  6
CONTINUOUS
 62
    7
 10
300.28601233489229
 20
306.48689720510157
 11
299.76155648642197
 21
306.33956277109866
  0
LINE
  8
_0-8_
  6
CONTINUOUS
 62
    7
 10
299.76155648642197
 20
306.33956277109866
 11
299.2875353133075
 21
306.1396008497677
  0
LINE
  8
_0-8_
  6
CONTINUOUS
 62
    7
 10
299.2875353133075
 20
306.1396008497677
 11
298.87835170902787
 21
305.89308718290289
  0
LINE
  8
_0-8_
  6
CONTINUOUS
 62
    7
 10
298.87835170902787
 20
305.89308718290289
 11
298.54643851034206
 21
305.60751196352982
  0
LINE
  8
_0-8_
  6
CONTINUOUS
 62
    7
 10
298.54643851034206
 20
305.60751196352982
 11
298.30188073183621
 21
305.29155225018121
  0
LINE
  8
_0-8_
  6
CONTINUOUS
 62
    7
 10
298.30188073183621
 20
305.29155225018121
 11
298.15210913785774
 21
304.95480831886368
  0
LINE
  8
_0-8_
  6
CONTINUOUS
 62
    7
 10
298.15210913785774
 20
304.95480831886368
 11
298.10167446250176
 21
304.60751202777459
  0
LINE
  8
_0-8_
  6
CONTINUOUS
 62
    7
 10
284.82261827114058
 20
304.60751202777459
 11
284.77218357726696
 21
304.9548083821324
  0
LINE
  8
_0-8_
  6
CONTINUOUS
 62
    7
 10
284.77218357726696
 20
304.9548083821324
 11
284.62241196533358
 21
305.29155231055142
  0
LINE
  8
_0-8_
  6
CONTINUOUS
 62
    7
 10
284.62241196533358
 20
305.29155231055142
 11
284.37785416998094
 21
305.60751201916736
  0
LINE
  8
_0-8_
  6
CONTINUOUS
 62
    7
 10
284.37785416998094
 20
305.60751201916736
 11
284.04594095606848
 21
305.89308723211718
  0
LINE
  8
_0-8_
  6
CONTINUOUS
 62
    7
 10
284.04594095606848
 20
305.89308723211718
 11
283.63675733864494
 21
306.13960089106342
  0
LINE
  8
_0-8_
  6
CONTINUOUS
 62
    7
 10
283.63675733864494
 20
306.13960089106342
 11
283.1627361548687
 21
306.33956280322104
  0
LINE
  8
_0-8_
  6
CONTINUOUS
 62
    7
 10
283.1627361548687
 20
306.33956280322104
 11
282.6382802985425
 21
306.48689722707456
  0
LINE
  8
_0-8_
  6
CONTINUOUS
 62
    7
 10
282.6382802985425
 20
306.48689722707456
 11
282.07932509547339
 21
306.57712748071015
  0
LINE
  8
_0-8_
  6
CONTINUOUS
 62
    7
 10
282.07932509547339
 20
306.57712748071015
 11
281.50285411666169
 21
306.60751196352976
  0
LINE
  8
_0-8_
  6
CONTINUOUS
 62
    7
 10
281.50285411666169
 20
306.60751196352976
 11
280.92638314109007
 21
306.57712745839819
  0
LINE
  8
_0-8_
  6
CONTINUOUS
 62
    7
 10
280.92638314109007
 20
306.57712745839819
 11
280.36742794764297
 21
306.48689718312858
  0
LINE
  8
_0-8_
  6
CONTINUOUS
 62
    7
 10
280.36742794764297
 20
306.48689718312858
 11
279.8429721070284
 21
306.33956273897627
  0
LINE
  8
_0-8_
  6
CONTINUOUS
 62
    7
 10
279.8429721070284
 20
306.33956273897627
 11
279.36895094457583
 21
306.13960080847204
  0
LINE
  8
_0-8_
  6
CONTINUOUS
 62
    7
 10
279.36895094457583
 20
306.13960080847204
 11
278.9597673534401
 21
305.8930871336886
  0
LINE
  8
_0-8_
  6
CONTINUOUS
 62
    7
 10
278.9597673534401
 20
305.8930871336886
 11
278.62785416998105
 21
305.60751190789227
  0
LINE
  8
_0-8_
  6
CONTINUOUS
 62
    7
 10
278.62785416998105
 20
305.60751190789227
 11
278.38329640832188
 21
305.29155218981089
  0
LINE
  8
_0-8_
  6
CONTINUOUS
 62
    7
 10
278.38329640832188
 20
305.29155218981089
 11
278.23352483229843
 21
304.95480825559503
  0
LINE
  8
_0-8_
  6
CONTINUOUS
 62
    7
 10
278.23352483229843
 20
304.95480825559503
 11
278.18309017545999
 21
304.60751196352987
  0
LINE
  8
_0-8_
  6
CONTINUOUS
 62
    7
 10
299.46214633203937
 20
297.90751196352971
 11
299.46214633203937
 21
228.60751196352976
  0
LINE
  8
_0-8_
  6
CONTINUOUS
 62
    7
 10
298.56214627143942
 20
228.60751196352976
 11
298.56214627143942
 21
297.90751196352971
  0
LINE
  8
_0-8_
  6
CONTINUOUS
 62
    7
 10
284.36214646213915
 20
297.90751196352971
 11
284.36214646213915
 21
228.60751196352976
  0
LINE
  8
_0-8_
  6
CONTINUOUS
 62
    7
 10
283.46214633203914
 20
228.60751196352976
 11
283.46214633203914
 21
297.90751196352971
  0
LINE
  8
_0-9_
  6
PHANTOM1
 62
  152
 10
266.46214636682117
 20
273.6075119635293
 11
266.46214636682117
 21
276.60751196352999
  0
LINE
  8
_0-9_
  6
PHANTOM1
 62
  152
 10
268.41214636682099
 20
270.60751196352976
 11
268.41214636682099
 21
273.6075119635293
  0
LINE
  8
_0-9_
  6
PHANTOM1
 62
  152
 10
266.71214636682095
 20
276.60751196352999
 11
266.71214636682095
 21
284.10751196352999
  0
ARC
  8
_0-9_
  6
PHANTOM1
 62
  152
 10
269.71214636682117
 20
284.10751196352999
 40
2.9999999999999858
 50
89.999999999999829
 51
180.0000000000002
  0
LINE
  8
_0-9_
  6
PHANTOM1
 62
  152
 10
314.51214636682181
 20
270.60751196352976
 11
268.41214636682099
 21
270.60751196352976
  0
ARC
  8
_0-9_
  6
PHANTOM1
 62
  152
 10
313.21214636682117
 20
284.10751196352999
 40
2.9999999999999933
 50
359.99999999999977
 51
90.000000000000199
  0
LINE
  8
_0-9_
  6
PHANTOM1
 62
  152
 10
316.2121463668214
 20
284.10751196352999
 11
316.2121463668214
 21
276.60751196352999
  0
LINE
  8
_0-9_
  6
PHANTOM1
 62
  152
 10
316.46214636682117
 20
276.60751196352999
 11
316.46214636682117
 21
273.6075119635293
  0
LINE
  8
_0-9_
  6
PHANTOM1
 62
  152
 10
314.51214636682181
 20
273.6075119635293
 11
314.51214636682181
 21
270.60751196352976
  0
LINE
  8
_0-9_
  6
PHANTOM1
 62
  152
 10
266.46214636682117
 20
276.60751196352999
 11
266.71214636682095
 21
276.60751196352999
  0
LINE
  8
_0-9_
  6
PHANTOM1
 62
  152
 10
316.2121463668214
 20
276.60751196352999
 11
316.46214636682117
 21
276.60751196352999
  0
LINE
  8
_0-9_
  6
PHANTOM1
 62
  152
 10
316.46214636682117
 20
273.6075119635293
 11
314.51214636682181
 21
273.6075119635293
  0
LINE
  8
_0-9_
  6
PHANTOM1
 62
  152
 10
268.41214636682099
 20
273.6075119635293
 11
266.46214636682117
 21
273.6075119635293
  0
LINE
  8
_0-9_
  6
PHANTOM1
 62
  152
 10
309.46214636682117
 20
287.10751196352953
 11
313.21214636682117
 21
287.10751196352953
  0
LINE
  8
_0-9_
  6
PHANTOM1
 62
  152
 10
278.76044044464976
 20
296.6075119635293
 11
278.76044044464976
 21
289.50751196352962
  0
LINE
  8
_0-9_
  6
PHANTOM1
 62
  152
 10
309.46214636682117
 20
287.10751196352953
 11
309.46214636682117
 21
287.50751196352985
  0
LINE
  8
_0-9_
  6
PHANTOM1
 62
  152
 10
273.71214636682072
 20
287.50751196352985
 11
273.71214636682072
 21
287.10751196352953
  0
LINE
  8
_0-9_
  6
PHANTOM1
 62
  152
 10
269.71214636682117
 20
287.10751196352953
 11
273.71214636682072
 21
287.10751196352953
  0
LINE
  8
_0-9_
  6
PHANTOM1
 62
  152
 10
300.98842580844945
 20
287.50751196352974
 11
300.98842580844945
 21
287.50751196352974
  0
LINE
  8
_0-9_
  6
PHANTOM1
 62
  152
 10
300.98842580844945
 20
287.50751196352974
 11
301.53983283011098
 21
287.53789645750533
  0
LINE
  8
_0-9_
  6
PHANTOM1
 62
  152
 10
301.53983283011098
 20
287.53789645750533
 11
302.07448562844473
 21
287.62812672195793
  0
LINE
  8
_0-9_
  6
PHANTOM1
 62
  152
 10
302.07448562844473
 20
287.62812672195793
 11
302.57613904872073
 21
287.77546115596084
  0
LINE
  8
_0-9_
  6
PHANTOM1
 62
  152
 10
302.57613904872073
 20
287.77546115596084
 11
303.02955060561277
 21
287.97542307729174
  0
LINE
  8
_0-9_
  6
PHANTOM1
 62
  152
 10
303.02955060561277
 20
287.97542307729174
 11
303.42094361840196
 21
288.22193674415661
  0
LINE
  8
_0-9_
  6
PHANTOM1
 62
  152
 10
303.42094361840196
 20
288.22193674415661
 11
303.73842580844911
 21
288.50751196352968
  0
LINE
  8
_0-9_
  6
PHANTOM1
 62
  152
 10
303.73842580844911
 20
288.50751196352968
 11
303.9723506400635
 21
288.82347167687834
  0
LINE
  8
_0-9_
  6
PHANTOM1
 62
  152
 10
303.9723506400635
 20
288.82347167687834
 11
304.11561042560805
 21
289.16021560819576
  0
LINE
  8
_0-9_
  6
PHANTOM1
 62
  152
 10
304.11561042560805
 20
289.16021560819576
 11
304.16385228899202
 21
289.50751196352962
  0
LINE
  8
_0-9_
  6
PHANTOM1
 62
  152
 10
309.46214636682117
 20
287.50751196352985
 11
300.98842580844945
 21
287.50751196352985
  0
LINE
  8
_0-9_
  6
PHANTOM1
 62
  152
 10
273.71214636682072
 20
287.50751196352985
 11
281.9358669251929
 21
287.50751196352985
  0
LINE
  8
_0-9_
  6
PHANTOM1
 62
  152
 10
278.76044044465033
 20
289.50751196352962
 11
278.76044044465033
 21
289.50751196352962
  0
LINE
  8
_0-9_
  6
PHANTOM1
 62
  152
 10
278.76044044465033
 20
289.50751196352962
 11
278.80868230803429
 21
289.16021560819576
  0
LINE
  8
_0-9_
  6
PHANTOM1
 62
  152
 10
278.80868230803429
 20
289.16021560819576
 11
278.95194209357885
 21
288.82347167687834
  0
LINE
  8
_0-9_
  6
PHANTOM1
 62
  152
 10
278.95194209357885
 20
288.82347167687834
 11
279.18586692519324
 21
288.50751196352968
  0
LINE
  8
_0-9_
  6
PHANTOM1
 62
  152
 10
279.18586692519324
 20
288.50751196352968
 11
279.50334911524038
 21
288.22193674415661
  0
LINE
  8
_0-9_
  6
PHANTOM1
 62
  152
 10
279.50334911524038
 20
288.22193674415661
 11
279.89474212802958
 21
287.97542307729174
  0
LINE
  8
_0-9_
  6
PHANTOM1
 62
  152
 10
279.89474212802958
 20
287.97542307729174
 11
280.34815368492161
 21
287.77546115596084
  0
LINE
  8
_0-9_
  6
PHANTOM1
 62
  152
 10
280.34815368492161
 20
287.77546115596084
 11
280.84980710519761
 21
287.62812672195793
  0
LINE
  8
_0-9_
  6
PHANTOM1
 62
  152
 10
280.84980710519761
 20
287.62812672195793
 11
281.38445990353136
 21
287.53789645750533
  0
LINE
  8
_0-9_
  6
PHANTOM1
 62
  152
 10
281.38445990353136
 20
287.53789645750533
 11
281.9358669251929
 21
287.50751196352974
  0
LINE
  8
_0-9_
  6
PHANTOM1
 62
  152
 10
304.16385228899259
 20
289.50751196352962
 11
304.16385228899259
 21
296.6075119635293
  0
LINE
  8
_0-8_
  6
CONTINUOUS
 62
  152
 10
724.63141376682108
 20
215.40751196353
 11
674.63141376682108
 21
215.40751196353
  0
LINE
  8
_0-8_
  6
CONTINUOUS
 62
    7
 10
674.38141376682131
 20
207.60751196352999
 11
674.38141376682131
 21
204.60751196352987
  0
LINE
  8
_0-8_
  6
CONTINUOUS
 62
    7
 10
674.38141376682131
 20
204.60751196352987
 11
724.88141376682086
 21
204.60751196352987
  0
LINE
  8
_0-8_
  6
CONTINUOUS
 62
    7
 10
724.88141376682086
 20
204.60751196352987
 11
724.88141376682086
 21
207.60751196352999
  0
LINE
  8
_0-8_
  6
CONTINUOUS
 62
    7
 10
724.88141376682086
 20
207.60751196352999
 11
674.38141376682131
 21
207.60751196352999
  0
LINE
  8
_0-8_
  6
CONTINUOUS
 62
    7
 10
676.33141376682124
 20
204.60751196352987
 11
676.33141376682124
 21
201.60751196352976
  0
LINE
  8
_0-8_
  6
CONTINUOUS
 62
    7
 10
676.33141376682124
 20
201.60751196352976
 11
722.93141376682149
 21
201.60751196352976
  0
LINE
  8
_0-8_
  6
CONTINUOUS
 62
    7
 10
722.93141376682149
 20
201.60751196352976
 11
722.93141376682149
 21
204.60751196352987
  0
LINE
  8
_0-8_
  6
CONTINUOUS
 62
    7
 10
686.92970784464967
 20
228.60751196352976
 11
712.3331196889925
 21
228.60751196352976
  0
LINE
  8
_0-8_
  6
CONTINUOUS
 62
    7
 10
693.28056080573538
 20
228.60751196352976
 11
693.28056080573538
 21
220.80751196352986
  0
LINE
  8
_0-8_
  6
CONTINUOUS
 62
    7
 10
686.92970784464967
 20
220.80751196352986
 11
686.92970784464967
 21
228.60751196352976
  0
LINE
  8
_0-8_
  6
CONTINUOUS
 62
    7
 10
712.3331196889925
 20
228.60751196352976
 11
712.3331196889925
 21
220.80751196352986
  0
LINE
  8
_0-8_
  6
CONTINUOUS
 62
    7
 10
705.98226672573537
 20
220.80751196352986
 11
705.98226672573537
 21
228.60751196352976
  0
LINE
  8
_0-8_
  6
CONTINUOUS
 62
    7
 10
717.6314137668212
 20
218.80751196352998
 11
717.6314137668212
 21
218.40751196352977
  0
LINE
  8
_0-8_
  6
CONTINUOUS
 62
    7
 10
717.6314137668212
 20
218.80751196352998
 11
681.63141376682097
 21
218.80751196352998
  0
LINE
  8
_0-8_
  6
CONTINUOUS
 62
    7
 10
681.63141376682097
 20
218.80751196352998
 11
681.63141376682097
 21
218.40751196352977
  0
LINE
  8
_0-8_
  6
CONTINUOUS
 62
    7
 10
677.6314137668212
 20
218.40751196352977
 11
721.63141376652595
 21
218.40751196352977
  0
LINE
  8
_0-8_
  6
CONTINUOUS
 62
    7
 10
674.63141376682108
 20
215.40751196353
 11
674.63141376682108
 21
207.60751196352999
  0
LINE
  8
_0-8_
  6
CONTINUOUS
 62
    7
 10
724.63141376682108
 20
207.60751196352999
 11
724.63141376682108
 21
215.40751196353
  0
ARC
  8
_0-8_
  6
CONTINUOUS
 62
    7
 10
677.6314137668212
 20
215.40751196353
 40
2.9999999999999858
 50
89.999999999999829
 51
180.0000000000002
  0
ARC
  8
_0-8_
  6
CONTINUOUS
 62
    7
 10
721.63141376682097
 20
215.40751196353
 40
2.9999999999999933
 50
359.99999999999977
 51
90.000000000000199
  0
LINE
  8
_0-8_
  6
CONTINUOUS
 62
    7
 10
686.92970784465024
 20
220.80751196352986
 11
686.9779497080342
 21
220.46021560819605
  0
LINE
  8
_0-8_
  6
CONTINUOUS
 62
    7
 10
686.9779497080342
 20
220.46021560819605
 11
687.12120949357882
 21
220.12347167687858
  0
LINE
  8
_0-8_
  6
CONTINUOUS
 62
    7
 10
687.12120949357882
 20
220.12347167687858
 11
687.35513432519315
 21
219.80751196352992
  0
LINE
  8
_0-8_
  6
CONTINUOUS
 62
    7
 10
687.35513432519315
 20
219.80751196352992
 11
687.67261651524029
 21
219.52193674415685
  0
LINE
  8
_0-8_
  6
CONTINUOUS
 62
    7
 10
687.67261651524029
 20
219.52193674415685
 11
688.06400952802949
 21
219.27542307729198
  0
LINE
  8
_0-8_
  6
CONTINUOUS
 62
    7
 10
688.06400952802949
 20
219.27542307729198
 11
688.51742108492147
 21
219.07546115596108
  0
LINE
  8
_0-8_
  6
CONTINUOUS
 62
    7
 10
688.51742108492147
 20
219.07546115596108
 11
689.01907450519752
 21
218.92812672195817
  0
LINE
  8
_0-8_
  6
CONTINUOUS
 62
    7
 10
689.01907450519752
 20
218.92812672195817
 11
689.55372730353133
 21
218.83789645750556
  0
LINE
  8
_0-8_
  6
CONTINUOUS
 62
    7
 10
689.55372730353133
 20
218.83789645750556
 11
690.10513432519281
 21
218.80751196352998
  0
LINE
  8
_0-8_
  6
CONTINUOUS
 62
    7
 10
690.10513432519281
 20
218.80751196352998
 11
690.65654134685428
 21
218.83789645750556
  0
LINE
  8
_0-8_
  6
CONTINUOUS
 62
    7
 10
690.65654134685428
 20
218.83789645750556
 11
691.19119414518809
 21
218.92812672195817
  0
LINE
  8
_0-8_
  6
CONTINUOUS
 62
    7
 10
691.19119414518809
 20
218.92812672195817
 11
691.69284756546404
 21
219.07546115596108
  0
LINE
  8
_0-8_
  6
CONTINUOUS
 62
    7
 10
691.69284756546404
 20
219.07546115596108
 11
692.14625912235613
 21
219.27542307729198
  0
LINE
  8
_0-8_
  6
CONTINUOUS
 62
    7
 10
692.14625912235613
 20
219.27542307729198
 11
692.53765213514532
 21
219.52193674415685
  0
LINE
  8
_0-8_
  6
CONTINUOUS
 62
    7
 10
692.53765213514532
 20
219.52193674415685
 11
692.85513432519247
 21
219.80751196352992
  0
LINE
  8
_0-8_
  6
CONTINUOUS
 62
    7
 10
692.85513432519247
 20
219.80751196352992
 11
693.0890591568068
 21
220.12347167687858
  0
LINE
  8
_0-8_
  6
CONTINUOUS
 62
    7
 10
693.0890591568068
 20
220.12347167687858
 11
693.23231894235141
 21
220.46021560819605
  0
LINE
  8
_0-8_
  6
CONTINUOUS
 62
    7
 10
693.23231894235141
 20
220.46021560819605
 11
693.28056080573538
 21
220.80751196352986
  0
LINE
  8
_0-8_
  6
CONTINUOUS
 62
    7
 10
693.28056080573538
 20
220.80751196352986
 11
693.28056080573538
 21
220.80751210715869
  0
LINE
  8
_0-8_
  6
CONTINUOUS
 62
    7
 10
693.28056080573538
 20
220.80751210715869
 11
693.37704445328893
 21
220.46021574964283
  0
LINE
  8
_0-8_
  6
CONTINUOUS
 62
    7
 10
693.37704445328893
 20
220.46021574964283
 11
693.66356394753757
 21
220.12347181184549
  0
LINE
  8
_0-8_
  6
CONTINUOUS
 62
    7
 10
693.66356394753757
 20
220.12347181184549
 11
694.13141353863443
 21
219.80751208791611
  0
LINE
  8
_0-8_
  6
CONTINUOUS
 62
    7
 10
694.13141353863443
 20
219.80751208791611
 11
694.76637785349737
 21
219.52193685418291
  0
LINE
  8
_0-8_
  6
CONTINUOUS
 62
    7
 10
694.76637785349737
 20
219.52193685418291
 11
695.54916382272665
 21
219.27542316961484
  0
LINE
  8
_0-8_
  6
CONTINUOUS
 62
    7
 10
695.54916382272665
 20
219.27542316961484
 11
696.45598689075609
 21
219.07546122777552
  0
LINE
  8
_0-8_
  6
CONTINUOUS
 62
    7
 10
696.45598689075609
 20
219.07546122777552
 11
697.45929369753833
 21
218.92812677108208
  0
LINE
  8
_0-8_
  6
CONTINUOUS
 62
    7
 10
697.45929369753833
 20
218.92812677108208
 11
698.52859927344684
 21
218.83789648244647
  0
LINE
  8
_0-8_
  6
CONTINUOUS
 62
    7
 10
698.52859927344684
 20
218.83789648244647
 11
699.63141330965254
 21
218.80751196352998
  0
LINE
  8
_0-8_
  6
CONTINUOUS
 62
    7
 10
699.63141330965254
 20
218.80751196352998
 11
700.7342273597161
 21
218.83789643256466
  0
LINE
  8
_0-8_
  6
CONTINUOUS
 62
    7
 10
700.7342273597161
 20
218.83789643256466
 11
701.80353297677721
 21
218.9281266728342
  0
LINE
  8
_0-8_
  6
CONTINUOUS
 62
    7
 10
701.80353297677721
 20
218.9281266728342
 11
702.80683985075609
 21
219.0754610841467
  0
LINE
  8
_0-8_
  6
CONTINUOUS
 62
    7
 10
702.80683985075609
 20
219.0754610841467
 11
703.71366300998477
 21
219.27542298496917
  0
LINE
  8
_0-8_
  6
CONTINUOUS
 62
    7
 10
703.71366300998477
 20
219.27542298496917
 11
704.49644909164476
 21
219.52193663413078
  0
LINE
  8
_0-8_
  6
CONTINUOUS
 62
    7
 10
704.49644909164476
 20
219.52193663413078
 11
705.1314135367536
 21
219.80751183914373
  0
LINE
  8
_0-8_
  6
CONTINUOUS
 62
    7
 10
705.1314135367536
 20
219.80751183914373
 11
705.59926327195421
 21
220.12347154191161
  0
LINE
  8
_0-8_
  6
CONTINUOUS
 62
    7
 10
705.59926327195421
 20
220.12347154191161
 11
705.88578291978592
 21
220.46021546674922
  0
LINE
  8
_0-8_
  6
CONTINUOUS
 62
    7
 10
705.88578291978592
 20
220.46021546674922
 11
705.98226672573537
 21
220.80751181990104
  0
LINE
  8
_0-8_
  6
CONTINUOUS
 62
    7
 10
705.98226672573537
 20
220.80751181990104
 11
705.98226672573537
 21
220.80751196352986
  0
LINE
  8
_0-8_
  6
CONTINUOUS
 62
    7
 10
705.98226672790679
 20
220.80751210715869
 11
706.03050855169181
 21
220.46021574964283
  0
LINE
  8
_0-8_
  6
CONTINUOUS
 62
    7
 10
706.03050855169181
 20
220.46021574964283
 11
706.17376829884063
 21
220.12347181184549
  0
LINE
  8
_0-8_
  6
CONTINUOUS
 62
    7
 10
706.17376829884063
 20
220.12347181184549
 11
706.40769309442896
 21
219.80751208791611
  0
LINE
  8
_0-8_
  6
CONTINUOUS
 62
    7
 10
706.40769309442896
 20
219.80751208791611
 11
706.72517525191472
 21
219.52193685418291
  0
LINE
  8
_0-8_
  6
CONTINUOUS
 62
    7
 10
706.72517525191472
 20
219.52193685418291
 11
707.11656823659621
 21
219.27542316961484
  0
LINE
  8
_0-8_
  6
CONTINUOUS
 62
    7
 10
707.11656823659621
 20
219.27542316961484
 11
707.56997977068841
 21
219.07546122777552
  0
LINE
  8
_0-8_
  6
CONTINUOUS
 62
    7
 10
707.56997977068841
 20
219.07546122777552
 11
708.0716331741653
 21
218.92812677108208
  0
LINE
  8
_0-8_
  6
CONTINUOUS
 62
    7
 10
708.0716331741653
 20
218.92812677108208
 11
708.6062859622109
 21
218.83789648244647
  0
LINE
  8
_0-8_
  6
CONTINUOUS
 62
    7
 10
708.6062859622109
 20
218.83789648244647
 11
709.157692980408
 21
218.80751196352998
  0
LINE
  8
_0-8_
  6
CONTINUOUS
 62
    7
 10
709.157692980408
 20
218.80751196352998
 11
709.70910000553397
 21
218.83789643256466
  0
LINE
  8
_0-8_
  6
CONTINUOUS
 62
    7
 10
709.70910000553397
 20
218.83789643256466
 11
710.24375281415587
 21
218.9281266728342
  0
LINE
  8
_0-8_
  6
CONTINUOUS
 62
    7
 10
710.24375281415587
 20
218.9281266728342
 11
710.74540625123097
 21
219.0754610841467
  0
LINE
  8
_0-8_
  6
CONTINUOUS
 62
    7
 10
710.74540625123097
 20
219.0754610841467
 11
711.19881783092285
 21
219.27542298496917
  0
LINE
  8
_0-8_
  6
CONTINUOUS
 62
    7
 10
711.19881783092285
 20
219.27542298496917
 11
711.59021087181964
 21
219.52193663413078
  0
LINE
  8
_0-8_
  6
CONTINUOUS
 62
    7
 10
711.59021087181964
 20
219.52193663413078
 11
711.90769309442828
 21
219.80751183914373
  0
LINE
  8
_0-8_
  6
CONTINUOUS
 62
    7
 10
711.90769309442828
 20
219.80751183914373
 11
712.14161796206861
 21
220.12347154191161
  0
LINE
  8
_0-8_
  6
CONTINUOUS
 62
    7
 10
712.14161796206861
 20
220.12347154191161
 11
712.28487778600902
 21
220.46021546674922
  0
LINE
  8
_0-8_
  6
CONTINUOUS
 62
    7
 10
712.28487778600902
 20
220.46021546674922
 11
712.33311968899193
 21
220.80751181990104
  0
LINE
  8
_0-8_
  6
CONTINUOUS
 62
    7
 10
712.33311968899193
 20
220.80751181990104
 11
712.33311968899193
 21
220.80751196352986
  0
LINE
  8
_0-8_
  6
CONTINUOUS
 62
    7
 10
686.35235757545991
 20
304.60751196352987
 11
686.35235757545991
 21
299.9075119635296
  0
LINE
  8
_0-8_
  6
CONTINUOUS
 62
    7
 10
689.6721216233002
 20
297.90751196352971
 11
709.59070591034197
 21
297.90751196352971
  0
LINE
  8
_0-8_
  6
CONTINUOUS
 62
    7
 10
706.27094186250167
 20
299.9075119635296
 11
706.27094186250167
 21
304.60751196352987
  0
LINE
  8
_0-8_
  6
CONTINUOUS
 62
    7
 10
709.59070591034197
 20
306.60751196352976
 11
689.6721216233002
 21
306.60751196352976
  0
LINE
  8
_0-8_
  6
CONTINUOUS
 62
    7
 10
692.99188567114049
 20
304.60751196352987
 11
692.99188567114049
 21
299.9075119635296
  0
LINE
  8
_0-8_
  6
CONTINUOUS
 62
    7
 10
712.91046995818226
 20
299.9075119635296
 11
712.91046995818226
 21
304.60751196352987
  0
LINE
  8
_0-8_
  6
CONTINUOUS
 62
    7
 10
686.35235757545991
 20
299.9075119635296
 11
686.40279225081588
 21
299.56021560819579
  0
LINE
  8
_0-8_
  6
CONTINUOUS
 62
    7
 10
686.40279225081588
 20
299.56021560819579
 11
686.55256384479435
 21
299.22347167687826
  0
LINE
  8
_0-8_
  6
CONTINUOUS
 62
    7
 10
686.55256384479435
 20
299.22347167687826
 11
686.7971216233002
 21
298.90751196352966
  0
LINE
  8
_0-8_
  6
CONTINUOUS
 62
    7
 10
686.7971216233002
 20
298.90751196352966
 11
687.12903482198601
 21
298.62193674415659
  0
LINE
  8
_0-8_
  6
CONTINUOUS
 62
    7
 10
687.12903482198601
 20
298.62193674415659
 11
687.53821842626564
 21
298.37542307729177
  0
LINE
  8
_0-8_
  6
CONTINUOUS
 62
    7
 10
687.53821842626564
 20
298.37542307729177
 11
688.01223959938
 21
298.17546115596082
  0
LINE
  8
_0-8_
  6
CONTINUOUS
 62
    7
 10
688.01223959938
 20
298.17546115596082
 11
688.53669544785043
 21
298.0281267219579
  0
LINE
  8
_0-8_
  6
CONTINUOUS
 62
    7
 10
688.53669544785043
 20
298.0281267219579
 11
689.09565064610854
 21
297.9378964575053
  0
LINE
  8
_0-8_
  6
CONTINUOUS
 62
    7
 10
689.09565064610854
 20
297.9378964575053
 11
689.6721216233002
 21
297.90751196352971
  0
LINE
  8
_0-8_
  6
CONTINUOUS
 62
    7
 10
689.6721216233002
 20
297.90751196352971
 11
690.24859260049186
 21
297.9378964575053
  0
LINE
  8
_0-8_
  6
CONTINUOUS
 62
    7
 10
690.24859260049186
 20
297.9378964575053
 11
690.80754779874997
 21
298.0281267219579
  0
LINE
  8
_0-8_
  6
CONTINUOUS
 62
    7
 10
690.80754779874997
 20
298.0281267219579
 11
691.33200364722029
 21
298.17546115596082
  0
LINE
  8
_0-8_
  6
CONTINUOUS
 62
    7
 10
691.33200364722029
 20
298.17546115596082
 11
691.80602482033476
 21
298.37542307729177
  0
LINE
  8
_0-8_
  6
CONTINUOUS
 62
    7
 10
691.80602482033476
 20
298.37542307729177
 11
692.21520842461439
 21
298.62193674415659
  0
LINE
  8
_0-8_
  6
CONTINUOUS
 62
    7
 10
692.21520842461439
 20
298.62193674415659
 11
692.5471216233002
 21
298.90751196352966
  0
LINE
  8
_0-8_
  6
CONTINUOUS
 62
    7
 10
692.5471216233002
 20
298.90751196352966
 11
692.79167940180605
 21
299.22347167687826
  0
LINE
  8
_0-8_
  6
CONTINUOUS
 62
    7
 10
692.79167940180605
 20
299.22347167687826
 11
692.94145099578452
 21
299.56021560819579
  0
LINE
  8
_0-8_
  6
CONTINUOUS
 62
    7
 10
692.94145099578452
 20
299.56021560819579
 11
692.99188567114049
 21
299.90751189928488
  0
LINE
  8
_0-8_
  6
CONTINUOUS
 62
    7
 10
692.99188567114049
 20
299.9075119635296
 11
693.09275502185244
 21
299.56021560819579
  0
LINE
  8
_0-8_
  6
CONTINUOUS
 62
    7
 10
693.09275502185244
 20
299.56021560819579
 11
693.39229820980927
 21
299.22347167687826
  0
LINE
  8
_0-8_
  6
CONTINUOUS
 62
    7
 10
693.39229820980927
 20
299.22347167687826
 11
693.8814137668212
 21
298.90751196352966
  0
LINE
  8
_0-8_
  6
CONTINUOUS
 62
    7
 10
693.8814137668212
 20
298.90751196352966
 11
694.54524016419259
 21
298.62193674415659
  0
LINE
  8
_0-8_
  6
CONTINUOUS
 62
    7
 10
694.54524016419259
 20
298.62193674415659
 11
695.36360737275197
 21
298.37542307729177
  0
LINE
  8
_0-8_
  6
CONTINUOUS
 62
    7
 10
695.36360737275197
 20
298.37542307729177
 11
696.31164971898079
 21
298.17546115596082
  0
LINE
  8
_0-8_
  6
CONTINUOUS
 62
    7
 10
696.31164971898079
 20
298.17546115596082
 11
697.36056141592155
 21
298.0281267219579
  0
LINE
  8
_0-8_
  6
CONTINUOUS
 62
    7
 10
697.36056141592155
 20
298.0281267219579
 11
698.47847181243776
 21
297.9378964575053
  0
LINE
  8
_0-8_
  6
CONTINUOUS
 62
    7
 10
698.47847181243776
 20
297.9378964575053
 11
699.63141376682108
 21
297.90751196352971
  0
LINE
  8
_0-8_
  6
CONTINUOUS
 62
    7
 10
699.63141376682108
 20
297.90751196352971
 11
700.78435572120441
 21
297.9378964575053
  0
LINE
  8
_0-8_
  6
CONTINUOUS
 62
    7
 10
700.78435572120441
 20
297.9378964575053
 11
701.90226611772061
 21
298.0281267219579
  0
LINE
  8
_0-8_
  6
CONTINUOUS
 62
    7
 10
701.90226611772061
 20
298.0281267219579
 11
702.95117781466138
 21
298.17546115596082
  0
LINE
  8
_0-8_
  6
CONTINUOUS
 62
    7
 10
702.95117781466138
 20
298.17546115596082
 11
703.8992201608902
 21
298.37542307729177
  0
LINE
  8
_0-8_
  6
CONTINUOUS
 62
    7
 10
703.8992201608902
 20
298.37542307729177
 11
704.71758736944957
 21
298.62193674415659
  0
LINE
  8
_0-8_
  6
CONTINUOUS
 62
    7
 10
704.71758736944957
 20
298.62193674415659
 11
705.38141376682097
 21
298.90751196352966
  0
LINE
  8
_0-8_
  6
CONTINUOUS
 62
    7
 10
705.38141376682097
 20
298.90751196352966
 11
705.8705293238329
 21
299.22347167687826
  0
LINE
  8
_0-8_
  6
CONTINUOUS
 62
    7
 10
705.8705293238329
 20
299.22347167687826
 11
706.17007251178973
 21
299.56021560819579
  0
LINE
  8
_0-8_
  6
CONTINUOUS
 62
    7
 10
706.17007251178973
 20
299.56021560819579
 11
706.27094186250167
 21
299.9075119635296
  0
LINE
  8
_0-8_
  6
CONTINUOUS
 62
    7
 10
706.27094186250167
 20
299.90751189928488
 11
706.3213765563753
 21
299.56021554492708
  0
LINE
  8
_0-8_
  6
CONTINUOUS
 62
    7
 10
706.3213765563753
 20
299.56021554492708
 11
706.47114816830867
 21
299.22347161650805
  0
LINE
  8
_0-8_
  6
CONTINUOUS
 62
    7
 10
706.47114816830867
 20
299.22347161650805
 11
706.71570596366132
 21
298.90751190789211
  0
LINE
  8
_0-8_
  6
CONTINUOUS
 62
    7
 10
706.71570596366132
 20
298.90751190789211
 11
707.04761917757378
 21
298.62193669494229
  0
LINE
  8
_0-8_
  6
CONTINUOUS
 62
    7
 10
707.04761917757378
 20
298.62193669494229
 11
707.45680279499732
 21
298.37542303599605
  0
LINE
  8
_0-8_
  6
CONTINUOUS
 62
    7
 10
707.45680279499732
 20
298.37542303599605
 11
707.93082397877356
 21
298.17546112383843
  0
LINE
  8
_0-8_
  6
CONTINUOUS
 62
    7
 10
707.93082397877356
 20
298.17546112383843
 11
708.45527983509976
 21
298.02812669998491
  0
LINE
  8
_0-8_
  6
CONTINUOUS
 62
    7
 10
708.45527983509976
 20
298.02812669998491
 11
709.01423503816886
 21
297.93789644634933
  0
LINE
  8
_0-8_
  6
CONTINUOUS
 62
    7
 10
709.01423503816886
 20
297.93789644634933
 11
709.59070601698056
 21
297.90751196352971
  0
LINE
  8
_0-8_
  6
CONTINUOUS
 62
    7
 10
709.59070601698056
 20
297.90751196352971
 11
710.16717699255219
 21
297.93789646866128
  0
LINE
  8
_0-8_
  6
CONTINUOUS
 62
    7
 10
710.16717699255219
 20
297.93789646866128
 11
710.72613218599929
 21
298.0281267439309
  0
LINE
  8
_0-8_
  6
CONTINUOUS
 62
    7
 10
710.72613218599929
 20
298.0281267439309
 11
711.25058802661385
 21
298.1754611880832
  0
LINE
  8
_0-8_
  6
CONTINUOUS
 62
    7
 10
711.25058802661385
 20
298.1754611880832
 11
711.72460918906643
 21
298.37542311858743
  0
LINE
  8
_0-8_
  6
CONTINUOUS
 62
    7
 10
711.72460918906643
 20
298.37542311858743
 11
712.13379278020216
 21
298.62193679337088
  0
LINE
  8
_0-8_
  6
CONTINUOUS
 62
    7
 10
712.13379278020216
 20
298.62193679337088
 11
712.46570596366121
 21
298.9075120191672
  0
LINE
  8
_0-8_
  6
CONTINUOUS
 62
    7
 10
712.46570596366121
 20
298.9075120191672
 11
712.71026372532037
 21
299.22347173724859
  0
LINE
  8
_0-8_
  6
CONTINUOUS
 62
    7
 10
712.71026372532037
 20
299.22347173724859
 11
712.86003530134383
 21
299.56021567146445
  0
LINE
  8
_0-8_
  6
CONTINUOUS
 62
    7
 10
712.86003530134383
 20
299.56021567146445
 11
712.91046995818226
 21
299.9075119635296
  0
LINE
  8
_0-8_
  6
CONTINUOUS
 62
    7
 10
706.27094186250167
 20
304.60751196352987
 11
706.17007251178973
 21
304.95480831886368
  0
LINE
  8
_0-8_
  6
CONTINUOUS
 62
    7
 10
706.17007251178973
 20
304.95480831886368
 11
705.8705293238329
 21
305.29155225018121
  0
LINE
  8
_0-8_
  6
CONTINUOUS
 62
    7
 10
705.8705293238329
 20
305.29155225018121
 11
705.38141376682097
 21
305.60751196352982
  0
LINE
  8
_0-8_
  6
CONTINUOUS
 62
    7
 10
705.38141376682097
 20
305.60751196352982
 11
704.71758736944957
 21
305.89308718290289
  0
LINE
  8
_0-8_
  6
CONTINUOUS
 62
    7
 10
704.71758736944957
 20
305.89308718290289
 11
703.8992201608902
 21
306.1396008497677
  0
LINE
  8
_0-8_
  6
CONTINUOUS
 62
    7
 10
703.8992201608902
 20
306.1396008497677
 11
702.95117781466138
 21
306.33956277109866
  0
LINE
  8
_0-8_
  6
CONTINUOUS
 62
    7
 10
702.95117781466138
 20
306.33956277109866
 11
701.90226611772061
 21
306.48689720510157
  0
LINE
  8
_0-8_
  6
CONTINUOUS
 62
    7
 10
701.90226611772061
 20
306.48689720510157
 11
700.78435572120441
 21
306.57712746955417
  0
LINE
  8
_0-8_
  6
CONTINUOUS
 62
    7
 10
700.78435572120441
 20
306.57712746955417
 11
699.63141376682108
 21
306.60751196352976
  0
LINE
  8
_0-8_
  6
CONTINUOUS
 62
    7
 10
699.63141376682108
 20
306.60751196352976
 11
698.47847181243776
 21
306.57712746955417
  0
LINE
  8
_0-8_
  6
CONTINUOUS
 62
    7
 10
698.47847181243776
 20
306.57712746955417
 11
697.36056141592155
 21
306.48689720510157
  0
LINE
  8
_0-8_
  6
CONTINUOUS
 62
    7
 10
697.36056141592155
 20
306.48689720510157
 11
696.31164971898079
 21
306.33956277109866
  0
LINE
  8
_0-8_
  6
CONTINUOUS
 62
    7
 10
696.31164971898079
 20
306.33956277109866
 11
695.36360737275197
 21
306.1396008497677
  0
LINE
  8
_0-8_
  6
CONTINUOUS
 62
    7
 10
695.36360737275197
 20
306.1396008497677
 11
694.54524016419259
 21
305.89308718290289
  0
LINE
  8
_0-8_
  6
CONTINUOUS
 62
    7
 10
694.54524016419259
 20
305.89308718290289
 11
693.8814137668212
 21
305.60751196352982
  0
LINE
  8
_0-8_
  6
CONTINUOUS
 62
    7
 10
693.8814137668212
 20
305.60751196352982
 11
693.39229820980927
 21
305.29155225018121
  0
LINE
  8
_0-8_
  6
CONTINUOUS
 62
    7
 10
693.39229820980927
 20
305.29155225018121
 11
693.09275502185244
 21
304.95480831886368
  0
LINE
  8
_0-8_
  6
CONTINUOUS
 62
    7
 10
693.09275502185244
 20
304.95480831886368
 11
692.99188567114049
 21
304.60751196352987
  0
LINE
  8
_0-8_
  6
CONTINUOUS
 62
    7
 10
712.91046995818226
 20
304.60751196352987
 11
712.86003528282629
 21
304.95480831886368
  0
LINE
  8
_0-8_
  6
CONTINUOUS
 62
    7
 10
712.86003528282629
 20
304.95480831886368
 11
712.71026368884782
 21
305.29155225018121
  0
LINE
  8
_0-8_
  6
CONTINUOUS
 62
    7
 10
712.71026368884782
 20
305.29155225018121
 11
712.46570591034197
 21
305.60751196352982
  0
LINE
  8
_0-8_
  6
CONTINUOUS
 62
    7
 10
712.46570591034197
 20
305.60751196352982
 11
712.13379271165616
 21
305.89308718290289
  0
LINE
  8
_0-8_
  6
CONTINUOUS
 62
    7
 10
712.13379271165616
 20
305.89308718290289
 11
711.72460910737652
 21
306.1396008497677
  0
LINE
  8
_0-8_
  6
CONTINUOUS
 62
    7
 10
711.72460910737652
 20
306.1396008497677
 11
711.25058793426217
 21
306.33956277109866
  0
LINE
  8
_0-8_
  6
CONTINUOUS
 62
    7
 10
711.25058793426217
 20
306.33956277109866
 11
710.72613208579173
 21
306.48689720510157
  0
LINE
  8
_0-8_
  6
CONTINUOUS
 62
    7
 10
710.72613208579173
 20
306.48689720510157
 11
710.16717688753363
 21
306.57712746955417
  0
LINE
  8
_0-8_
  6
CONTINUOUS
 62
    7
 10
710.16717688753363
 20
306.57712746955417
 11
709.59070591034197
 21
306.60751196352976
  0
LINE
  8
_0-8_
  6
CONTINUOUS
 62
    7
 10
709.59070591034197
 20
306.60751196352976
 11
709.01423493315031
 21
306.57712746955417
  0
LINE
  8
_0-8_
  6
CONTINUOUS
 62
    7
 10
709.01423493315031
 20
306.57712746955417
 11
708.4552797348922
 21
306.48689720510157
  0
LINE
  8
_0-8_
  6
CONTINUOUS
 62
    7
 10
708.4552797348922
 20
306.48689720510157
 11
707.93082388642188
 21
306.33956277109866
  0
LINE
  8
_0-8_
  6
CONTINUOUS
 62
    7
 10
707.93082388642188
 20
306.33956277109866
 11
707.45680271330741
 21
306.1396008497677
  0
LINE
  8
_0-8_
  6
CONTINUOUS
 62
    7
 10
707.45680271330741
 20
306.1396008497677
 11
707.04761910902778
 21
305.89308718290289
  0
LINE
  8
_0-8_
  6
CONTINUOUS
 62
    7
 10
707.04761910902778
 20
305.89308718290289
 11
706.71570591034197
 21
305.60751196352982
  0
LINE
  8
_0-8_
  6
CONTINUOUS
 62
    7
 10
706.71570591034197
 20
305.60751196352982
 11
706.47114813183612
 21
305.29155225018121
  0
LINE
  8
_0-8_
  6
CONTINUOUS
 62
    7
 10
706.47114813183612
 20
305.29155225018121
 11
706.32137653785765
 21
304.95480831886368
  0
LINE
  8
_0-8_
  6
CONTINUOUS
 62
    7
 10
706.32137653785765
 20
304.95480831886368
 11
706.27094186250167
 21
304.60751202777459
  0
LINE
  8
_0-8_
  6
CONTINUOUS
 62
    7
 10
692.99188567114049
 20
304.60751202777459
 11
692.94145097726687
 21
304.9548083821324
  0
LINE
  8
_0-8_
  6
CONTINUOUS
 62
    7
 10
692.94145097726687
 20
304.9548083821324
 11
692.79167936533349
 21
305.29155231055142
  0
LINE
  8
_0-8_
  6
CONTINUOUS
 62
    7
 10
692.79167936533349
 20
305.29155231055142
 11
692.54712156998085
 21
305.60751201916736
  0
LINE
  8
_0-8_
  6
CONTINUOUS
 62
    7
 10
692.54712156998085
 20
305.60751201916736
 11
692.21520835606839
 21
305.89308723211718
  0
LINE
  8
_0-8_
  6
CONTINUOUS
 62
    7
 10
692.21520835606839
 20
305.89308723211718
 11
691.80602473864485
 21
306.13960089106342
  0
LINE
  8
_0-8_
  6
CONTINUOUS
 62
    7
 10
691.80602473864485
 20
306.13960089106342
 11
691.33200355486861
 21
306.33956280322104
  0
LINE
  8
_0-8_
  6
CONTINUOUS
 62
    7
 10
691.33200355486861
 20
306.33956280322104
 11
690.80754769854241
 21
306.48689722707456
  0
LINE
  8
_0-8_
  6
CONTINUOUS
 62
    7
 10
690.80754769854241
 20
306.48689722707456
 11
690.2485924954733
 21
306.57712748071015
  0
LINE
  8
_0-8_
  6
CONTINUOUS
 62
    7
 10
690.2485924954733
 20
306.57712748071015
 11
689.6721215166616
 21
306.60751196352976
  0
LINE
  8
_0-8_
  6
CONTINUOUS
 62
    7
 10
689.6721215166616
 20
306.60751196352976
 11
689.09565054108998
 21
306.57712745839819
  0
LINE
  8
_0-8_
  6
CONTINUOUS
 62
    7
 10
689.09565054108998
 20
306.57712745839819
 11
688.53669534764288
 21
306.48689718312858
  0
LINE
  8
_0-8_
  6
CONTINUOUS
 62
    7
 10
688.53669534764288
 20
306.48689718312858
 11
688.01223950702831
 21
306.33956273897627
  0
LINE
  8
_0-8_
  6
CONTINUOUS
 62
    7
 10
688.01223950702831
 20
306.33956273897627
 11
687.53821834457574
 21
306.13960080847204
  0
LINE
  8
_0-8_
  6
CONTINUOUS
 62
    7
 10
687.53821834457574
 20
306.13960080847204
 11
687.12903475344001
 21
305.8930871336886
  0
LINE
  8
_0-8_
  6
CONTINUOUS
 62
    7
 10
687.12903475344001
 20
305.8930871336886
 11
686.79712156998096
 21
305.60751190789227
  0
LINE
  8
_0-8_
  6
CONTINUOUS
 62
    7
 10
686.79712156998096
 20
305.60751190789227
 11
686.55256380832179
 21
305.29155218981089
  0
LINE
  8
_0-8_
  6
CONTINUOUS
 62
    7
 10
686.55256380832179
 20
305.29155218981089
 11
686.40279223229834
 21
304.95480825559503
  0
LINE
  8
_0-8_
  6
CONTINUOUS
 62
    7
 10
686.40279223229834
 20
304.95480825559503
 11
686.35235757545991
 21
304.60751196352987
  0
LINE
  8
_0-8_
  6
CONTINUOUS
 62
    7
 10
707.63141373203928
 20
297.90751196352971
 11
707.63141373203928
 21
228.60751196352976
  0
LINE
  8
_0-8_
  6
CONTINUOUS
 62
    7
 10
706.73141367143933
 20
228.60751196352976
 11
706.73141367143933
 21
297.90751196352971
  0
LINE
  8
_0-8_
  6
CONTINUOUS
 62
    7
 10
692.53141386213906
 20
297.90751196352971
 11
692.53141386213906
 21
228.60751196352976
  0
LINE
  8
_0-8_
  6
CONTINUOUS
 62
    7
 10
691.63141373203905
 20
228.60751196352976
 11
691.63141373203905
 21
297.90751196352971
  0
LINE
  8
_0-9_
  6
PHANTOM1
 62
  152
 10
674.63141376682108
 20
273.6075119635293
 11
674.63141376682108
 21
276.60751196352999
  0
LINE
  8
_0-9_
  6
PHANTOM1
 62
  152
 10
676.5814137668209
 20
270.60751196352976
 11
676.5814137668209
 21
273.6075119635293
  0
LINE
  8
_0-9_
  6
PHANTOM1
 62
  152
 10
674.88141376682086
 20
276.60751196352999
 11
674.88141376682086
 21
284.10751196352999
  0
ARC
  8
_0-9_
  6
PHANTOM1
 62
  152
 10
677.88141376682108
 20
284.10751196352999
 40
2.9999999999999858
 50
89.999999999999829
 51
180.0000000000002
  0
LINE
  8
_0-9_
  6
PHANTOM1
 62
  152
 10
722.68141376682172
 20
270.60751196352976
 11
676.5814137668209
 21
270.60751196352976
  0
ARC
  8
_0-9_
  6
PHANTOM1
 62
  152
 10
721.38141376682108
 20
284.10751196352999
 40
2.9999999999999933
 50
359.99999999999977
 51
90.000000000000199
  0
LINE
  8
_0-9_
  6
PHANTOM1
 62
  152
 10
724.38141376682131
 20
284.10751196352999
 11
724.38141376682131
 21
276.60751196352999
  0
LINE
  8
_0-9_
  6
PHANTOM1
 62
  152
 10
724.63141376682108
 20
276.60751196352999
 11
724.63141376682108
 21
273.6075119635293
  0
LINE
  8
_0-9_
  6
PHANTOM1
 62
  152
 10
722.68141376682172
 20
273.6075119635293
 11
722.68141376682172
 21
270.60751196352976
  0
LINE
  8
_0-9_
  6
PHANTOM1
 62
  152
 10
674.63141376682108
 20
276.60751196352999
 11
674.88141376682086
 21
276.60751196352999
  0
LINE
  8
_0-9_
  6
PHANTOM1
 62
  152
 10
724.38141376682131
 20
276.60751196352999
 11
724.63141376682108
 21
276.60751196352999
  0
LINE
  8
_0-9_
  6
PHANTOM1
 62
  152
 10
724.63141376682108
 20
273.6075119635293
 11
722.68141376682172
 21
273.6075119635293
  0
LINE
  8
_0-9_
  6
PHANTOM1
 62
  152
 10
676.5814137668209
 20
273.6075119635293
 11
674.63141376682108
 21
273.6075119635293
  0
LINE
  8
_0-9_
  6
PHANTOM1
 62
  152
 10
717.63141376682108
 20
287.10751196352953
 11
721.38141376682108
 21
287.10751196352953
  0
LINE
  8
_0-9_
  6
PHANTOM1
 62
  152
 10
686.92970784464967
 20
296.6075119635293
 11
686.92970784464967
 21
289.50751196352962
  0
LINE
  8
_0-9_
  6
PHANTOM1
 62
  152
 10
717.63141376682108
 20
287.10751196352953
 11
717.63141376682108
 21
287.50751196352985
  0
LINE
  8
_0-9_
  6
PHANTOM1
 62
  152
 10
681.88141376682063
 20
287.50751196352985
 11
681.88141376682063
 21
287.10751196352953
  0
LINE
  8
_0-9_
  6
PHANTOM1
 62
  152
 10
677.88141376682108
 20
287.10751196352953
 11
681.88141376682063
 21
287.10751196352953
  0
LINE
  8
_0-9_
  6
PHANTOM1
 62
  152
 10
709.15769320844936
 20
287.50751196352974
 11
709.15769320844936
 21
287.50751196352974
  0
LINE
  8
_0-9_
  6
PHANTOM1
 62
  152
 10
709.15769320844936
 20
287.50751196352974
 11
709.70910023011083
 21
287.53789645750533
  0
LINE
  8
_0-9_
  6
PHANTOM1
 62
  152
 10
709.70910023011083
 20
287.53789645750533
 11
710.24375302844464
 21
287.62812672195793
  0
LINE
  8
_0-9_
  6
PHANTOM1
 62
  152
 10
710.24375302844464
 20
287.62812672195793
 11
710.7454064487207
 21
287.77546115596084
  0
LINE
  8
_0-9_
  6
PHANTOM1
 62
  152
 10
710.7454064487207
 20
287.77546115596084
 11
711.19881800561268
 21
287.97542307729174
  0
LINE
  8
_0-9_
  6
PHANTOM1
 62
  152
 10
711.19881800561268
 20
287.97542307729174
 11
711.59021101840187
 21
288.22193674415661
  0
LINE
  8
_0-9_
  6
PHANTOM1
 62
  152
 10
711.59021101840187
 20
288.22193674415661
 11
711.90769320844902
 21
288.50751196352968
  0
LINE
  8
_0-9_
  6
PHANTOM1
 62
  152
 10
711.90769320844902
 20
288.50751196352968
 11
712.14161804006335
 21
288.82347167687834
  0
LINE
  8
_0-9_
  6
PHANTOM1
 62
  152
 10
712.14161804006335
 20
288.82347167687834
 11
712.28487782560796
 21
289.16021560819576
  0
LINE
  8
_0-9_
  6
PHANTOM1
 62
  152
 10
712.28487782560796
 20
289.16021560819576
 11
712.33311968899193
 21
289.50751196352962
  0
LINE
  8
_0-9_
  6
PHANTOM1
 62
  152
 10
717.63141376682108
 20
287.50751196352985
 11
709.15769320844936
 21
287.50751196352985
  0
LINE
  8
_0-9_
  6
PHANTOM1
 62
  152
 10
681.88141376682063
 20
287.50751196352985
 11
690.10513432519281
 21
287.50751196352985
  0
LINE
  8
_0-9_
  6
PHANTOM1
 62
  152
 10
686.92970784465024
 20
289.50751196352962
 11
686.92970784465024
 21
289.50751196352962
  0
LINE
  8
_0-9_
  6
PHANTOM1
 62
  152
 10
686.92970784465024
 20
289.50751196352962
 11
686.9779497080342
 21
289.16021560819576
  0
LINE
  8
_0-9_
  6
PHANTOM1
 62
  152
 10
686.9779497080342
 20
289.16021560819576
 11
687.12120949357882
 21
288.82347167687834
  0
LINE
  8
_0-9_
  6
PHANTOM1
 62
  152
 10
687.12120949357882
 20
288.82347167687834
 11
687.35513432519315
 21
288.50751196352968
  0
LINE
  8
_0-9_
  6
PHANTOM1
 62
  152
 10
687.35513432519315
 20
288.50751196352968
 11
687.67261651524029
 21
288.22193674415661
  0
LINE
  8
_0-9_
  6
PHANTOM1
 62
  152
 10
687.67261651524029
 20
288.22193674415661
 11
688.06400952802949
 21
287.97542307729174
  0
LINE
  8
_0-9_
  6
PHANTOM1
 62
  152
 10
688.06400952802949
 20
287.97542307729174
 11
688.51742108492147
 21
287.77546115596084
  0
LINE
  8
_0-9_
  6
PHANTOM1
 62
  152
 10
688.51742108492147
 20
287.77546115596084
 11
689.01907450519752
 21
287.62812672195793
  0
LINE
  8
_0-9_
  6
PHANTOM1
 62
  152
 10
689.01907450519752
 20
287.62812672195793
 11
689.55372730353133
 21
287.53789645750533
  0
LINE
  8
_0-9_
  6
PHANTOM1
 62
  152
 10
689.55372730353133
 20
287.53789645750533
 11
690.10513432519281
 21
287.50751196352974
  0
LINE
  8
_0-9_
  6
PHANTOM1
 62
  152
 10
712.3331196889925
 20
289.50751196352962
 11
712.3331196889925
 21
296.6075119635293
  0
LINE
  8
_0-8_
  6
CONTINUOUS
 62
  152
 10
882.38461066596608
 20
215.40751196353
 11
832.38461066596608
 21
215.40751196353
  0
LINE
  8
_0-8_
  6
CONTINUOUS
 62
    7
 10
832.13461066596631
 20
207.60751196352999
 11
832.13461066596631
 21
204.60751196352987
  0
LINE
  8
_0-8_
  6
CONTINUOUS
 62
    7
 10
832.13461066596631
 20
204.60751196352987
 11
882.63461066596585
 21
204.60751196352987
  0
LINE
  8
_0-8_
  6
CONTINUOUS
 62
    7
 10
882.63461066596585
 20
204.60751196352987
 11
882.63461066596585
 21
207.60751196352999
  0
LINE
  8
_0-8_
  6
CONTINUOUS
 62
    7
 10
882.63461066596585
 20
207.60751196352999
 11
832.13461066596631
 21
207.60751196352999
  0
LINE
  8
_0-8_
  6
CONTINUOUS
 62
    7
 10
834.08461066596624
 20
204.60751196352987
 11
834.08461066596624
 21
201.60751196352976
  0
LINE
  8
_0-8_
  6
CONTINUOUS
 62
    7
 10
834.08461066596624
 20
201.60751196352976
 11
880.68461066596649
 21
201.60751196352976
  0
LINE
  8
_0-8_
  6
CONTINUOUS
 62
    7
 10
880.68461066596649
 20
201.60751196352976
 11
880.68461066596649
 21
204.60751196352987
  0
LINE
  8
_0-8_
  6
CONTINUOUS
 62
    7
 10
844.68290474379467
 20
228.60751196352976
 11
870.08631658813749
 21
228.60751196352976
  0
LINE
  8
_0-8_
  6
CONTINUOUS
 62
    7
 10
851.03375770488037
 20
228.60751196352976
 11
851.03375770488037
 21
220.80751196352986
  0
LINE
  8
_0-8_
  6
CONTINUOUS
 62
    7
 10
844.68290474379467
 20
220.80751196352986
 11
844.68290474379467
 21
228.60751196352976
  0
LINE
  8
_0-8_
  6
CONTINUOUS
 62
    7
 10
870.08631658813749
 20
228.60751196352976
 11
870.08631658813749
 21
220.80751196352986
  0
LINE
  8
_0-8_
  6
CONTINUOUS
 62
    7
 10
863.73546362488037
 20
220.80751196352986
 11
863.73546362488037
 21
228.60751196352976
  0
LINE
  8
_0-8_
  6
CONTINUOUS
 62
    7
 10
875.38461066596619
 20
218.80751196352998
 11
875.38461066596619
 21
218.40751196352977
  0
LINE
  8
_0-8_
  6
CONTINUOUS
 62
    7
 10
875.38461066596619
 20
218.80751196352998
 11
839.38461066596597
 21
218.80751196352998
  0
LINE
  8
_0-8_
  6
CONTINUOUS
 62
    7
 10
839.38461066596597
 20
218.80751196352998
 11
839.38461066596597
 21
218.40751196352977
  0
LINE
  8
_0-8_
  6
CONTINUOUS
 62
    7
 10
835.38461066596619
 20
218.40751196352977
 11
879.38461066567095
 21
218.40751196352977
  0
LINE
  8
_0-8_
  6
CONTINUOUS
 62
    7
 10
832.38461066596608
 20
215.40751196353
 11
832.38461066596608
 21
207.60751196352999
  0
LINE
  8
_0-8_
  6
CONTINUOUS
 62
    7
 10
882.38461066596608
 20
207.60751196352999
 11
882.38461066596608
 21
215.40751196353
  0
ARC
  8
_0-8_
  6
CONTINUOUS
 62
    7
 10
835.38461066596619
 20
215.40751196353
 40
2.9999999999999858
 50
89.999999999999829
 51
180.0000000000002
  0
ARC
  8
_0-8_
  6
CONTINUOUS
 62
    7
 10
879.38461066596597
 20
215.40751196353
 40
2.9999999999999933
 50
359.99999999999977
 51
90.000000000000199
  0
LINE
  8
_0-8_
  6
CONTINUOUS
 62
    7
 10
844.68290474379523
 20
220.80751196352986
 11
844.7311466071792
 21
220.46021560819605
  0
LINE
  8
_0-8_
  6
CONTINUOUS
 62
    7
 10
844.7311466071792
 20
220.46021560819605
 11
844.87440639272381
 21
220.12347167687858
  0
LINE
  8
_0-8_
  6
CONTINUOUS
 62
    7
 10
844.87440639272381
 20
220.12347167687858
 11
845.10833122433814
 21
219.80751196352992
  0
LINE
  8
_0-8_
  6
CONTINUOUS
 62
    7
 10
845.10833122433814
 20
219.80751196352992
 11
845.42581341438529
 21
219.52193674415685
  0
LINE
  8
_0-8_
  6
CONTINUOUS
 62
    7
 10
845.42581341438529
 20
219.52193674415685
 11
845.81720642717448
 21
219.27542307729198
  0
LINE
  8
_0-8_
  6
CONTINUOUS
 62
    7
 10
845.81720642717448
 20
219.27542307729198
 11
846.27061798406646
 21
219.07546115596108
  0
LINE
  8
_0-8_
  6
CONTINUOUS
 62
    7
 10
846.27061798406646
 20
219.07546115596108
 11
846.77227140434252
 21
218.92812672195817
  0
LINE
  8
_0-8_
  6
CONTINUOUS
 62
    7
 10
846.77227140434252
 20
218.92812672195817
 11
847.30692420267633
 21
218.83789645750556
  0
LINE
  8
_0-8_
  6
CONTINUOUS
 62
    7
 10
847.30692420267633
 20
218.83789645750556
 11
847.8583312243378
 21
218.80751196352998
  0
LINE
  8
_0-8_
  6
CONTINUOUS
 62
    7
 10
847.8583312243378
 20
218.80751196352998
 11
848.40973824599928
 21
218.83789645750556
  0
LINE
  8
_0-8_
  6
CONTINUOUS
 62
    7
 10
848.40973824599928
 20
218.83789645750556
 11
848.94439104433309
 21
218.92812672195817
  0
LINE
  8
_0-8_
  6
CONTINUOUS
 62
    7
 10
848.94439104433309
 20
218.92812672195817
 11
849.44604446460903
 21
219.07546115596108
  0
LINE
  8
_0-8_
  6
CONTINUOUS
 62
    7
 10
849.44604446460903
 20
219.07546115596108
 11
849.89945602150112
 21
219.27542307729198
  0
LINE
  8
_0-8_
  6
CONTINUOUS
 62
    7
 10
849.89945602150112
 20
219.27542307729198
 11
850.29084903429032
 21
219.52193674415685
  0
LINE
  8
_0-8_
  6
CONTINUOUS
 62
    7
 10
850.29084903429032
 20
219.52193674415685
 11
850.60833122433746
 21
219.80751196352992
  0
LINE
  8
_0-8_
  6
CONTINUOUS
 62
    7
 10
850.60833122433746
 20
219.80751196352992
 11
850.84225605595179
 21
220.12347167687858
  0
LINE
  8
_0-8_
  6
CONTINUOUS
 62
    7
 10
850.84225605595179
 20
220.12347167687858
 11
850.98551584149641
 21
220.46021560819605
  0
LINE
  8
_0-8_
  6
CONTINUOUS
 62
    7
 10
850.98551584149641
 20
220.46021560819605
 11
851.03375770488037
 21
220.80751196352986
  0
LINE
  8
_0-8_
  6
CONTINUOUS
 62
    7
 10
851.03375770488037
 20
220.80751196352986
 11
851.03375770488037
 21
220.80751210715869
  0
LINE
  8
_0-8_
  6
CONTINUOUS
 62
    7
 10
851.03375770488037
 20
220.80751210715869
 11
851.13024135243393
 21
220.46021574964283
  0
LINE
  8
_0-8_
  6
CONTINUOUS
 62
    7
 10
851.13024135243393
 20
220.46021574964283
 11
851.41676084668256
 21
220.12347181184549
  0
LINE
  8
_0-8_
  6
CONTINUOUS
 62
    7
 10
851.41676084668256
 20
220.12347181184549
 11
851.88461043777943
 21
219.80751208791611
  0
LINE
  8
_0-8_
  6
CONTINUOUS
 62
    7
 10
851.88461043777943
 20
219.80751208791611
 11
852.51957475264237
 21
219.52193685418291
  0
LINE
  8
_0-8_
  6
CONTINUOUS
 62
    7
 10
852.51957475264237
 20
219.52193685418291
 11
853.30236072187165
 21
219.27542316961484
  0
LINE
  8
_0-8_
  6
CONTINUOUS
 62
    7
 10
853.30236072187165
 20
219.27542316961484
 11
854.20918378990109
 21
219.07546122777552
  0
LINE
  8
_0-8_
  6
CONTINUOUS
 62
    7
 10
854.20918378990109
 20
219.07546122777552
 11
855.21249059668332
 21
218.92812677108208
  0
LINE
  8
_0-8_
  6
CONTINUOUS
 62
    7
 10
855.21249059668332
 20
218.92812677108208
 11
856.28179617259184
 21
218.83789648244647
  0
LINE
  8
_0-8_
  6
CONTINUOUS
 62
    7
 10
856.28179617259184
 20
218.83789648244647
 11
857.38461020879754
 21
218.80751196352998
  0
LINE
  8
_0-8_
  6
CONTINUOUS
 62
    7
 10
857.38461020879754
 20
218.80751196352998
 11
858.4874242588611
 21
218.83789643256466
  0
LINE
  8
_0-8_
  6
CONTINUOUS
 62
    7
 10
858.4874242588611
 20
218.83789643256466
 11
859.5567298759222
 21
218.9281266728342
  0
LINE
  8
_0-8_
  6
CONTINUOUS
 62
    7
 10
859.5567298759222
 20
218.9281266728342
 11
860.56003674990109
 21
219.0754610841467
  0
LINE
  8
_0-8_
  6
CONTINUOUS
 62
    7
 10
860.56003674990109
 20
219.0754610841467
 11
861.46685990912977
 21
219.27542298496917
  0
LINE
  8
_0-8_
  6
CONTINUOUS
 62
    7
 10
861.46685990912977
 20
219.27542298496917
 11
862.24964599078976
 21
219.52193663413078
  0
LINE
  8
_0-8_
  6
CONTINUOUS
 62
    7
 10
862.24964599078976
 20
219.52193663413078
 11
862.88461043589859
 21
219.80751183914373
  0
LINE
  8
_0-8_
  6
CONTINUOUS
 62
    7
 10
862.88461043589859
 20
219.80751183914373
 11
863.35246017109921
 21
220.12347154191161
  0
LINE
  8
_0-8_
  6
CONTINUOUS
 62
    7
 10
863.35246017109921
 20
220.12347154191161
 11
863.63897981893092
 21
220.46021546674922
  0
LINE
  8
_0-8_
  6
CONTINUOUS
 62
    7
 10
863.63897981893092
 20
220.46021546674922
 11
863.73546362488037
 21
220.80751181990104
  0
LINE
  8
_0-8_
  6
CONTINUOUS
 62
    7
 10
863.73546362488037
 20
220.80751181990104
 11
863.73546362488037
 21
220.80751196352986
  0
LINE
  8
_0-8_
  6
CONTINUOUS
 62
    7
 10
863.73546362705179
 20
220.80751210715869
 11
863.78370545083681
 21
220.46021574964283
  0
LINE
  8
_0-8_
  6
CONTINUOUS
 62
    7
 10
863.78370545083681
 20
220.46021574964283
 11
863.92696519798562
 21
220.12347181184549
  0
LINE
  8
_0-8_
  6
CONTINUOUS
 62
    7
 10
863.92696519798562
 20
220.12347181184549
 11
864.16088999357396
 21
219.80751208791611
  0
LINE
  8
_0-8_
  6
CONTINUOUS
 62
    7
 10
864.16088999357396
 20
219.80751208791611
 11
864.47837215105972
 21
219.52193685418291
  0
LINE
  8
_0-8_
  6
CONTINUOUS
 62
    7
 10
864.47837215105972
 20
219.52193685418291
 11
864.8697651357412
 21
219.27542316961484
  0
LINE
  8
_0-8_
  6
CONTINUOUS
 62
    7
 10
864.8697651357412
 20
219.27542316961484
 11
865.3231766698334
 21
219.07546122777552
  0
LINE
  8
_0-8_
  6
CONTINUOUS
 62
    7
 10
865.3231766698334
 20
219.07546122777552
 11
865.8248300733103
 21
218.92812677108208
  0
LINE
  8
_0-8_
  6
CONTINUOUS
 62
    7
 10
865.8248300733103
 20
218.92812677108208
 11
866.3594828613559
 21
218.83789648244647
  0
LINE
  8
_0-8_
  6
CONTINUOUS
 62
    7
 10
866.3594828613559
 20
218.83789648244647
 11
866.910889879553
 21
218.80751196352998
  0
LINE
  8
_0-8_
  6
CONTINUOUS
 62
    7
 10
866.910889879553
 20
218.80751196352998
 11
867.46229690467896
 21
218.83789643256466
  0
LINE
  8
_0-8_
  6
CONTINUOUS
 62
    7
 10
867.46229690467896
 20
218.83789643256466
 11
867.99694971330086
 21
218.9281266728342
  0
LINE
  8
_0-8_
  6
CONTINUOUS
 62
    7
 10
867.99694971330086
 20
218.9281266728342
 11
868.49860315037597
 21
219.0754610841467
  0
LINE
  8
_0-8_
  6
CONTINUOUS
 62
    7
 10
868.49860315037597
 20
219.0754610841467
 11
868.95201473006784
 21
219.27542298496917
  0
LINE
  8
_0-8_
  6
CONTINUOUS
 62
    7
 10
868.95201473006784
 20
219.27542298496917
 11
869.34340777096463
 21
219.52193663413078
  0
LINE
  8
_0-8_
  6
CONTINUOUS
 62
    7
 10
869.34340777096463
 20
219.52193663413078
 11
869.66088999357328
 21
219.80751183914373
  0
LINE
  8
_0-8_
  6
CONTINUOUS
 62
    7
 10
869.66088999357328
 20
219.80751183914373
 11
869.8948148612136
 21
220.12347154191161
  0
LINE
  8
_0-8_
  6
CONTINUOUS
 62
    7
 10
869.8948148612136
 20
220.12347154191161
 11
870.03807468515402
 21
220.46021546674922
  0
LINE
  8
_0-8_
  6
CONTINUOUS
 62
    7
 10
870.03807468515402
 20
220.46021546674922
 11
870.08631658813692
 21
220.80751181990104
  0
LINE
  8
_0-8_
  6
CONTINUOUS
 62
    7
 10
870.08631658813692
 20
220.80751181990104
 11
870.08631658813692
 21
220.80751196352986
  0
LINE
  8
_0-8_
  6
CONTINUOUS
 62
    7
 10
844.1055544746049
 20
304.60751196352987
 11
844.1055544746049
 21
299.9075119635296
  0
LINE
  8
_0-8_
  6
CONTINUOUS
 62
    7
 10
847.4253185224452
 20
297.90751196352971
 11
867.34390280948696
 21
297.90751196352971
  0
LINE
  8
_0-8_
  6
CONTINUOUS
 62
    7
 10
864.02413876164667
 20
299.9075119635296
 11
864.02413876164667
 21
304.60751196352987
  0
LINE
  8
_0-8_
  6
CONTINUOUS
 62
    7
 10
867.34390280948696
 20
306.60751196352976
 11
847.4253185224452
 21
306.60751196352976
  0
LINE
  8
_0-8_
  6
CONTINUOUS
 62
    7
 10
850.74508257028549
 20
304.60751196352987
 11
850.74508257028549
 21
299.9075119635296
  0
LINE
  8
_0-8_
  6
CONTINUOUS
 62
    7
 10
870.66366685732726
 20
299.9075119635296
 11
870.66366685732726
 21
304.60751196352987
  0
LINE
  8
_0-8_
  6
CONTINUOUS
 62
    7
 10
844.1055544746049
 20
299.9075119635296
 11
844.15598914996087
 21
299.56021560819579
  0
LINE
  8
_0-8_
  6
CONTINUOUS
 62
    7
 10
844.15598914996087
 20
299.56021560819579
 11
844.30576074393935
 21
299.22347167687826
  0
LINE
  8
_0-8_
  6
CONTINUOUS
 62
    7
 10
844.30576074393935
 20
299.22347167687826
 11
844.5503185224452
 21
298.90751196352966
  0
LINE
  8
_0-8_
  6
CONTINUOUS
 62
    7
 10
844.5503185224452
 20
298.90751196352966
 11
844.88223172113101
 21
298.62193674415659
  0
LINE
  8
_0-8_
  6
CONTINUOUS
 62
    7
 10
844.88223172113101
 20
298.62193674415659
 11
845.29141532541064
 21
298.37542307729177
  0
LINE
  8
_0-8_
  6
CONTINUOUS
 62
    7
 10
845.29141532541064
 20
298.37542307729177
 11
845.76543649852499
 21
298.17546115596082
  0
LINE
  8
_0-8_
  6
CONTINUOUS
 62
    7
 10
845.76543649852499
 20
298.17546115596082
 11
846.28989234699543
 21
298.0281267219579
  0
LINE
  8
_0-8_
  6
CONTINUOUS
 62
    7
 10
846.28989234699543
 20
298.0281267219579
 11
846.84884754525353
 21
297.9378964575053
  0
LINE
  8
_0-8_
  6
CONTINUOUS
 62
    7
 10
846.84884754525353
 20
297.9378964575053
 11
847.4253185224452
 21
297.90751196352971
  0
LINE
  8
_0-8_
  6
CONTINUOUS
 62
    7
 10
847.4253185224452
 20
297.90751196352971
 11
848.00178949963686
 21
297.9378964575053
  0
LINE
  8
_0-8_
  6
CONTINUOUS
 62
    7
 10
848.00178949963686
 20
297.9378964575053
 11
848.56074469789496
 21
298.0281267219579
  0
LINE
  8
_0-8_
  6
CONTINUOUS
 62
    7
 10
848.56074469789496
 20
298.0281267219579
 11
849.08520054636529
 21
298.17546115596082
  0
LINE
  8
_0-8_
  6
CONTINUOUS
 62
    7
 10
849.08520054636529
 20
298.17546115596082
 11
849.55922171947975
 21
298.37542307729177
  0
LINE
  8
_0-8_
  6
CONTINUOUS
 62
    7
 10
849.55922171947975
 20
298.37542307729177
 11
849.96840532375938
 21
298.62193674415659
  0
LINE
  8
_0-8_
  6
CONTINUOUS
 62
    7
 10
849.96840532375938
 20
298.62193674415659
 11
850.3003185224452
 21
298.90751196352966
  0
LINE
  8
_0-8_
  6
CONTINUOUS
 62
    7
 10
850.3003185224452
 20
298.90751196352966
 11
850.54487630095105
 21
299.22347167687826
  0
LINE
  8
_0-8_
  6
CONTINUOUS
 62
    7
 10
850.54487630095105
 20
299.22347167687826
 11
850.69464789492952
 21
299.56021560819579
  0
LINE
  8
_0-8_
  6
CONTINUOUS
 62
    7
 10
850.69464789492952
 20
299.56021560819579
 11
850.74508257028549
 21
299.90751189928488
  0
LINE
  8
_0-8_
  6
CONTINUOUS
 62
    7
 10
850.74508257028549
 20
299.9075119635296
 11
850.84595192099744
 21
299.56021560819579
  0
LINE
  8
_0-8_
  6
CONTINUOUS
 62
    7
 10
850.84595192099744
 20
299.56021560819579
 11
851.14549510895426
 21
299.22347167687826
  0
LINE
  8
_0-8_
  6
CONTINUOUS
 62
    7
 10
851.14549510895426
 20
299.22347167687826
 11
851.63461066596619
 21
298.90751196352966
  0
LINE
  8
_0-8_
  6
CONTINUOUS
 62
    7
 10
851.63461066596619
 20
298.90751196352966
 11
852.29843706333759
 21
298.62193674415659
  0
LINE
  8
_0-8_
  6
CONTINUOUS
 62
    7
 10
852.29843706333759
 20
298.62193674415659
 11
853.11680427189697
 21
298.37542307729177
  0
LINE
  8
_0-8_
  6
CONTINUOUS
 62
    7
 10
853.11680427189697
 20
298.37542307729177
 11
854.06484661812578
 21
298.17546115596082
  0
LINE
  8
_0-8_
  6
CONTINUOUS
 62
    7
 10
854.06484661812578
 20
298.17546115596082
 11
855.11375831506655
 21
298.0281267219579
  0
LINE
  8
_0-8_
  6
CONTINUOUS
 62
    7
 10
855.11375831506655
 20
298.0281267219579
 11
856.23166871158276
 21
297.9378964575053
  0
LINE
  8
_0-8_
  6
CONTINUOUS
 62
    7
 10
856.23166871158276
 20
297.9378964575053
 11
857.38461066596608
 21
297.90751196352971
  0
LINE
  8
_0-8_
  6
CONTINUOUS
 62
    7
 10
857.38461066596608
 20
297.90751196352971
 11
858.5375526203494
 21
297.9378964575053
  0
LINE
  8
_0-8_
  6
CONTINUOUS
 62
    7
 10
858.5375526203494
 20
297.9378964575053
 11
859.65546301686561
 21
298.0281267219579
  0
LINE
  8
_0-8_
  6
CONTINUOUS
 62
    7
 10
859.65546301686561
 20
298.0281267219579
 11
860.70437471380637
 21
298.17546115596082
  0
LINE
  8
_0-8_
  6
CONTINUOUS
 62
    7
 10
860.70437471380637
 20
298.17546115596082
 11
861.65241706003519
 21
298.37542307729177
  0
LINE
  8
_0-8_
  6
CONTINUOUS
 62
    7
 10
861.65241706003519
 20
298.37542307729177
 11
862.47078426859457
 21
298.62193674415659
  0
LINE
  8
_0-8_
  6
CONTINUOUS
 62
    7
 10
862.47078426859457
 20
298.62193674415659
 11
863.13461066596597
 21
298.90751196352966
  0
LINE
  8
_0-8_
  6
CONTINUOUS
 62
    7
 10
863.13461066596597
 20
298.90751196352966
 11
863.62372622297789
 21
299.22347167687826
  0
LINE
  8
_0-8_
  6
CONTINUOUS
 62
    7
 10
863.62372622297789
 20
299.22347167687826
 11
863.92326941093472
 21
299.56021560819579
  0
LINE
  8
_0-8_
  6
CONTINUOUS
 62
    7
 10
863.92326941093472
 20
299.56021560819579
 11
864.02413876164667
 21
299.9075119635296
  0
LINE
  8
_0-8_
  6
CONTINUOUS
 62
    7
 10
864.02413876164667
 20
299.90751189928488
 11
864.07457345552029
 21
299.56021554492708
  0
LINE
  8
_0-8_
  6
CONTINUOUS
 62
    7
 10
864.07457345552029
 20
299.56021554492708
 11
864.22434506745367
 21
299.22347161650805
  0
LINE
  8
_0-8_
  6
CONTINUOUS
 62
    7
 10
864.22434506745367
 20
299.22347161650805
 11
864.46890286280632
 21
298.90751190789211
  0
LINE
  8
_0-8_
  6
CONTINUOUS
 62
    7
 10
864.46890286280632
 20
298.90751190789211
 11
864.80081607671877
 21
298.62193669494229
  0
LINE
  8
_0-8_
  6
CONTINUOUS
 62
    7
 10
864.80081607671877
 20
298.62193669494229
 11
865.20999969414231
 21
298.37542303599605
  0
LINE
  8
_0-8_
  6
CONTINUOUS
 62
    7
 10
865.20999969414231
 20
298.37542303599605
 11
865.68402087791856
 21
298.17546112383843
  0
LINE
  8
_0-8_
  6
CONTINUOUS
 62
    7
 10
865.68402087791856
 20
298.17546112383843
 11
866.20847673424475
 21
298.02812669998491
  0
LINE
  8
_0-8_
  6
CONTINUOUS
 62
    7
 10
866.20847673424475
 20
298.02812669998491
 11
866.76743193731386
 21
297.93789644634933
  0
LINE
  8
_0-8_
  6
CONTINUOUS
 62
    7
 10
866.76743193731386
 20
297.93789644634933
 11
867.34390291612556
 21
297.90751196352971
  0
LINE
  8
_0-8_
  6
CONTINUOUS
 62
    7
 10
867.34390291612556
 20
297.90751196352971
 11
867.92037389169718
 21
297.93789646866128
  0
LINE
  8
_0-8_
  6
CONTINUOUS
 62
    7
 10
867.92037389169718
 20
297.93789646866128
 11
868.47932908514429
 21
298.0281267439309
  0
LINE
  8
_0-8_
  6
CONTINUOUS
 62
    7
 10
868.47932908514429
 20
298.0281267439309
 11
869.00378492575885
 21
298.1754611880832
  0
LINE
  8
_0-8_
  6
CONTINUOUS
 62
    7
 10
869.00378492575885
 20
298.1754611880832
 11
869.47780608821142
 21
298.37542311858743
  0
LINE
  8
_0-8_
  6
CONTINUOUS
 62
    7
 10
869.47780608821142
 20
298.37542311858743
 11
869.88698967934715
 21
298.62193679337088
  0
LINE
  8
_0-8_
  6
CONTINUOUS
 62
    7
 10
869.88698967934715
 20
298.62193679337088
 11
870.2189028628062
 21
298.9075120191672
  0
LINE
  8
_0-8_
  6
CONTINUOUS
 62
    7
 10
870.2189028628062
 20
298.9075120191672
 11
870.46346062446537
 21
299.22347173724859
  0
LINE
  8
_0-8_
  6
CONTINUOUS
 62
    7
 10
870.46346062446537
 20
299.22347173724859
 11
870.61323220048882
 21
299.56021567146445
  0
LINE
  8
_0-8_
  6
CONTINUOUS
 62
    7
 10
870.61323220048882
 20
299.56021567146445
 11
870.66366685732726
 21
299.9075119635296
  0
LINE
  8
_0-8_
  6
CONTINUOUS
 62
    7
 10
864.02413876164667
 20
304.60751196352987
 11
863.92326941093472
 21
304.95480831886368
  0
LINE
  8
_0-8_
  6
CONTINUOUS
 62
    7
 10
863.92326941093472
 20
304.95480831886368
 11
863.62372622297789
 21
305.29155225018121
  0
LINE
  8
_0-8_
  6
CONTINUOUS
 62
    7
 10
863.62372622297789
 20
305.29155225018121
 11
863.13461066596597
 21
305.60751196352982
  0
LINE
  8
_0-8_
  6
CONTINUOUS
 62
    7
 10
863.13461066596597
 20
305.60751196352982
 11
862.47078426859457
 21
305.89308718290289
  0
LINE
  8
_0-8_
  6
CONTINUOUS
 62
    7
 10
862.47078426859457
 20
305.89308718290289
 11
861.65241706003519
 21
306.1396008497677
  0
LINE
  8
_0-8_
  6
CONTINUOUS
 62
    7
 10
861.65241706003519
 20
306.1396008497677
 11
860.70437471380637
 21
306.33956277109866
  0
LINE
  8
_0-8_
  6
CONTINUOUS
 62
    7
 10
860.70437471380637
 20
306.33956277109866
 11
859.65546301686561
 21
306.48689720510157
  0
LINE
  8
_0-8_
  6
CONTINUOUS
 62
    7
 10
859.65546301686561
 20
306.48689720510157
 11
858.5375526203494
 21
306.57712746955417
  0
LINE
  8
_0-8_
  6
CONTINUOUS
 62
    7
 10
858.5375526203494
 20
306.57712746955417
 11
857.38461066596608
 21
306.60751196352976
  0
LINE
  8
_0-8_
  6
CONTINUOUS
 62
    7
 10
857.38461066596608
 20
306.60751196352976
 11
856.23166871158276
 21
306.57712746955417
  0
LINE
  8
_0-8_
  6
CONTINUOUS
 62
    7
 10
856.23166871158276
 20
306.57712746955417
 11
855.11375831506655
 21
306.48689720510157
  0
LINE
  8
_0-8_
  6
CONTINUOUS
 62
    7
 10
855.11375831506655
 20
306.48689720510157
 11
854.06484661812578
 21
306.33956277109866
  0
LINE
  8
_0-8_
  6
CONTINUOUS
 62
    7
 10
854.06484661812578
 20
306.33956277109866
 11
853.11680427189697
 21
306.1396008497677
  0
LINE
  8
_0-8_
  6
CONTINUOUS
 62
    7
 10
853.11680427189697
 20
306.1396008497677
 11
852.29843706333759
 21
305.89308718290289
  0
LINE
  8
_0-8_
  6
CONTINUOUS
 62
    7
 10
852.29843706333759
 20
305.89308718290289
 11
851.63461066596619
 21
305.60751196352982
  0
LINE
  8
_0-8_
  6
CONTINUOUS
 62
    7
 10
851.63461066596619
 20
305.60751196352982
 11
851.14549510895426
 21
305.29155225018121
  0
LINE
  8
_0-8_
  6
CONTINUOUS
 62
    7
 10
851.14549510895426
 20
305.29155225018121
 11
850.84595192099744
 21
304.95480831886368
  0
LINE
  8
_0-8_
  6
CONTINUOUS
 62
    7
 10
850.84595192099744
 20
304.95480831886368
 11
850.74508257028549
 21
304.60751196352987
  0
LINE
  8
_0-8_
  6
CONTINUOUS
 62
    7
 10
870.66366685732726
 20
304.60751196352987
 11
870.61323218197128
 21
304.95480831886368
  0
LINE
  8
_0-8_
  6
CONTINUOUS
 62
    7
 10
870.61323218197128
 20
304.95480831886368
 11
870.46346058799281
 21
305.29155225018121
  0
LINE
  8
_0-8_
  6
CONTINUOUS
 62
    7
 10
870.46346058799281
 20
305.29155225018121
 11
870.21890280948696
 21
305.60751196352982
  0
LINE
  8
_0-8_
  6
CONTINUOUS
 62
    7
 10
870.21890280948696
 20
305.60751196352982
 11
869.88698961080115
 21
305.89308718290289
  0
LINE
  8
_0-8_
  6
CONTINUOUS
 62
    7
 10
869.88698961080115
 20
305.89308718290289
 11
869.47780600652152
 21
306.1396008497677
  0
LINE
  8
_0-8_
  6
CONTINUOUS
 62
    7
 10
869.47780600652152
 20
306.1396008497677
 11
869.00378483340717
 21
306.33956277109866
  0
LINE
  8
_0-8_
  6
CONTINUOUS
 62
    7
 10
869.00378483340717
 20
306.33956277109866
 11
868.47932898493673
 21
306.48689720510157
  0
LINE
  8
_0-8_
  6
CONTINUOUS
 62
    7
 10
868.47932898493673
 20
306.48689720510157
 11
867.92037378667862
 21
306.57712746955417
  0
LINE
  8
_0-8_
  6
CONTINUOUS
 62
    7
 10
867.92037378667862
 20
306.57712746955417
 11
867.34390280948696
 21
306.60751196352976
  0
LINE
  8
_0-8_
  6
CONTINUOUS
 62
    7
 10
867.34390280948696
 20
306.60751196352976
 11
866.7674318322953
 21
306.57712746955417
  0
LINE
  8
_0-8_
  6
CONTINUOUS
 62
    7
 10
866.7674318322953
 20
306.57712746955417
 11
866.2084766340372
 21
306.48689720510157
  0
LINE
  8
_0-8_
  6
CONTINUOUS
 62
    7
 10
866.2084766340372
 20
306.48689720510157
 11
865.68402078556687
 21
306.33956277109866
  0
LINE
  8
_0-8_
  6
CONTINUOUS
 62
    7
 10
865.68402078556687
 20
306.33956277109866
 11
865.20999961245241
 21
306.1396008497677
  0
LINE
  8
_0-8_
  6
CONTINUOUS
 62
    7
 10
865.20999961245241
 20
306.1396008497677
 11
864.80081600817277
 21
305.89308718290289
  0
LINE
  8
_0-8_
  6
CONTINUOUS
 62
    7
 10
864.80081600817277
 20
305.89308718290289
 11
864.46890280948696
 21
305.60751196352982
  0
LINE
  8
_0-8_
  6
CONTINUOUS
 62
    7
 10
864.46890280948696
 20
305.60751196352982
 11
864.22434503098111
 21
305.29155225018121
  0
LINE
  8
_0-8_
  6
CONTINUOUS
 62
    7
 10
864.22434503098111
 20
305.29155225018121
 11
864.07457343700264
 21
304.95480831886368
  0
LINE
  8
_0-8_
  6
CONTINUOUS
 62
    7
 10
864.07457343700264
 20
304.95480831886368
 11
864.02413876164667
 21
304.60751202777459
  0
LINE
  8
_0-8_
  6
CONTINUOUS
 62
    7
 10
850.74508257028549
 20
304.60751202777459
 11
850.69464787641186
 21
304.9548083821324
  0
LINE
  8
_0-8_
  6
CONTINUOUS
 62
    7
 10
850.69464787641186
 20
304.9548083821324
 11
850.54487626447849
 21
305.29155231055142
  0
LINE
  8
_0-8_
  6
CONTINUOUS
 62
    7
 10
850.54487626447849
 20
305.29155231055142
 11
850.30031846912584
 21
305.60751201916736
  0
LINE
  8
_0-8_
  6
CONTINUOUS
 62
    7
 10
850.30031846912584
 20
305.60751201916736
 11
849.96840525521338
 21
305.89308723211718
  0
LINE
  8
_0-8_
  6
CONTINUOUS
 62
    7
 10
849.96840525521338
 20
305.89308723211718
 11
849.55922163778985
 21
306.13960089106342
  0
LINE
  8
_0-8_
  6
CONTINUOUS
 62
    7
 10
849.55922163778985
 20
306.13960089106342
 11
849.0852004540136
 21
306.33956280322104
  0
LINE
  8
_0-8_
  6
CONTINUOUS
 62
    7
 10
849.0852004540136
 20
306.33956280322104
 11
848.5607445976874
 21
306.48689722707456
  0
LINE
  8
_0-8_
  6
CONTINUOUS
 62
    7
 10
848.5607445976874
 20
306.48689722707456
 11
848.0017893946183
 21
306.57712748071015
  0
LINE
  8
_0-8_
  6
CONTINUOUS
 62
    7
 10
848.0017893946183
 20
306.57712748071015
 11
847.4253184158066
 21
306.60751196352976
  0
LINE
  8
_0-8_
  6
CONTINUOUS
 62
    7
 10
847.4253184158066
 20
306.60751196352976
 11
846.84884744023498
 21
306.57712745839819
  0
LINE
  8
_0-8_
  6
CONTINUOUS
 62
    7
 10
846.84884744023498
 20
306.57712745839819
 11
846.28989224678787
 21
306.48689718312858
  0
LINE
  8
_0-8_
  6
CONTINUOUS
 62
    7
 10
846.28989224678787
 20
306.48689718312858
 11
845.76543640617331
 21
306.33956273897627
  0
LINE
  8
_0-8_
  6
CONTINUOUS
 62
    7
 10
845.76543640617331
 20
306.33956273897627
 11
845.29141524372073
 21
306.13960080847204
  0
LINE
  8
_0-8_
  6
CONTINUOUS
 62
    7
 10
845.29141524372073
 20
306.13960080847204
 11
844.88223165258501
 21
305.8930871336886
  0
LINE
  8
_0-8_
  6
CONTINUOUS
 62
    7
 10
844.88223165258501
 20
305.8930871336886
 11
844.55031846912595
 21
305.60751190789227
  0
LINE
  8
_0-8_
  6
CONTINUOUS
 62
    7
 10
844.55031846912595
 20
305.60751190789227
 11
844.30576070746679
 21
305.29155218981089
  0
LINE
  8
_0-8_
  6
CONTINUOUS
 62
    7
 10
844.30576070746679
 20
305.29155218981089
 11
844.15598913144333
 21
304.95480825559503
  0
LINE
  8
_0-8_
  6
CONTINUOUS
 62
    7
 10
844.15598913144333
 20
304.95480825559503
 11
844.1055544746049
 21
304.60751196352987
  0
LINE
  8
_0-8_
  6
CONTINUOUS
 62
    7
 10
865.38461063118427
 20
297.90751196352971
 11
865.38461063118427
 21
228.60751196352976
  0
LINE
  8
_0-8_
  6
CONTINUOUS
 62
    7
 10
864.48461057058432
 20
228.60751196352976
 11
864.48461057058432
 21
297.90751196352971
  0
LINE
  8
_0-8_
  6
CONTINUOUS
 62
    7
 10
850.28461076128406
 20
297.90751196352971
 11
850.28461076128406
 21
228.60751196352976
  0
LINE
  8
_0-8_
  6
CONTINUOUS
 62
    7
 10
849.38461063118405
 20
228.60751196352976
 11
849.38461063118405
 21
297.90751196352971
  0
LINE
  8
_0-9_
  6
PHANTOM1
 62
  152
 10
832.38461066596608
 20
273.6075119635293
 11
832.38461066596608
 21
276.60751196352999
  0
LINE
  8
_0-9_
  6
PHANTOM1
 62
  152
 10
834.3346106659659
 20
270.60751196352976
 11
834.3346106659659
 21
273.6075119635293
  0
LINE
  8
_0-9_
  6
PHANTOM1
 62
  152
 10
832.63461066596585
 20
276.60751196352999
 11
832.63461066596585
 21
284.10751196352999
  0
ARC
  8
_0-9_
  6
PHANTOM1
 62
  152
 10
835.63461066596608
 20
284.10751196352999
 40
2.9999999999999858
 50
89.999999999999829
 51
180.0000000000002
  0
LINE
  8
_0-9_
  6
PHANTOM1
 62
  152
 10
880.43461066596672
 20
270.60751196352976
 11
834.3346106659659
 21
270.60751196352976
  0
ARC
  8
_0-9_
  6
PHANTOM1
 62
  152
 10
879.13461066596608
 20
284.10751196352999
 40
2.9999999999999933
 50
359.99999999999977
 51
90.000000000000199
  0
LINE
  8
_0-9_
  6
PHANTOM1
 62
  152
 10
882.13461066596631
 20
284.10751196352999
 11
882.13461066596631
 21
276.60751196352999
  0
LINE
  8
_0-9_
  6
PHANTOM1
 62
  152
 10
882.38461066596608
 20
276.60751196352999
 11
882.38461066596608
 21
273.6075119635293
  0
LINE
  8
_0-9_
  6
PHANTOM1
 62
  152
 10
880.43461066596672
 20
273.6075119635293
 11
880.43461066596672
 21
270.60751196352976
  0
LINE
  8
_0-9_
  6
PHANTOM1
 62
  152
 10
832.38461066596608
 20
276.60751196352999
 11
832.63461066596585
 21
276.60751196352999
  0
LINE
  8
_0-9_
  6
PHANTOM1
 62
  152
 10
882.13461066596631
 20
276.60751196352999
 11
882.38461066596608
 21
276.60751196352999
  0
LINE
  8
_0-9_
  6
PHANTOM1
 62
  152
 10
882.38461066596608
 20
273.6075119635293
 11
880.43461066596672
 21
273.6075119635293
  0
LINE
  8
_0-9_
  6
PHANTOM1
 62
  152
 10
834.3346106659659
 20
273.6075119635293
 11
832.38461066596608
 21
273.6075119635293
  0
LINE
  8
_0-9_
  6
PHANTOM1
 62
  152
 10
875.38461066596608
 20
287.10751196352953
 11
879.13461066596608
 21
287.10751196352953
  0
LINE
  8
_0-9_
  6
PHANTOM1
 62
  152
 10
844.68290474379467
 20
296.6075119635293
 11
844.68290474379467
 21
289.50751196352962
  0
LINE
  8
_0-9_
  6
PHANTOM1
 62
  152
 10
875.38461066596608
 20
287.10751196352953
 11
875.38461066596608
 21
287.50751196352985
  0
LINE
  8
_0-9_
  6
PHANTOM1
 62
  152
 10
839.63461066596562
 20
287.50751196352985
 11
839.63461066596562
 21
287.10751196352953
  0
LINE
  8
_0-9_
  6
PHANTOM1
 62
  152
 10
835.63461066596608
 20
287.10751196352953
 11
839.63461066596562
 21
287.10751196352953
  0
LINE
  8
_0-9_
  6
PHANTOM1
 62
  152
 10
866.91089010759435
 20
287.50751196352974
 11
866.91089010759435
 21
287.50751196352974
  0
LINE
  8
_0-9_
  6
PHANTOM1
 62
  152
 10
866.91089010759435
 20
287.50751196352974
 11
867.46229712925583
 21
287.53789645750533
  0
LINE
  8
_0-9_
  6
PHANTOM1
 62
  152
 10
867.46229712925583
 20
287.53789645750533
 11
867.99694992758964
 21
287.62812672195793
  0
LINE
  8
_0-9_
  6
PHANTOM1
 62
  152
 10
867.99694992758964
 20
287.62812672195793
 11
868.4986033478657
 21
287.77546115596084
  0
LINE
  8
_0-9_
  6
PHANTOM1
 62
  152
 10
868.4986033478657
 20
287.77546115596084
 11
868.95201490475768
 21
287.97542307729174
  0
LINE
  8
_0-9_
  6
PHANTOM1
 62
  152
 10
868.95201490475768
 20
287.97542307729174
 11
869.34340791754687
 21
288.22193674415661
  0
LINE
  8
_0-9_
  6
PHANTOM1
 62
  152
 10
869.34340791754687
 20
288.22193674415661
 11
869.66089010759401
 21
288.50751196352968
  0
LINE
  8
_0-9_
  6
PHANTOM1
 62
  152
 10
869.66089010759401
 20
288.50751196352968
 11
869.89481493920835
 21
288.82347167687834
  0
LINE
  8
_0-9_
  6
PHANTOM1
 62
  152
 10
869.89481493920835
 20
288.82347167687834
 11
870.03807472475296
 21
289.16021560819576
  0
LINE
  8
_0-9_
  6
PHANTOM1
 62
  152
 10
870.03807472475296
 20
289.16021560819576
 11
870.08631658813692
 21
289.50751196352962
  0
LINE
  8
_0-9_
  6
PHANTOM1
 62
  152
 10
875.38461066596608
 20
287.50751196352985
 11
866.91089010759435
 21
287.50751196352985
  0
LINE
  8
_0-9_
  6
PHANTOM1
 62
  152
 10
839.63461066596562
 20
287.50751196352985
 11
847.8583312243378
 21
287.50751196352985
  0
LINE
  8
_0-9_
  6
PHANTOM1
 62
  152
 10
844.68290474379523
 20
289.50751196352962
 11
844.68290474379523
 21
289.50751196352962
  0
LINE
  8
_0-9_
  6
PHANTOM1
 62
  152
 10
844.68290474379523
 20
289.50751196352962
 11
844.7311466071792
 21
289.16021560819576
  0
LINE
  8
_0-9_
  6
PHANTOM1
 62
  152
 10
844.7311466071792
 20
289.16021560819576
 11
844.87440639272381
 21
288.82347167687834
  0
LINE
  8
_0-9_
  6
PHANTOM1
 62
  152
 10
844.87440639272381
 20
288.82347167687834
 11
845.10833122433814
 21
288.50751196352968
  0
LINE
  8
_0-9_
  6
PHANTOM1
 62
  152
 10
845.10833122433814
 20
288.50751196352968
 11
845.42581341438529
 21
288.22193674415661
  0
LINE
  8
_0-9_
  6
PHANTOM1
 62
  152
 10
845.42581341438529
 20
288.22193674415661
 11
845.81720642717448
 21
287.97542307729174
  0
LINE
  8
_0-9_
  6
PHANTOM1
 62
  152
 10
845.81720642717448
 20
287.97542307729174
 11
846.27061798406646
 21
287.77546115596084
  0
LINE
  8
_0-9_
  6
PHANTOM1
 62
  152
 10
846.27061798406646
 20
287.77546115596084
 11
846.77227140434252
 21
287.62812672195793
  0
LINE
  8
_0-9_
  6
PHANTOM1
 62
  152
 10
846.77227140434252
 20
287.62812672195793
 11
847.30692420267633
 21
287.53789645750533
  0
LINE
  8
_0-9_
  6
PHANTOM1
 62
  152
 10
847.30692420267633
 20
287.53789645750533
 11
847.8583312243378
 21
287.50751196352974
  0
LINE
  8
_0-9_
  6
PHANTOM1
 62
  152
 10
870.08631658813749
 20
289.50751196352962
 11
870.08631658813749
 21
296.6075119635293
  0
LINE
  8
_0-8_
  6
CONTINUOUS
 62
  152
 10
125.7089494328942
 20
350.70751196352944
 11
141.70894943289443
 21
350.70751196352944
  0
LINE
  8
_0-8_
  6
CONTINUOUS
 62
    7
 10
140.80894943289411
 20
351.60751196352976
 11
126.60894943289452
 21
351.60751196352976
  0
LINE
  8
_0-8_
  6
CONTINUOUS
 62
    7
 10
126.60894943289452
 20
351.60751196352976
 11
125.7089494328942
 21
350.70751196352944
  0
LINE
  8
_0-8_
  6
CONTINUOUS
 62
    7
 10
141.70894943289443
 20
350.70751196352944
 11
140.80894943289411
 21
351.60751196352976
  0
LINE
  8
_0-8_
  6
CONTINUOUS
 62
  152
 10
126.60894956299421
 20
321.60751196352976
 11
126.60894956299421
 21
351.60751209362945
  0
LINE
  8
_0-8_
  6
CONTINUOUS
 62
  152
 10
140.80894937229448
 20
321.60751196352976
 11
140.80894937229448
 21
351.60751202412945
  0
LINE
  8
_0-8_
  6
CONTINUOUS
 62
    7
 10
125.7089494328942
 20
350.70751196352944
 11
125.7089494328942
 21
321.60751196352976
  0
LINE
  8
_0-8_
  6
CONTINUOUS
 62
    7
 10
141.70894943289443
 20
350.70751196352944
 11
141.70894943289443
 21
321.60751196352976
  0
LINE
  8
_0-8_
  6
CONTINUOUS
 62
  152
 10
283.46214633203914
 20
350.70751196352944
 11
299.46214633203937
 21
350.70751196352944
  0
LINE
  8
_0-8_
  6
CONTINUOUS
 62
    7
 10
298.56214633203905
 20
351.60751196352976
 11
284.36214633203946
 21
351.60751196352976
  0
LINE
  8
_0-8_
  6
CONTINUOUS
 62
    7
 10
284.36214633203946
 20
351.60751196352976
 11
283.46214633203914
 21
350.70751196352944
  0
LINE
  8
_0-8_
  6
CONTINUOUS
 62
    7
 10
299.46214633203937
 20
350.70751196352944
 11
298.56214633203905
 21
351.60751196352976
  0
LINE
  8
_0-8_
  6
CONTINUOUS
 62
  152
 10
284.36214646213915
 20
321.60751196352976
 11
284.36214646213915
 21
351.60751209362945
  0
LINE
  8
_0-8_
  6
CONTINUOUS
 62
  152
 10
298.56214627143942
 20
321.60751196352976
 11
298.56214627143942
 21
351.60751202412945
  0
LINE
  8
_0-8_
  6
CONTINUOUS
 62
    7
 10
283.46214633203914
 20
350.70751196352944
 11
283.46214633203914
 21
321.60751196352976
  0
LINE
  8
_0-8_
  6
CONTINUOUS
 62
    7
 10
299.46214633203937
 20
350.70751196352944
 11
299.46214633203937
 21
321.60751196352976
  0
LINE
  8
_0-8_
  6
CONTINUOUS
 62
  152
 10
691.63141373203905
 20
350.70751196352944
 11
707.63141373203928
 21
350.70751196352944
  0
LINE
  8
_0-8_
  6
CONTINUOUS
 62
    7
 10
706.73141373203896
 20
351.60751196352976
 11
692.53141373203937
 21
351.60751196352976
  0
LINE
  8
_0-8_
  6
CONTINUOUS
 62
    7
 10
692.53141373203937
 20
351.60751196352976
 11
691.63141373203905
 21
350.70751196352944
  0
LINE
  8
_0-8_
  6
CONTINUOUS
 62
    7
 10
707.63141373203928
 20
350.70751196352944
 11
706.73141373203896
 21
351.60751196352976
  0
LINE
  8
_0-8_
  6
CONTINUOUS
 62
  152
 10
692.53141386213906
 20
321.60751196352976
 11
692.53141386213906
 21
351.60751209362945
  0
LINE
  8
_0-8_
  6
CONTINUOUS
 62
  152
 10
706.73141367143933
 20
321.60751196352976
 11
706.73141367143933
 21
351.60751202412945
  0
LINE
  8
_0-8_
  6
CONTINUOUS
 62
    7
 10
691.63141373203905
 20
350.70751196352944
 11
691.63141373203905
 21
321.60751196352976
  0
LINE
  8
_0-8_
  6
CONTINUOUS
 62
    7
 10
707.63141373203928
 20
350.70751196352944
 11
707.63141373203928
 21
321.60751196352976
  0
LINE
  8
_0-8_
  6
CONTINUOUS
 62
  152
 10
849.38461063118405
 20
350.70751196352944
 11
865.38461063118427
 21
350.70751196352944
  0
LINE
  8
_0-8_
  6
CONTINUOUS
 62
    7
 10
864.48461063118395
 20
351.60751196352976
 11
850.28461063118436
 21
351.60751196352976
  0
LINE
  8
_0-8_
  6
CONTINUOUS
 62
    7
 10
850.28461063118436
 20
351.60751196352976
 11
849.38461063118405
 21
350.70751196352944
  0
LINE
  8
_0-8_
  6
CONTINUOUS
 62
    7
 10
865.38461063118427
 20
350.70751196352944
 11
864.48461063118395
 21
351.60751196352976
  0
LINE
  8
_0-8_
  6
CONTINUOUS
 62
  152
 10
850.28461076128406
 20
321.60751196352976
 11
850.28461076128406
 21
351.60751209362945
  0
LINE
  8
_0-8_
  6
CONTINUOUS
 62
  152
 10
864.48461057058432
 20
321.60751196352976
 11
864.48461057058432
 21
351.60751202412945
  0
LINE
  8
_0-8_
  6
CONTINUOUS
 62
    7
 10
849.38461063118405
 20
350.70751196352944
 11
849.38461063118405
 21
321.60751196352976
  0
LINE
  8
_0-8_
  6
CONTINUOUS
 62
    7
 10
865.38461063118427
 20
350.70751196352944
 11
865.38461063118427
 21
321.60751196352976
  0
LINE
  8
_0-9_
  6
PHANTOM1
 62
  152
 10
141.70894943289443
 20
419.70751196352944
 11
140.80894943289411
 21
420.60751196352976
  0
LINE
  8
_0-9_
  6
PHANTOM1
 62
  152
 10
140.80894943289411
 20
420.60751196352976
 11
126.60894943289452
 21
420.60751196352976
  0
LINE
  8
_0-9_
  6
PHANTOM1
 62
  152
 10
126.60894943289452
 20
420.60751196352976
 11
125.7089494328942
 21
419.70751196352944
  0
LINE
  8
_0-9_
  6
PHANTOM1
 62
  152
 10
125.7089494328942
 20
419.70751196352944
 11
125.7089494328942
 21
354.53885842441321
  0
LINE
  8
_0-9_
  6
PHANTOM1
 62
  152
 10
141.70894943289443
 20
354.53885842441321
 11
141.70894943289443
 21
419.70751196352944
  0
LINE
  8
_0-9_
  6
PHANTOM1
 62
  152
 10
299.46214633203937
 20
419.70751196352944
 11
298.56214633203905
 21
420.60751196352976
  0
LINE
  8
_0-9_
  6
PHANTOM1
 62
  152
 10
298.56214633203905
 20
420.60751196352976
 11
284.36214633203946
 21
420.60751196352976
  0
LINE
  8
_0-9_
  6
PHANTOM1
 62
  152
 10
284.36214633203946
 20
420.60751196352976
 11
283.46214633203914
 21
419.70751196352944
  0
LINE
  8
_0-9_
  6
PHANTOM1
 62
  152
 10
283.46214633203914
 20
419.70751196352944
 11
283.46214633203914
 21
354.53885842441321
  0
LINE
  8
_0-9_
  6
PHANTOM1
 62
  152
 10
299.46214633203937
 20
354.53885842441321
 11
299.46214633203937
 21
419.70751196352944
  0
LINE
  8
_0-9_
  6
PHANTOM1
 62
  152
 10
707.63141373203928
 20
419.70751196352944
 11
706.73141373203896
 21
420.60751196352976
  0
LINE
  8
_0-9_
  6
PHANTOM1
 62
  152
 10
706.73141373203896
 20
420.60751196352976
 11
692.53141373203937
 21
420.60751196352976
  0
LINE
  8
_0-9_
  6
PHANTOM1
 62
  152
 10
692.53141373203937
 20
420.60751196352976
 11
691.63141373203905
 21
419.70751196352944
  0
LINE
  8
_0-9_
  6
PHANTOM1
 62
  152
 10
691.63141373203905
 20
419.70751196352944
 11
691.63141373203905
 21
354.53885842441321
  0
LINE
  8
_0-9_
  6
PHANTOM1
 62
  152
 10
707.63141373203928
 20
354.53885842441321
 11
707.63141373203928
 21
419.70751196352944
  0
LINE
  8
_0-9_
  6
PHANTOM1
 62
  152
 10
865.38461063118427
 20
419.70751196352944
 11
864.48461063118395
 21
420.60751196352976
  0
LINE
  8
_0-9_
  6
PHANTOM1
 62
  152
 10
864.48461063118395
 20
420.60751196352976
 11
850.28461063118436
 21
420.60751196352976
  0
LINE
  8
_0-9_
  6
PHANTOM1
 62
  152
 10
850.28461063118436
 20
420.60751196352976
 11
849.38461063118405
 21
419.70751196352944
  0
LINE
  8
_0-9_
  6
PHANTOM1
 62
  152
 10
849.38461063118405
 20
419.70751196352944
 11
849.38461063118405
 21
354.53885842441321
  0
LINE
  8
_0-9_
  6
PHANTOM1
 62
  152
 10
865.38461063118427
 20
354.53885842441321
 11
865.38461063118427
 21
419.70751196352944
  0
LINE
  8
_0-1_
  6
CENTER1
 62
  152
 10
133.70894946767623
 20
421.90751196352977
 11
133.70894946767623
 21
171.60751196352976
  0
TEXT
  8
_0-0_
 62
    7
 10
329.32057228892035
 20
173.59475749777019
 40
10
 41
1
 50
0
  1
L
  0
TEXT
  8
_0-0_
 62
    7
 10
648.33327487323925
 20
173.84034079460184
 40
10
 41
1
 50
0
  1
R
  0
LINE
  8
_0-9_
  6
PHANTOM1
 62
  152
 10
108.70894946767623
 20
174.6075119635293
 11
108.70894946767623
 21
177.60751196352999
  0
LINE
  8
_0-9_
  6
PHANTOM1
 62
  152
 10
110.65894946767605
 20
171.60751196352976
 11
110.65894946767605
 21
174.6075119635293
  0
LINE
  8
_0-9_
  6
PHANTOM1
 62
  152
 10
108.95894946767601
 20
177.60751196352999
 11
108.95894946767601
 21
185.10751196352999
  0
LINE
  8
_0-9_
  6
PHANTOM1
 62
  152
 10
156.75894946767687
 20
171.60751196352976
 11
110.65894946767605
 21
171.60751196352976
  0
LINE
  8
_0-9_
  6
PHANTOM1
 62
  152
 10
158.45894946767646
 20
185.10751196352999
 11
158.45894946767646
 21
177.60751196352999
  0
LINE
  8
_0-9_
  6
PHANTOM1
 62
  152
 10
158.70894946767623
 20
177.60751196352999
 11
158.70894946767623
 21
174.6075119635293
  0
LINE
  8
_0-9_
  6
PHANTOM1
 62
  152
 10
156.75894946767687
 20
174.6075119635293
 11
156.75894946767687
 21
171.60751196352976
  0
LINE
  8
_0-9_
  6
PHANTOM1
 62
  152
 10
108.70894946767623
 20
177.60751196352999
 11
108.95894946767601
 21
177.60751196352999
  0
LINE
  8
_0-9_
  6
PHANTOM1
 62
  152
 10
158.45894946767646
 20
177.60751196352999
 11
158.70894946767623
 21
177.60751196352999
  0
LINE
  8
_0-9_
  6
PHANTOM1
 62
  152
 10
158.70894946767623
 20
174.6075119635293
 11
156.75894946767687
 21
174.6075119635293
  0
LINE
  8
_0-9_
  6
PHANTOM1
 62
  152
 10
110.65894946767605
 20
174.6075119635293
 11
108.70894946767623
 21
174.6075119635293
  0
LINE
  8
_0-9_
  6
PHANTOM1
 62
  152
 10
266.46214636682117
 20
174.6075119635293
 11
266.46214636682117
 21
177.60751196352999
  0
LINE
  8
_0-9_
  6
PHANTOM1
 62
  152
 10
268.41214636682099
 20
171.60751196352976
 11
268.41214636682099
 21
174.6075119635293
  0
LINE
  8
_0-9_
  6
PHANTOM1
 62
  152
 10
266.71214636682095
 20
177.60751196352999
 11
266.71214636682095
 21
185.10751196352999
  0
LINE
  8
_0-9_
  6
PHANTOM1
 62
  152
 10
314.51214636682181
 20
171.60751196352976
 11
268.41214636682099
 21
171.60751196352976
  0
LINE
  8
_0-9_
  6
PHANTOM1
 62
  152
 10
316.2121463668214
 20
185.10751196352999
 11
316.2121463668214
 21
177.60751196352999
  0
LINE
  8
_0-9_
  6
PHANTOM1
 62
  152
 10
316.46214636682117
 20
177.60751196352999
 11
316.46214636682117
 21
174.6075119635293
  0
LINE
  8
_0-9_
  6
PHANTOM1
 62
  152
 10
314.51214636682181
 20
174.6075119635293
 11
314.51214636682181
 21
171.60751196352976
  0
LINE
  8
_0-9_
  6
PHANTOM1
 62
  152
 10
266.46214636682117
 20
177.60751196352999
 11
266.71214636682095
 21
177.60751196352999
  0
LINE
  8
_0-9_
  6
PHANTOM1
 62
  152
 10
316.2121463668214
 20
177.60751196352999
 11
316.46214636682117
 21
177.60751196352999
  0
LINE
  8
_0-9_
  6
PHANTOM1
 62
  152
 10
316.46214636682117
 20
174.6075119635293
 11
314.51214636682181
 21
174.6075119635293
  0
LINE
  8
_0-9_
  6
PHANTOM1
 62
  152
 10
268.41214636682099
 20
174.6075119635293
 11
266.46214636682117
 21
174.6075119635293
  0
LINE
  8
_0-9_
  6
PHANTOM1
 62
  152
 10
674.63141376682108
 20
174.6075119635293
 11
674.63141376682108
 21
177.60751196352999
  0
LINE
  8
_0-9_
  6
PHANTOM1
 62
  152
 10
676.5814137668209
 20
171.60751196352976
 11
676.5814137668209
 21
174.6075119635293
  0
LINE
  8
_0-9_
  6
PHANTOM1
 62
  152
 10
674.88141376682086
 20
177.60751196352999
 11
674.88141376682086
 21
185.10751196352999
  0
LINE
  8
_0-9_
  6
PHANTOM1
 62
  152
 10
722.68141376682172
 20
171.60751196352976
 11
676.5814137668209
 21
171.60751196352976
  0
LINE
  8
_0-9_
  6
PHANTOM1
 62
  152
 10
724.38141376682131
 20
185.10751196352999
 11
724.38141376682131
 21
177.60751196352999
  0
LINE
  8
_0-9_
  6
PHANTOM1
 62
  152
 10
724.63141376682108
 20
177.60751196352999
 11
724.63141376682108
 21
174.6075119635293
  0
LINE
  8
_0-9_
  6
PHANTOM1
 62
  152
 10
722.68141376682172
 20
174.6075119635293
 11
722.68141376682172
 21
171.60751196352976
  0
LINE
  8
_0-9_
  6
PHANTOM1
 62
  152
 10
674.63141376682108
 20
177.60751196352999
 11
674.88141376682086
 21
177.60751196352999
  0
LINE
  8
_0-9_
  6
PHANTOM1
 62
  152
 10
724.38141376682131
 20
177.60751196352999
 11
724.63141376682108
 21
177.60751196352999
  0
LINE
  8
_0-9_
  6
PHANTOM1
 62
  152
 10
724.63141376682108
 20
174.6075119635293
 11
722.68141376682172
 21
174.6075119635293
  0
LINE
  8
_0-9_
  6
PHANTOM1
 62
  152
 10
676.5814137668209
 20
174.6075119635293
 11
674.63141376682108
 21
174.6075119635293
  0
LINE
  8
_0-9_
  6
PHANTOM1
 62
  152
 10
832.38461066596608
 20
174.6075119635293
 11
832.38461066596608
 21
177.60751196352999
  0
LINE
  8
_0-9_
  6
PHANTOM1
 62
  152
 10
834.3346106659659
 20
171.60751196352976
 11
834.3346106659659
 21
174.6075119635293
  0
LINE
  8
_0-9_
  6
PHANTOM1
 62
  152
 10
832.63461066596585
 20
177.60751196352999
 11
832.63461066596585
 21
185.10751196352999
  0
LINE
  8
_0-9_
  6
PHANTOM1
 62
  152
 10
880.43461066596672
 20
171.60751196352976
 11
834.3346106659659
 21
171.60751196352976
  0
LINE
  8
_0-9_
  6
PHANTOM1
 62
  152
 10
882.13461066596631
 20
185.10751196352999
 11
882.13461066596631
 21
177.60751196352999
  0
LINE
  8
_0-9_
  6
PHANTOM1
 62
  152
 10
882.38461066596608
 20
177.60751196352999
 11
882.38461066596608
 21
174.6075119635293
  0
LINE
  8
_0-9_
  6
PHANTOM1
 62
  152
 10
880.43461066596672
 20
174.6075119635293
 11
880.43461066596672
 21
171.60751196352976
  0
LINE
  8
_0-9_
  6
PHANTOM1
 62
  152
 10
832.38461066596608
 20
177.60751196352999
 11
832.63461066596585
 21
177.60751196352999
  0
LINE
  8
_0-9_
  6
PHANTOM1
 62
  152
 10
882.13461066596631
 20
177.60751196352999
 11
882.38461066596608
 21
177.60751196352999
  0
LINE
  8
_0-9_
  6
PHANTOM1
 62
  152
 10
882.38461066596608
 20
174.6075119635293
 11
880.43461066596672
 21
174.6075119635293
  0
LINE
  8
_0-9_
  6
PHANTOM1
 62
  152
 10
834.3346106659659
 20
174.6075119635293
 11
832.38461066596608
 21
174.6075119635293
  0
LINE
  8
_0-1_
  6
CENTER1
 62
  152
 10
291.46214636682117
 20
421.90751196352977
 11
291.46214636682117
 21
171.60751196352976
  0
LINE
  8
_0-1_
  6
CENTER1
 62
  152
 10
857.38461066596597
 20
171.60751196352976
 11
857.38461066596597
 21
421.90751196352977
  0
LINE
  8
_0-1_
  6
CENTER1
 62
  152
 10
699.63141376682108
 20
421.90751196352977
 11
699.63141376682108
 21
171.60751196352976
  0
ENDSEC
  0
EOF
