  0
SECTION
  2
HEADER
  9
$ACADVER
  1
AC1009
  9
$INSBASE
 10
0
 20
0
 30
0
  9
$EXTMIN
 10
0
 20
0
  9
$EXTMAX
 10
1189
 20
841
  9
$LIMMIN
 10
0
 20
0
  9
$LIMMAX
 10
1189
 20
841
  9
$LTSCALE
 40
1
  0
ENDSEC
  0
SECTION
  2
TABLES
  0
TABLE
  2
LTYPE
 70
     9
  0
LTYPE
  2
CONTINUOUS
 70
    64
  3
実線
 72
    65
 73
     0
 40
0.0
  0
LTYPE
  2
DASHED1
 70
    64
  3
--  --  --  --  --  --  --  --  
 72
    65
 73
     2
 40
2.5
 49
1.25
 49
-1.25
  0
LTYPE
  2
DASHED2
 70
    64
  3
----    ----    ----    ----    
 72
    65
 73
     2
 40
5.0
 49
2.5
 49
-2.5
  0
LTYPE
  2
DASHED3
 70
    64
  3
------  ------  ------  ------  
 72
    65
 73
     2
 40
5.0
 49
3.75
 49
-1.25
  0
LTYPE
  2
CENTER1
 70
    64
  3
----- - ----- - ----- - ----- - 
 72
    65
 73
     4
 40
10.0
 49
6.25
 49
-1.25
 49
1.25
 49
-1.25
  0
LTYPE
  2
CENTER2
 70
    64
  3
----------  --  ----------  --  
 72
    65
 73
     4
 40
20.0
 49
12.5
 49
-2.5
 49
2.5
 49
-2.5
  0
LTYPE
  2
PHANTOM1
 70
    64
  3
--- - - --- - - --- - - --- - - 
 72
    65
 73
     6
 40
10.0
 49
3.25
 49
-1.25
 49
1.25
 49
-1.25
 49
1.25
 49
-1.25
  0
LTYPE
  2
PHANTOM2
 70
    64
  3
--------  -  -  --------  -  -  
 72
    65
 73
     6
 40
20.0
 49
10.0
 49
-2.5
 49
1.25
 49
-2.5
 49
1.25
 49
-2.5
  0
LTYPE
  2
DOT
 70
    64
  3
-   -   -   -   -   -   -   -   
 72
    65
 73
     2
 40
2.5
 49
0.625
 49
-1.875
  0
LTYPE
  2
DUMMY
 70
    64
  3
ダミー
 72
    65
 73
     0
 40
0.0
  0
LTYPE
  2
RAND1
 70
    64
  3
ランダム線1
 72
    65
 73
     4
 40
10.0
 49
1.0
 49
-2.0
 49
3.0
 49
-4.0
  0
LTYPE
  2
RAND2
 70
    64
  3
ランダム線2
 72
    65
 73
     4
 40
14.0
 49
2.0
 49
-3.0
 49
4.0
 49
-5.0
  0
LTYPE
  2
RAND3
 70
    64
  3
ランダム線3
 72
    65
 73
     4
 40
18.0
 49
3.0
 49
-4.0
 49
5.0
 49
-6.0
  0
LTYPE
  2
RAND4
 70
    64
  3
ランダム線4
 72
    65
 73
     4
 40
22.0
 49
4.0
 49
-5.0
 49
6.0
 49
-7.0
  0
LTYPE
  2
RAND5
 70
    64
  3
ランダム線5
 72
    65
 73
     4
 40
26.0
 49
5.0
 49
-6.0
 49
7.0
 49
-8.0
  0
LTYPE
  2
LONG1
 70
    64
  3
----------  --  ----------  --  
 72
    65
 73
     4
 40
40.0
 49
32.5
 49
-2.5
 49
2.5
 49
-2.5
  0
LTYPE
  2
LONG2
 70
    64
  3
--------  -  -  --------  -  -  
 72
    65
 73
     6
 40
40.0
 49
30.0
 49
-2.5
 49
1.25
 49
-2.5
 49
1.25
 49
-2.5
  0
LTYPE
  2
LONG3
 70
    64
  3
+++++++++++++++..+++++++++++++++
 72
    65
 73
     2
 40
40.0
 49
37.5
 49
-2.5
  0
LTYPE
  2
LONG4
 70
    64
  3
+++++++++++++++..+++++++++++++++
 72
    65
 73
     2
 40
80.0
 49
75.0
 49
-5.0
  0
LTYPE
  2
LONG5
 70
    64
  3
----------  --  ----------  --  
 72
    65
 73
     4
 40
60.0
 49
37.5
 49
-7.5
 49
7.5
 49
-7.5
  0
LTYPE
  2
dashed
 70
   64
  3
-------   -------------   ------
 72
   65
 73
    2
 40
7.5
 49
6
 49
-1.5
  0
LTYPE
  2
dashed_spaced
 70
   64
  3
----        --------        ----
 72
   65
 73
    2
 40
12
 49
6
 49
-6
  0
LTYPE
  2
long_dashed_dotted
 70
   64
  3
------------- --- --------------
 72
   65
 73
    4
 40
15.25
 49
12
 49
-1.5
 49
0.25
 49
-1.5
  0
LTYPE
  2
long_dashed_double-dotted
 70
   64
  3
----------- --- --- ------------
 72
   65
 73
    6
 40
17
 49
12
 49
-1.5
 49
0.25
 49
-1.5
 49
0.25
 49
-1.5
  0
LTYPE
  2
long_dashed_triplicate-dotted
 70
   64
  3
--------- --- --- --- ----------
 72
   65
 73
    8
 40
18.75
 49
12
 49
-1.5
 49
0.25
 49
-1.5
 49
0.25
 49
-1.5
 49
0.25
 49
-1.5
  0
LTYPE
  2
dotted
 70
   64
  3
   -       -       -       -    
 72
   65
 73
    2
 40
1.75
 49
0.25
 49
-1.5
  0
LTYPE
  2
chain
 70
   64
  3
-------------- -- --------------
 72
   65
 73
    4
 40
18.5
 49
12
 49
-1.5
 49
3.5
 49
-1.5
  0
LTYPE
  2
chain_double_dash
 70
   64
  3
------------ -- -- -------------
 72
   65
 73
    6
 40
23.5
 49
12
 49
-1.5
 49
3.5
 49
-1.5
 49
3.5
 49
-1.5
  0
LTYPE
  2
dashed_dotted
 70
   64
  3
-----------     -     ----------
 72
   65
 73
    4
 40
9.25
 49
6
 49
-1.5
 49
0.25
 49
-1.5
  0
LTYPE
  2
double-dashed_dotted
 70
   64
  3
------   -----------   -   -----
 72
   65
 73
    6
 40
16.75
 49
6
 49
-1.5
 49
6
 49
-1.5
 49
0.25
 49
-1.5
  0
LTYPE
  2
dashed_double-dotted
 70
   64
  3
---------    -    -    ---------
 72
   65
 73
    6
 40
11
 49
6
 49
-1.5
 49
0.25
 49
-1.5
 49
0.25
 49
-1.5
  0
LTYPE
  2
double-dashed_double-dotted
 70
   64
  3
-----   ---------   -   -   ----
 72
   65
 73
    8
 40
18.5
 49
6
 49
-1.5
 49
6
 49
-1.5
 49
0.25
 49
-1.5
 49
0.25
 49
-1.5
  0
LTYPE
  2
dashed_triplicate-dotted
 70
   64
  3
-------    -    -    -    ------
 72
   65
 73
    8
 40
12.75
 49
6
 49
-1.5
 49
0.25
 49
-1.5
 49
0.25
 49
-1.5
 49
0.25
 49
-1.5
  0
LTYPE
  2
double-dashed_triplicate-dotted
 70
   64
  3
-----  ---------  -  -  -  -----
 72
   65
 73
   10
 40
20.25
 49
6
 49
-1.5
 49
6
 49
-1.5
 49
0.25
 49
-1.5
 49
0.25
 49
-1.5
 49
0.25
 49
-1.5
  0
LTYPE
  2
undefined
 70
   64
  3
--------------------------------
 72
   65
 73
    0
 40
0
  0
LTYPE
  2
_
 70
   64
  3
                                
 72
   65
 73
    0
 40
0
  0
LTYPE
  2
__18
 70
   64
  3
                                
 72
   65
 73
    0
 40
0
  0
LTYPE
  2
__19
 70
   64
  3
                                
 72
   65
 73
    0
 40
0
  0
LTYPE
  2
__20
 70
   64
  3
                                
 72
   65
 73
    0
 40
0
  0
LTYPE
  2
__21
 70
   64
  3
                                
 72
   65
 73
    0
 40
0
  0
LTYPE
  2
__22
 70
   64
  3
                                
 72
   65
 73
    0
 40
0
  0
LTYPE
  2
__23
 70
   64
  3
                                
 72
   65
 73
    0
 40
0
  0
LTYPE
  2
__24
 70
   64
  3
                                
 72
   65
 73
    0
 40
0
  0
LTYPE
  2
__25
 70
   64
  3
                                
 72
   65
 73
    0
 40
0
  0
LTYPE
  2
__26
 70
   64
  3
                                
 72
   65
 73
    0
 40
0
  0
LTYPE
  2
__27
 70
   64
  3
                                
 72
   65
 73
    0
 40
0
  0
LTYPE
  2
__28
 70
   64
  3
                                
 72
   65
 73
    0
 40
0
  0
LTYPE
  2
__29
 70
   64
  3
                                
 72
   65
 73
    0
 40
0
  0
LTYPE
  2
__30
 70
   64
  3
                                
 72
   65
 73
    0
 40
0
  0
LTYPE
  2
__31
 70
   64
  3
                                
 72
   65
 73
    0
 40
0
  0
LTYPE
  2
__32
 70
   64
  3
                                
 72
   65
 73
    0
 40
0
  0
ENDTAB
  0
TABLE
  2
STYLE
  5
3
100
AcDbSymbolTable
 70
     1
  0
STYLE
  5
10
100
AcDbSymbolTableRecord
100
AcDbTextStyleTableRecord
  2
STANDARD
 70
     0
 40
0.0
 41
1.0
 50
0.0
 71
     0
 42
0.2
  3
txt
  4
bigfont.shx
  0
STYLE
  5
26
100
AcDbSymbolTableRecord
100
AcDbTextStyleTableRecord
  2
TATEGAKI
 70
    68
 40
0.0
 41
1.0
 50
0.0
 71
     0
 42
1.0
  3
txt
  4
bigfont.shx
  0
ENDTAB
  0
TABLE
  2
LAYER
 70
    4
  0
LAYER
  2
_0-0_
 70
   64
 62
    7
  6
CONTINUOUS
  0
LAYER
  2
_0-1_
 70
   64
 62
    7
  6
CONTINUOUS
  0
LAYER
  2
_0-f_
 70
   64
 62
    7
  6
CONTINUOUS
  0
LAYER
  2
ADD_LINE
 70
   64
 62
    7
  6
CONTINUOUS
  0
ENDTAB
  0
ENDSEC
  0
SECTION
  2
BLOCKS
  0
ENDSEC
  0
SECTION
  2
ENTITIES
  0
TEXT
  8
_0-f_
 62
    7
 10
0.27441048336334
 20
0.3235024350124717
 40
4.2999999999999998
 41
0.744186046511628
 50
0
  1
AIFF-M16
  0
LINE
  8
_0-0_
  6
CONTINUOUS
 62
    7
 10
350.55807508954609
 20
136.32312587812703
 11
348.05807508954609
 21
137.7665015847997
  0
LINE
  8
_0-0_
  6
CONTINUOUS
 62
    7
 10
348.05807508954609
 20
137.7665015847997
 11
348.05807508954609
 21
140.65325299814504
  0
LINE
  8
_0-0_
  6
CONTINUOUS
 62
    7
 10
348.05807508954609
 20
140.65325299814504
 11
350.55807508954609
 21
142.0966287048177
  0
LINE
  8
_0-0_
  6
CONTINUOUS
 62
    7
 10
350.55807508954609
 20
142.0966287048177
 11
353.05807508954609
 21
140.65325299814504
  0
LINE
  8
_0-0_
  6
CONTINUOUS
 62
    7
 10
353.05807508954609
 20
140.65325299814504
 11
353.05807508954609
 21
137.7665015847997
  0
LINE
  8
_0-0_
  6
CONTINUOUS
 62
    7
 10
353.05807508954609
 20
137.7665015847997
 11
350.55807508954609
 21
136.32312587812703
  0
LINE
  8
_0-0_
  6
CONTINUOUS
 62
    7
 10
413.05807508954609
 20
137.7665015847997
 11
413.05807508954609
 21
140.65325299814504
  0
LINE
  8
_0-0_
  6
CONTINUOUS
 62
    7
 10
413.05807508954609
 20
140.65325299814504
 11
410.55807508954609
 21
142.0966287048177
  0
LINE
  8
_0-0_
  6
CONTINUOUS
 62
    7
 10
410.55807508954609
 20
142.0966287048177
 11
408.05807508954609
 21
140.65325299814504
  0
LINE
  8
_0-0_
  6
CONTINUOUS
 62
    7
 10
408.05807508954609
 20
140.65325299814504
 11
408.05807508954609
 21
137.7665015847997
  0
LINE
  8
_0-0_
  6
CONTINUOUS
 62
    7
 10
408.05807508954609
 20
137.7665015847997
 11
410.55807508954609
 21
136.32312587812703
  0
LINE
  8
_0-0_
  6
CONTINUOUS
 62
    7
 10
410.55807508954609
 20
136.32312587812703
 11
413.05807508954609
 21
137.7665015847997
  0
LINE
  8
_0-0_
  6
CONTINUOUS
 62
    7
 10
420.55807508954609
 20
158.20987729147237
 11
420.55807508954609
 21
10.209877291472367
  0
LINE
  8
_0-0_
  6
CONTINUOUS
 62
    7
 10
420.55807508954609
 20
10.209877291472367
 11
419.55807508954609
 21
9.2098772914723668
  0
LINE
  8
_0-0_
  6
CONTINUOUS
 62
    7
 10
419.55807508954609
 20
9.2098772914723668
 11
236.55807508954609
 21
9.2098772914723668
  0
LINE
  8
_0-0_
  6
CONTINUOUS
 62
    7
 10
236.55807508954609
 20
9.2098772914723668
 11
235.55807508954609
 21
10.209877291472367
  0
LINE
  8
_0-0_
  6
CONTINUOUS
 62
    7
 10
235.55807508954609
 20
10.209877291472367
 11
235.55807508954609
 21
158.20987729147237
  0
LINE
  8
_0-0_
  6
CONTINUOUS
 62
    7
 10
235.55807508954609
 20
158.20987729147237
 11
236.55807508954609
 21
159.20987729147237
  0
LINE
  8
_0-0_
  6
CONTINUOUS
 62
    7
 10
236.55807508954609
 20
159.20987729147237
 11
419.55807508954609
 21
159.20987729147237
  0
LINE
  8
_0-0_
  6
CONTINUOUS
 62
    7
 10
419.55807508954609
 20
159.20987729147237
 11
420.55807508954609
 21
158.20987729147237
  0
LINE
  8
_0-0_
  6
CONTINUOUS
 62
    7
 10
351.56417355762648
 20
17.209877291472594
 11
331.55807508954609
 21
17.209877291472594
  0
LINE
  8
_0-0_
  6
CONTINUOUS
 62
    7
 10
331.55807508954609
 20
17.209877291472594
 11
331.55807508954609
 21
20.409877291472867
  0
LINE
  8
_0-0_
  6
CONTINUOUS
 62
    7
 10
331.55807508954609
 20
20.409877291472867
 11
352.68799506906004
 21
20.409877291472867
  0
LINE
  8
_0-0_
  6
CONTINUOUS
 62
    7
 10
351.95807508954573
 20
16.459321791472348
 11
351.95807508954573
 21
11.604770291472732
  0
LINE
  8
_0-0_
  6
CONTINUOUS
 62
    7
 10
352.05807508954609
 20
9.2098772914725942
 11
352.05807508954609
 21
5.9098780544120473
  0
LINE
  8
_0-0_
  6
CONTINUOUS
 62
    7
 10
352.05807508954609
 20
5.9098780544120473
 11
342.05807508954609
 21
5.9098780544120473
  0
LINE
  8
_0-0_
  6
CONTINUOUS
 62
    7
 10
342.05807508954609
 20
5.9098780544120473
 11
342.05807508954609
 21
9.2098772914725942
  0
LINE
  8
_0-0_
  6
CONTINUOUS
 62
    7
 10
342.75807489881123
 20
9.2098772914725942
 11
342.75807489881123
 21
5.2098772914725942
  0
LINE
  8
_0-0_
  6
CONTINUOUS
 62
    7
 10
342.75807489881123
 20
5.2098772914725942
 11
351.35807528028096
 21
5.2098772914725942
  0
LINE
  8
_0-0_
  6
CONTINUOUS
 62
    7
 10
351.35807528028096
 20
5.2098772914725942
 11
352.05807508954609
 21
5.9098780544120473
  0
LINE
  8
_0-0_
  6
CONTINUOUS
 62
    7
 10
351.35807528028096
 20
5.2098772914725942
 11
351.35807528028096
 21
9.2098772914725942
  0
LINE
  8
_0-0_
  6
CONTINUOUS
 62
    7
 10
355.30807508954609
 20
9.9598772914725942
 11
355.30807508954609
 21
10.709877291472594
  0
LINE
  8
_0-0_
  6
CONTINUOUS
 62
    7
 10
355.30807508954609
 20
10.709877291472594
 11
356.85807508954628
 21
11.604770291472732
  0
LINE
  8
_0-0_
  6
CONTINUOUS
 62
    7
 10
356.85807508954628
 20
11.604770291472732
 11
356.85807508954628
 21
13.856736753163887
  0
LINE
  8
_0-0_
  6
CONTINUOUS
 62
    7
 10
366.55807508954609
 20
65.309877291472503
 11
327.55807508954609
 21
65.309877291472503
  0
LINE
  8
_0-0_
  6
CONTINUOUS
 62
    7
 10
327.55807508954609
 20
65.309877291472503
 11
326.05807508954609
 21
63.709877291472594
  0
LINE
  8
_0-0_
  6
CONTINUOUS
 62
    7
 10
324.55807508954609
 20
63.709877291472594
 11
324.55807508954609
 21
72.209877291472594
  0
LINE
  8
_0-0_
  6
CONTINUOUS
 62
    7
 10
331.55807508954609
 20
70.209877291472822
 11
331.55807508954609
 21
67.009877291472776
  0
LINE
  8
_0-0_
  6
CONTINUOUS
 62
    7
 10
331.55807508954609
 20
67.009877291472776
 11
352.68799506906095
 21
67.009877291472776
  0
LINE
  8
_0-0_
  6
CONTINUOUS
 62
    7
 10
351.56417355762738
 20
70.209877291472822
 11
331.55807508954609
 21
70.209877291472822
  0
LINE
  8
_0-0_
  6
CONTINUOUS
 62
    7
 10
411.55807508954609
 20
64.477826514990966
 11
411.55807508954609
 21
67.941928067954223
  0
LINE
  8
_0-0_
  6
CONTINUOUS
 62
    7
 10
411.55807508954609
 20
67.941928067954223
 11
408.55807508954609
 21
69.673978844435851
  0
LINE
  8
_0-0_
  6
CONTINUOUS
 62
    7
 10
408.55807508954609
 20
69.673978844435851
 11
405.55807508954609
 21
67.941928067954223
  0
LINE
  8
_0-0_
  6
CONTINUOUS
 62
    7
 10
405.55807508954609
 20
67.941928067954223
 11
405.55807508954609
 21
64.477826514990966
  0
LINE
  8
_0-0_
  6
CONTINUOUS
 62
    7
 10
405.55807508954609
 20
64.477826514990966
 11
408.55807508954609
 21
62.745775738509337
  0
LINE
  8
_0-0_
  6
CONTINUOUS
 62
    7
 10
408.55807508954609
 20
62.745775738509337
 11
411.55807508954609
 21
64.477826514990966
  0
LINE
  8
_0-0_
  6
CONTINUOUS
 62
    7
 10
408.55807508954609
 20
17.745775738509337
 11
405.55807508954609
 21
19.477826514990966
  0
LINE
  8
_0-0_
  6
CONTINUOUS
 62
    7
 10
405.55807508954609
 20
19.477826514990966
 11
405.55807508954609
 21
22.941928067954223
  0
LINE
  8
_0-0_
  6
CONTINUOUS
 62
    7
 10
405.55807508954609
 20
22.941928067954223
 11
408.55807508954609
 21
24.673978844435851
  0
LINE
  8
_0-0_
  6
CONTINUOUS
 62
    7
 10
408.55807508954609
 20
24.673978844435851
 11
411.55807508954609
 21
22.941928067954223
  0
LINE
  8
_0-0_
  6
CONTINUOUS
 62
    7
 10
411.55807508954609
 20
22.941928067954223
 11
411.55807508954609
 21
19.477826514990966
  0
LINE
  8
_0-0_
  6
CONTINUOUS
 62
    7
 10
411.55807508954609
 20
19.477826514990966
 11
408.55807508954609
 21
17.745775738509337
  0
LINE
  8
_0-0_
  6
CONTINUOUS
 62
    7
 10
327.55807508954609
 20
22.109877291472912
 11
326.05807508954609
 21
23.709877291472822
  0
LINE
  8
_0-0_
  6
CONTINUOUS
 62
    7
 10
324.55807508954609
 20
23.709877291472822
 11
324.55807508954609
 21
15.209877291472594
  0
LINE
  8
_0-0_
  6
CONTINUOUS
 62
    7
 10
327.55807508954609
 20
22.109877291472912
 11
366.55807508954609
 21
22.109877291472912
  0
LINE
  8
_0-0_
  6
CONTINUOUS
 62
    7
 10
366.55807508954609
 20
22.109877291472912
 11
368.05807508954609
 21
23.709877291472822
  0
LINE
  8
_0-0_
  6
CONTINUOUS
 62
    7
 10
376.55807508954609
 20
23.709877291472822
 11
317.55807508954609
 21
23.709877291472822
  0
LINE
  8
_0-0_
  6
CONTINUOUS
 62
    7
 10
314.55807508954609
 20
26.709877291472594
 11
314.55807508954609
 21
60.709877291472594
  0
LINE
  8
_0-0_
  6
CONTINUOUS
 62
    7
 10
317.55807508954609
 20
63.709877291472594
 11
376.55807508954609
 21
63.709877291472594
  0
LINE
  8
_0-0_
  6
CONTINUOUS
 62
    7
 10
379.55807508954609
 20
60.709877291472594
 11
379.55807508954609
 21
26.709877291472822
  0
LINE
  8
_0-0_
  6
CONTINUOUS
 62
    7
 10
342.15807508954555
 20
16.459321791472348
 11
342.15807508954555
 21
11.604770291472732
  0
LINE
  8
_0-0_
  6
CONTINUOUS
 62
    7
 10
338.80807508954609
 20
10.709877291472594
 11
337.25807508954591
 21
11.604770291472732
  0
LINE
  8
_0-0_
  6
CONTINUOUS
 62
    7
 10
337.25807508954591
 20
11.604770291472732
 11
337.25807508954591
 21
16.459321791472348
  0
LINE
  8
_0-0_
  6
CONTINUOUS
 62
    7
 10
337.25807508954591
 20
16.459321791472348
 11
338.55807508954609
 21
17.209877291472594
  0
LINE
  8
_0-0_
  6
CONTINUOUS
 62
    7
 10
338.80807508954609
 20
10.709877291472594
 11
338.80807508954609
 21
9.9598772914725942
  0
LINE
  8
_0-0_
  6
CONTINUOUS
 62
    7
 10
338.55807508954609
 20
71.209877291472367
 11
338.55807508954609
 21
70.209877291472822
  0
LINE
  8
_0-0_
  6
CONTINUOUS
 62
    7
 10
338.55807508954609
 20
71.209877291472367
 11
352.92694861983733
 21
71.209877291472367
  0
LINE
  8
_0-0_
  6
CONTINUOUS
 62
    7
 10
366.55807508954609
 20
65.309877291472503
 11
368.05807508954609
 21
63.709877291472594
  0
LINE
  8
_0-0_
  6
CONTINUOUS
 62
    7
 10
414.55807508954609
 20
77.209877291472594
 11
329.55807508954609
 21
77.209877291472594
  0
LINE
  8
_0-0_
  6
CONTINUOUS
 62
    7
 10
414.55807508954609
 20
10.209877291472594
 11
329.55807508954609
 21
10.209877291472594
  0
LINE
  8
_0-0_
  6
CONTINUOUS
 62
    7
 10
342.05807508954609
 20
5.9098780544120473
 11
342.75807489881123
 21
5.2098772914725942
  0
LINE
  8
_0-0_
  6
CONTINUOUS
 62
    7
 10
419.55807508954609
 20
15.209877291472594
 11
419.55807508954609
 21
72.209877291472594
  0
LINE
  8
_0-0_
  6
CONTINUOUS
 62
    7
 10
258.05807508954609
 20
20.653252998145035
 11
255.55807508954609
 21
22.096628704817704
  0
LINE
  8
_0-0_
  6
CONTINUOUS
 62
    7
 10
255.55807508954609
 20
22.096628704817704
 11
253.05807508954609
 21
20.653252998145035
  0
LINE
  8
_0-0_
  6
CONTINUOUS
 62
    7
 10
253.05807508954609
 20
20.653252998145035
 11
253.05807508954609
 21
17.766501584799698
  0
LINE
  8
_0-0_
  6
CONTINUOUS
 62
    7
 10
253.05807508954609
 20
17.766501584799698
 11
255.55807508954609
 21
16.32312587812703
  0
LINE
  8
_0-0_
  6
CONTINUOUS
 62
    7
 10
255.55807508954609
 20
16.32312587812703
 11
258.05807508954609
 21
17.766501584799698
  0
LINE
  8
_0-0_
  6
CONTINUOUS
 62
    7
 10
258.05807508954609
 20
17.766501584799698
 11
258.05807508954609
 21
20.653252998145035
  0
LINE
  8
_0-0_
  6
CONTINUOUS
 62
    7
 10
255.55807508954609
 20
82.096628704817704
 11
253.05807508954609
 21
80.653252998145035
  0
LINE
  8
_0-0_
  6
CONTINUOUS
 62
    7
 10
253.05807508954609
 20
80.653252998145035
 11
253.05807508954609
 21
77.766501584799698
  0
LINE
  8
_0-0_
  6
CONTINUOUS
 62
    7
 10
253.05807508954609
 20
77.766501584799698
 11
255.55807508954609
 21
76.32312587812703
  0
LINE
  8
_0-0_
  6
CONTINUOUS
 62
    7
 10
255.55807508954609
 20
76.32312587812703
 11
258.05807508954609
 21
77.766501584799698
  0
LINE
  8
_0-0_
  6
CONTINUOUS
 62
    7
 10
258.05807508954609
 20
77.766501584799698
 11
258.05807508954609
 21
80.653252998145035
  0
LINE
  8
_0-0_
  6
CONTINUOUS
 62
    7
 10
258.05807508954609
 20
80.653252998145035
 11
255.55807508954609
 21
82.096628704817704
  0
CIRCLE
  8
_0-0_
  6
CONTINUOUS
 62
    7
 10
347.55807508954609
 20
87.209877291472367
 40
3.4500000476837158
  0
CIRCLE
  8
_0-0_
  6
CONTINUOUS
 62
    7
 10
399.55807508954609
 20
87.209877291472367
 40
3.4500000476837158
  0
CIRCLE
  8
_0-0_
  6
CONTINUOUS
 62
    7
 10
350.55807508954609
 20
139.20987729147237
 40
5
  0
CIRCLE
  8
_0-0_
  6
CONTINUOUS
 62
    7
 10
410.55807508954609
 20
139.20987729147237
 40
5
  0
CIRCLE
  8
_0-0_
  6
CONTINUOUS
 62
    7
 10
255.55807508954609
 20
19.209877291472367
 40
5
  0
CIRCLE
  8
_0-0_
  6
CONTINUOUS
 62
    7
 10
255.55807508954609
 20
79.209877291472367
 40
5
  0
CIRCLE
  8
_0-0_
  6
CONTINUOUS
 62
    7
 10
286.55807508954609
 20
108.20987729147237
 40
10
  0
CIRCLE
  8
_0-0_
  6
CONTINUOUS
 62
    7
 10
286.55807508954609
 20
108.20987729147237
 40
30
  0
CIRCLE
  8
_0-0_
  6
CONTINUOUS
 62
    7
 10
408.55807508954609
 20
66.209877291472594
 40
6.5
  0
CIRCLE
  8
_0-0_
  6
CONTINUOUS
 62
    7
 10
408.55807508954609
 20
21.209877291472594
 40
6.5
  0
CIRCLE
  8
_0-0_
  6
CONTINUOUS
 62
    7
 10
399.55807508954609
 20
87.209877291472367
 40
4
  0
CIRCLE
  8
_0-0_
  6
CONTINUOUS
 62
    7
 10
347.55807508954609
 20
87.209877291472367
 40
4
  0
ARC
  8
_0-0_
  6
CONTINUOUS
 62
    7
 10
372.05807508954609
 20
43.709877291472594
 40
24
 50
244.15806723683113
 51
115.84193276316761
  0
ARC
  8
_0-0_
  6
CONTINUOUS
 62
    7
 10
317.55807508954609
 20
60.709877291472594
 40
3
 50
90
 51
180
  0
ARC
  8
_0-0_
  6
CONTINUOUS
 62
    7
 10
317.55807508954609
 20
26.709877291472594
 40
3
 50
180
 51
270
  0
ARC
  8
_0-0_
  6
CONTINUOUS
 62
    7
 10
414.55807508954609
 20
15.209877291472594
 40
5
 50
270
 51
0
  0
ARC
  8
_0-0_
  6
CONTINUOUS
 62
    7
 10
329.55807508954609
 20
15.209877291472594
 40
5
 50
180
 51
270
  0
ARC
  8
_0-0_
  6
CONTINUOUS
 62
    7
 10
414.55807508954609
 20
72.209877291472594
 40
5
 50
0
 51
90
  0
ARC
  8
_0-0_
  6
CONTINUOUS
 62
    7
 10
329.55807508954609
 20
72.209877291472594
 40
5
 50
90
 51
180
  0
ARC
  8
_0-0_
  6
CONTINUOUS
 62
    7
 10
339.55807508954609
 20
9.9598772914725942
 40
0.75
 50
180
 51
270
  0
ARC
  8
_0-0_
  6
CONTINUOUS
 62
    7
 10
339.27272108954554
 20
15.688240791472253
 40
5
 50
264.66785499999975
 51
305.24477999999999
  0
ARC
  8
_0-0_
  6
CONTINUOUS
 62
    7
 10
346.34806008954553
 20
20.684639291472195
 40
10
 50
245.22862399999991
 51
274.07151099999959
  0
ARC
  8
_0-0_
  6
CONTINUOUS
 62
    7
 10
354.84342908954574
 20
15.688240791472253
 40
5
 50
234.75521999999967
 51
275.33214499999991
  0
ARC
  8
_0-0_
  6
CONTINUOUS
 62
    7
 10
354.55807508954609
 20
9.9598772914725942
 40
0.75
 50
270
 51
0
  0
ARC
  8
_0-0_
  6
CONTINUOUS
 62
    7
 10
347.76809008954575
 20
20.684639291472195
 40
10
 50
265.92848900000001
 51
294.77137599999969
  0
ARC
  8
_0-0_
  6
CONTINUOUS
 62
    7
 10
346.07491658954592
 20
7.2583247914724325
 40
10
 50
95.64220432140786
 51
113.05933400000004
  0
ARC
  8
_0-0_
  6
CONTINUOUS
 62
    7
 10
348.04123358954627
 20
7.2583247914724325
 40
10
 50
66.94066600000005
 51
84.357795678592126
  0
ARC
  8
_0-0_
  6
CONTINUOUS
 62
    7
 10
339.40908808954561
 20
12.282831791472518
 40
5
 50
56.646882999999548
 51
80.200404461750779
  0
ARC
  8
_0-0_
  6
CONTINUOUS
 62
    7
 10
376.55807508954609
 20
26.709877291472822
 40
3
 50
270
 51
0
  0
ARC
  8
_0-0_
  6
CONTINUOUS
 62
    7
 10
376.55807508954609
 20
60.709877291472594
 40
3
 50
0
 51
89.999999999999986
  0
ARC
  8
_0-0_
  6
CONTINUOUS
 62
    7
 10
335.55807508954609
 20
21.209877291472594
 40
5.5
 50
226.6582417727777
 51
234.90319877241521
  0
ARC
  8
_0-0_
  6
CONTINUOUS
 62
    7
 10
372.05807508954609
 20
43.709877291472594
 40
12
 50
308.68218745348946
 51
51.317812546510538
  0
ARC
  8
_0-0_
  6
CONTINUOUS
 62
    7
 10
372.05807508954609
 20
43.709877291472594
 40
21
 50
257.67230522904612
 51
102.32769477095341
  0
ARC
  8
_0-0_
  6
CONTINUOUS
 62
    7
 10
372.05807508954609
 20
43.709877291472594
 40
33.5
 50
232.2832549072167
 51
127.71674509278245
  0
ARC
  8
_0-0_
  6
CONTINUOUS
 62
    7
 10
372.05807508954609
 20
43.709877291472594
 40
30.300000000000001
 50
230.26210384845885
 51
129.73789615153993
  0
ARC
  8
_0-0_
  6
CONTINUOUS
 62
    7
 10
347.05807508954609
 20
64.178627293323643
 40
11.031249998148837
 50
47.1999801306903
 51
140.40224730257353
  0
ARC
  8
_0-0_
  6
CONTINUOUS
 62
    7
 10
354.70706208954567
 20
12.282831791472518
 40
5
 50
118.86442265392623
 51
123.35311700000041
  0
CIRCLE
  8
_0-0_
  6
CONTINUOUS
 62
    7
 10
286.55807508954609
 20
108.20987729147237
 40
26
  0
LINE
  8
_0-0_
  6
CONTINUOUS
 62
    7
 10
630.727342489546
 20
136.32312587812703
 11
633.227342489546
 21
137.7665015847997
  0
LINE
  8
_0-0_
  6
CONTINUOUS
 62
    7
 10
633.227342489546
 20
137.7665015847997
 11
633.227342489546
 21
140.65325299814504
  0
LINE
  8
_0-0_
  6
CONTINUOUS
 62
    7
 10
633.227342489546
 20
140.65325299814504
 11
630.727342489546
 21
142.0966287048177
  0
LINE
  8
_0-0_
  6
CONTINUOUS
 62
    7
 10
630.727342489546
 20
142.0966287048177
 11
628.227342489546
 21
140.65325299814504
  0
LINE
  8
_0-0_
  6
CONTINUOUS
 62
    7
 10
628.227342489546
 20
140.65325299814504
 11
628.227342489546
 21
137.7665015847997
  0
LINE
  8
_0-0_
  6
CONTINUOUS
 62
    7
 10
628.227342489546
 20
137.7665015847997
 11
630.727342489546
 21
136.32312587812703
  0
LINE
  8
_0-0_
  6
CONTINUOUS
 62
    7
 10
568.227342489546
 20
137.7665015847997
 11
568.227342489546
 21
140.65325299814504
  0
LINE
  8
_0-0_
  6
CONTINUOUS
 62
    7
 10
568.227342489546
 20
140.65325299814504
 11
570.727342489546
 21
142.0966287048177
  0
LINE
  8
_0-0_
  6
CONTINUOUS
 62
    7
 10
570.727342489546
 20
142.0966287048177
 11
573.227342489546
 21
140.65325299814504
  0
LINE
  8
_0-0_
  6
CONTINUOUS
 62
    7
 10
573.227342489546
 20
140.65325299814504
 11
573.227342489546
 21
137.7665015847997
  0
LINE
  8
_0-0_
  6
CONTINUOUS
 62
    7
 10
573.227342489546
 20
137.7665015847997
 11
570.727342489546
 21
136.32312587812703
  0
LINE
  8
_0-0_
  6
CONTINUOUS
 62
    7
 10
570.727342489546
 20
136.32312587812703
 11
568.227342489546
 21
137.7665015847997
  0
LINE
  8
_0-0_
  6
CONTINUOUS
 62
    7
 10
560.727342489546
 20
158.20987729147237
 11
560.727342489546
 21
10.209877291472367
  0
LINE
  8
_0-0_
  6
CONTINUOUS
 62
    7
 10
560.727342489546
 20
10.209877291472367
 11
561.727342489546
 21
9.2098772914723668
  0
LINE
  8
_0-0_
  6
CONTINUOUS
 62
    7
 10
561.727342489546
 20
9.2098772914723668
 11
744.727342489546
 21
9.2098772914723668
  0
LINE
  8
_0-0_
  6
CONTINUOUS
 62
    7
 10
744.727342489546
 20
9.2098772914723668
 11
745.727342489546
 21
10.209877291472367
  0
LINE
  8
_0-0_
  6
CONTINUOUS
 62
    7
 10
745.727342489546
 20
10.209877291472367
 11
745.727342489546
 21
158.20987729147237
  0
LINE
  8
_0-0_
  6
CONTINUOUS
 62
    7
 10
745.727342489546
 20
158.20987729147237
 11
744.727342489546
 21
159.20987729147237
  0
LINE
  8
_0-0_
  6
CONTINUOUS
 62
    7
 10
744.727342489546
 20
159.20987729147237
 11
561.727342489546
 21
159.20987729147237
  0
LINE
  8
_0-0_
  6
CONTINUOUS
 62
    7
 10
561.727342489546
 20
159.20987729147237
 11
560.727342489546
 21
158.20987729147237
  0
LINE
  8
_0-0_
  6
CONTINUOUS
 62
    7
 10
629.72124402146562
 20
17.209877291472594
 11
649.727342489546
 21
17.209877291472594
  0
LINE
  8
_0-0_
  6
CONTINUOUS
 62
    7
 10
649.727342489546
 20
17.209877291472594
 11
649.727342489546
 21
20.409877291472867
  0
LINE
  8
_0-0_
  6
CONTINUOUS
 62
    7
 10
649.727342489546
 20
20.409877291472867
 11
628.59742251003206
 21
20.409877291472867
  0
LINE
  8
_0-0_
  6
CONTINUOUS
 62
    7
 10
629.32734248954637
 20
16.459321791472348
 11
629.32734248954637
 21
11.604770291472732
  0
LINE
  8
_0-0_
  6
CONTINUOUS
 62
    7
 10
629.227342489546
 20
9.2098772914725942
 11
629.227342489546
 21
5.9098780544120473
  0
LINE
  8
_0-0_
  6
CONTINUOUS
 62
    7
 10
629.227342489546
 20
5.9098780544120473
 11
639.227342489546
 21
5.9098780544120473
  0
LINE
  8
_0-0_
  6
CONTINUOUS
 62
    7
 10
639.227342489546
 20
5.9098780544120473
 11
639.227342489546
 21
9.2098772914725942
  0
LINE
  8
_0-0_
  6
CONTINUOUS
 62
    7
 10
638.52734268028087
 20
9.2098772914725942
 11
638.52734268028087
 21
5.2098772914725942
  0
LINE
  8
_0-0_
  6
CONTINUOUS
 62
    7
 10
638.52734268028087
 20
5.2098772914725942
 11
629.92734229881114
 21
5.2098772914725942
  0
LINE
  8
_0-0_
  6
CONTINUOUS
 62
    7
 10
629.92734229881114
 20
5.2098772914725942
 11
629.227342489546
 21
5.9098780544120473
  0
LINE
  8
_0-0_
  6
CONTINUOUS
 62
    7
 10
629.92734229881114
 20
5.2098772914725942
 11
629.92734229881114
 21
9.2098772914725942
  0
LINE
  8
_0-0_
  6
CONTINUOUS
 62
    7
 10
625.977342489546
 20
9.9598772914725942
 11
625.977342489546
 21
10.709877291472594
  0
LINE
  8
_0-0_
  6
CONTINUOUS
 62
    7
 10
625.977342489546
 20
10.709877291472594
 11
624.42734248954582
 21
11.604770291472732
  0
LINE
  8
_0-0_
  6
CONTINUOUS
 62
    7
 10
624.42734248954582
 20
11.604770291472732
 11
624.42734248954582
 21
13.856736753163887
  0
LINE
  8
_0-0_
  6
CONTINUOUS
 62
    7
 10
614.727342489546
 20
65.309877291472503
 11
653.727342489546
 21
65.309877291472503
  0
LINE
  8
_0-0_
  6
CONTINUOUS
 62
    7
 10
653.727342489546
 20
65.309877291472503
 11
655.227342489546
 21
63.709877291472594
  0
LINE
  8
_0-0_
  6
CONTINUOUS
 62
    7
 10
656.727342489546
 20
63.709877291472594
 11
656.727342489546
 21
72.209877291472594
  0
LINE
  8
_0-0_
  6
CONTINUOUS
 62
    7
 10
649.727342489546
 20
70.209877291472822
 11
649.727342489546
 21
67.009877291472776
  0
LINE
  8
_0-0_
  6
CONTINUOUS
 62
    7
 10
649.727342489546
 20
67.009877291472776
 11
628.59742251003115
 21
67.009877291472776
  0
LINE
  8
_0-0_
  6
CONTINUOUS
 62
    7
 10
629.72124402146471
 20
70.209877291472822
 11
649.727342489546
 21
70.209877291472822
  0
LINE
  8
_0-0_
  6
CONTINUOUS
 62
    7
 10
569.727342489546
 20
64.477826514990966
 11
569.727342489546
 21
67.941928067954223
  0
LINE
  8
_0-0_
  6
CONTINUOUS
 62
    7
 10
569.727342489546
 20
67.941928067954223
 11
572.727342489546
 21
69.673978844435851
  0
LINE
  8
_0-0_
  6
CONTINUOUS
 62
    7
 10
572.727342489546
 20
69.673978844435851
 11
575.727342489546
 21
67.941928067954223
  0
LINE
  8
_0-0_
  6
CONTINUOUS
 62
    7
 10
575.727342489546
 20
67.941928067954223
 11
575.727342489546
 21
64.477826514990966
  0
LINE
  8
_0-0_
  6
CONTINUOUS
 62
    7
 10
575.727342489546
 20
64.477826514990966
 11
572.727342489546
 21
62.745775738509337
  0
LINE
  8
_0-0_
  6
CONTINUOUS
 62
    7
 10
572.727342489546
 20
62.745775738509337
 11
569.727342489546
 21
64.477826514990966
  0
LINE
  8
_0-0_
  6
CONTINUOUS
 62
    7
 10
572.727342489546
 20
17.745775738509337
 11
575.727342489546
 21
19.477826514990966
  0
LINE
  8
_0-0_
  6
CONTINUOUS
 62
    7
 10
575.727342489546
 20
19.477826514990966
 11
575.727342489546
 21
22.941928067954223
  0
LINE
  8
_0-0_
  6
CONTINUOUS
 62
    7
 10
575.727342489546
 20
22.941928067954223
 11
572.727342489546
 21
24.673978844435851
  0
LINE
  8
_0-0_
  6
CONTINUOUS
 62
    7
 10
572.727342489546
 20
24.673978844435851
 11
569.727342489546
 21
22.941928067954223
  0
LINE
  8
_0-0_
  6
CONTINUOUS
 62
    7
 10
569.727342489546
 20
22.941928067954223
 11
569.727342489546
 21
19.477826514990966
  0
LINE
  8
_0-0_
  6
CONTINUOUS
 62
    7
 10
569.727342489546
 20
19.477826514990966
 11
572.727342489546
 21
17.745775738509337
  0
LINE
  8
_0-0_
  6
CONTINUOUS
 62
    7
 10
653.727342489546
 20
22.109877291472912
 11
655.227342489546
 21
23.709877291472822
  0
LINE
  8
_0-0_
  6
CONTINUOUS
 62
    7
 10
656.727342489546
 20
23.709877291472822
 11
656.727342489546
 21
15.209877291472594
  0
LINE
  8
_0-0_
  6
CONTINUOUS
 62
    7
 10
653.727342489546
 20
22.109877291472912
 11
614.727342489546
 21
22.109877291472912
  0
LINE
  8
_0-0_
  6
CONTINUOUS
 62
    7
 10
614.727342489546
 20
22.109877291472912
 11
613.227342489546
 21
23.709877291472822
  0
LINE
  8
_0-0_
  6
CONTINUOUS
 62
    7
 10
604.727342489546
 20
23.709877291472822
 11
663.727342489546
 21
23.709877291472822
  0
LINE
  8
_0-0_
  6
CONTINUOUS
 62
    7
 10
666.727342489546
 20
26.709877291472594
 11
666.727342489546
 21
60.709877291472594
  0
LINE
  8
_0-0_
  6
CONTINUOUS
 62
    7
 10
663.727342489546
 20
63.709877291472594
 11
604.727342489546
 21
63.709877291472594
  0
LINE
  8
_0-0_
  6
CONTINUOUS
 62
    7
 10
601.727342489546
 20
60.709877291472594
 11
601.727342489546
 21
26.709877291472822
  0
LINE
  8
_0-0_
  6
CONTINUOUS
 62
    7
 10
639.12734248954655
 20
16.459321791472348
 11
639.12734248954655
 21
11.604770291472732
  0
LINE
  8
_0-0_
  6
CONTINUOUS
 62
    7
 10
642.477342489546
 20
10.709877291472594
 11
644.02734248954619
 21
11.604770291472732
  0
LINE
  8
_0-0_
  6
CONTINUOUS
 62
    7
 10
644.02734248954619
 20
11.604770291472732
 11
644.02734248954619
 21
16.459321791472348
  0
LINE
  8
_0-0_
  6
CONTINUOUS
 62
    7
 10
644.02734248954619
 20
16.459321791472348
 11
642.727342489546
 21
17.209877291472594
  0
LINE
  8
_0-0_
  6
CONTINUOUS
 62
    7
 10
642.477342489546
 20
10.709877291472594
 11
642.477342489546
 21
9.9598772914725942
  0
LINE
  8
_0-0_
  6
CONTINUOUS
 62
    7
 10
642.727342489546
 20
71.209877291472367
 11
642.727342489546
 21
70.209877291472822
  0
LINE
  8
_0-0_
  6
CONTINUOUS
 62
    7
 10
642.727342489546
 20
71.209877291472367
 11
628.35846895925476
 21
71.209877291472367
  0
LINE
  8
_0-0_
  6
CONTINUOUS
 62
    7
 10
614.727342489546
 20
65.309877291472503
 11
613.227342489546
 21
63.709877291472594
  0
LINE
  8
_0-0_
  6
CONTINUOUS
 62
    7
 10
566.727342489546
 20
77.209877291472594
 11
651.727342489546
 21
77.209877291472594
  0
LINE
  8
_0-0_
  6
CONTINUOUS
 62
    7
 10
566.727342489546
 20
10.209877291472594
 11
651.727342489546
 21
10.209877291472594
  0
LINE
  8
_0-0_
  6
CONTINUOUS
 62
    7
 10
639.227342489546
 20
5.9098780544120473
 11
638.52734268028087
 21
5.2098772914725942
  0
LINE
  8
_0-0_
  6
CONTINUOUS
 62
    7
 10
561.727342489546
 20
15.209877291472594
 11
561.727342489546
 21
72.209877291472594
  0
LINE
  8
_0-0_
  6
CONTINUOUS
 62
    7
 10
723.227342489546
 20
20.653252998145035
 11
725.727342489546
 21
22.096628704817704
  0
LINE
  8
_0-0_
  6
CONTINUOUS
 62
    7
 10
725.727342489546
 20
22.096628704817704
 11
728.227342489546
 21
20.653252998145035
  0
LINE
  8
_0-0_
  6
CONTINUOUS
 62
    7
 10
728.227342489546
 20
20.653252998145035
 11
728.227342489546
 21
17.766501584799698
  0
LINE
  8
_0-0_
  6
CONTINUOUS
 62
    7
 10
728.227342489546
 20
17.766501584799698
 11
725.727342489546
 21
16.32312587812703
  0
LINE
  8
_0-0_
  6
CONTINUOUS
 62
    7
 10
725.727342489546
 20
16.32312587812703
 11
723.227342489546
 21
17.766501584799698
  0
LINE
  8
_0-0_
  6
CONTINUOUS
 62
    7
 10
723.227342489546
 20
17.766501584799698
 11
723.227342489546
 21
20.653252998145035
  0
LINE
  8
_0-0_
  6
CONTINUOUS
 62
    7
 10
725.727342489546
 20
82.096628704817704
 11
728.227342489546
 21
80.653252998145035
  0
LINE
  8
_0-0_
  6
CONTINUOUS
 62
    7
 10
728.227342489546
 20
80.653252998145035
 11
728.227342489546
 21
77.766501584799698
  0
LINE
  8
_0-0_
  6
CONTINUOUS
 62
    7
 10
728.227342489546
 20
77.766501584799698
 11
725.727342489546
 21
76.32312587812703
  0
LINE
  8
_0-0_
  6
CONTINUOUS
 62
    7
 10
725.727342489546
 20
76.32312587812703
 11
723.227342489546
 21
77.766501584799698
  0
LINE
  8
_0-0_
  6
CONTINUOUS
 62
    7
 10
723.227342489546
 20
77.766501584799698
 11
723.227342489546
 21
80.653252998145035
  0
LINE
  8
_0-0_
  6
CONTINUOUS
 62
    7
 10
723.227342489546
 20
80.653252998145035
 11
725.727342489546
 21
82.096628704817704
  0
CIRCLE
  8
_0-0_
  6
CONTINUOUS
 62
    7
 10
633.727342489546
 20
87.209877291472367
 40
3.4500000476837158
  0
CIRCLE
  8
_0-0_
  6
CONTINUOUS
 62
    7
 10
581.727342489546
 20
87.209877291472367
 40
3.4500000476837158
  0
CIRCLE
  8
_0-0_
  6
CONTINUOUS
 62
    7
 10
630.727342489546
 20
139.20987729147237
 40
5
  0
CIRCLE
  8
_0-0_
  6
CONTINUOUS
 62
    7
 10
570.727342489546
 20
139.20987729147237
 40
5
  0
CIRCLE
  8
_0-0_
  6
CONTINUOUS
 62
    7
 10
725.727342489546
 20
19.209877291472367
 40
5
  0
CIRCLE
  8
_0-0_
  6
CONTINUOUS
 62
    7
 10
725.727342489546
 20
79.209877291472367
 40
5
  0
CIRCLE
  8
_0-0_
  6
CONTINUOUS
 62
    7
 10
694.727342489546
 20
108.20987729147237
 40
10
  0
CIRCLE
  8
_0-0_
  6
CONTINUOUS
 62
    7
 10
694.727342489546
 20
108.20987729147237
 40
30
  0
CIRCLE
  8
_0-0_
  6
CONTINUOUS
 62
    7
 10
572.727342489546
 20
66.209877291472594
 40
6.5
  0
CIRCLE
  8
_0-0_
  6
CONTINUOUS
 62
    7
 10
572.727342489546
 20
21.209877291472594
 40
6.5
  0
CIRCLE
  8
_0-0_
  6
CONTINUOUS
 62
    7
 10
581.727342489546
 20
87.209877291472367
 40
4
  0
CIRCLE
  8
_0-0_
  6
CONTINUOUS
 62
    7
 10
633.727342489546
 20
87.209877291472367
 40
4
  0
ARC
  8
_0-0_
  6
CONTINUOUS
 62
    7
 10
609.227342489546
 20
43.709877291472594
 40
24
 50
64.158067236832366
 51
295.84193276316887
  0
ARC
  8
_0-0_
  6
CONTINUOUS
 62
    7
 10
663.727342489546
 20
60.709877291472594
 40
3
 50
0.0000000000000127
 51
90.000000000000014
  0
ARC
  8
_0-0_
  6
CONTINUOUS
 62
    7
 10
663.727342489546
 20
26.709877291472594
 40
3
 50
270
 51
0
  0
ARC
  8
_0-0_
  6
CONTINUOUS
 62
    7
 10
566.727342489546
 20
15.209877291472594
 40
5
 50
180
 51
270
  0
ARC
  8
_0-0_
  6
CONTINUOUS
 62
    7
 10
651.727342489546
 20
15.209877291472594
 40
5
 50
270
 51
0
  0
ARC
  8
_0-0_
  6
CONTINUOUS
 62
    7
 10
566.727342489546
 20
72.209877291472594
 40
5
 50
90
 51
180
  0
ARC
  8
_0-0_
  6
CONTINUOUS
 62
    7
 10
651.727342489546
 20
72.209877291472594
 40
5
 50
0
 51
90
  0
ARC
  8
_0-0_
  6
CONTINUOUS
 62
    7
 10
641.727342489546
 20
9.9598772914725942
 40
0.75
 50
270
 51
0
  0
ARC
  8
_0-0_
  6
CONTINUOUS
 62
    7
 10
642.01269648954656
 20
15.688240791472253
 40
5
 50
234.75522000000004
 51
275.3321450000002
  0
ARC
  8
_0-0_
  6
CONTINUOUS
 62
    7
 10
634.93735748954657
 20
20.684639291472195
 40
10
 50
265.92848900000041
 51
294.77137600000009
  0
ARC
  8
_0-0_
  6
CONTINUOUS
 62
    7
 10
626.44198848954636
 20
15.688240791472253
 40
5
 50
264.66785500000015
 51
305.24478000000033
  0
ARC
  8
_0-0_
  6
CONTINUOUS
 62
    7
 10
626.727342489546
 20
9.9598772914725942
 40
0.75
 50
180
 51
270
  0
ARC
  8
_0-0_
  6
CONTINUOUS
 62
    7
 10
633.51732748954635
 20
20.684639291472195
 40
10
 50
245.22862400000025
 51
274.07151099999993
  0
ARC
  8
_0-0_
  6
CONTINUOUS
 62
    7
 10
635.21050098954618
 20
7.2583247914724325
 40
10
 50
66.940666000000007
 51
84.357795678592154
  0
ARC
  8
_0-0_
  6
CONTINUOUS
 62
    7
 10
633.24418398954583
 20
7.2583247914724325
 40
10
 50
95.64220432140786
 51
113.05933399999995
  0
ARC
  8
_0-0_
  6
CONTINUOUS
 62
    7
 10
641.87632948954649
 20
12.282831791472518
 40
5
 50
99.799595538249221
 51
123.35311700000045
  0
ARC
  8
_0-0_
  6
CONTINUOUS
 62
    7
 10
604.727342489546
 20
26.709877291472822
 40
3
 50
180
 51
270
  0
ARC
  8
_0-0_
  6
CONTINUOUS
 62
    7
 10
604.727342489546
 20
60.709877291472594
 40
3
 50
90.000000000000028
 51
180
  0
ARC
  8
_0-0_
  6
CONTINUOUS
 62
    7
 10
645.727342489546
 20
21.209877291472594
 40
5.5
 50
305.09680122758482
 51
313.34175822722233
  0
ARC
  8
_0-0_
  6
CONTINUOUS
 62
    7
 10
609.227342489546
 20
43.709877291472594
 40
12
 50
128.68218745348949
 51
231.31781254651054
  0
ARC
  8
_0-0_
  6
CONTINUOUS
 62
    7
 10
609.227342489546
 20
43.709877291472594
 40
21
 50
77.672305229046586
 51
282.32769477095388
  0
ARC
  8
_0-0_
  6
CONTINUOUS
 62
    7
 10
609.227342489546
 20
43.709877291472594
 40
33.5
 50
52.283254907217575
 51
307.71674509278324
  0
ARC
  8
_0-0_
  6
CONTINUOUS
 62
    7
 10
609.227342489546
 20
43.709877291472594
 40
30.300000000000001
 50
50.262103848460029
 51
309.73789615154118
  0
ARC
  8
_0-0_
  6
CONTINUOUS
 62
    7
 10
634.227342489546
 20
64.178627293323643
 40
11.031249998148837
 50
39.597752697426507
 51
132.80001986930975
  0
ARC
  8
_0-0_
  6
CONTINUOUS
 62
    7
 10
626.57835548954642
 20
12.282831791472518
 40
5
 50
56.646882999999598
 51
61.135577346073767
  0
CIRCLE
  8
_0-0_
  6
CONTINUOUS
 62
    7
 10
694.727342489546
 20
108.20987729147237
 40
26
  0
LINE
  8
_0-1_
  6
CENTER1
 62
  152
 10
350.55807508954609
 20
146.61519034834987
 11
350.55807508954609
 21
131.37610438073261
  0
LINE
  8
_0-1_
  6
CENTER1
 62
  152
 10
338.88125177024637
 20
139.20987729147237
 11
417.3840421523692
 21
139.20987729147237
  0
LINE
  8
_0-1_
  6
CENTER1
 62
  152
 10
410.55807508954609
 20
131.37610438073261
 11
410.55807508954609
 21
146.93148291618127
  0
LINE
  8
_0-1_
  6
CENTER1
 62
  152
 10
406.71271764462659
 20
87.209877291472367
 11
340.61292568759023
 21
87.209877291472367
  0
LINE
  8
_0-1_
  6
CENTER1
 62
  152
 10
347.55807508954609
 20
93.562597425571312
 11
347.55807508954609
 21
79.47433513417559
  0
LINE
  8
_0-1_
  6
CENTER1
 62
  152
 10
347.05807508954609
 20
72.209877291472594
 11
347.05807508954609
 21
15.209877291472594
  0
LINE
  8
ADD_LINE
  6
DOT
 62
  152
 10
347.05807508954609
 20
17.209877291472594
 11
346.35096830835943
 21
17.916984072658806
  0
LINE
  8
ADD_LINE
  6
DOT
 62
  152
 10
347.05807508954609
 20
17.209877291472594
 11
347.76518187073276
 21
17.916984072658806
  0
LINE
  8
_0-1_
  6
CENTER1
 62
  152
 10
372.05807508954609
 20
15.209877291472594
 11
372.05807508954609
 21
72.209877291472594
  0
LINE
  8
_0-1_
  6
CENTER1
 62
  152
 10
329.04241112386268
 20
66.209877291472594
 11
415.34685247385283
 21
66.209877291472594
  0
LINE
  8
_0-1_
  6
CENTER1
 62
  152
 10
408.55807508954609
 20
72.059478614095269
 11
408.55807508954609
 21
15.454454481705625
  0
LINE
  8
_0-1_
  6
CENTER1
 62
  152
 10
414.25000487678341
 20
21.209877291472594
 11
329.04241112386268
 21
21.209877291472594
  0
LINE
  8
_0-1_
  6
CENTER1
 62
  152
 10
335.55807508954609
 20
13.450736813302456
 11
335.55807508954609
 21
73.562266865397532
  0
LINE
  8
_0-1_
  6
CENTER1
 62
  152
 10
399.55807508954609
 20
79.47433513417559
 11
399.55807508954609
 21
93.562597425571312
  0
LINE
  8
_0-1_
  6
CENTER1
 62
  152
 10
314.55807508954609
 20
43.709877291472594
 11
414.25000487678341
 21
43.709877291472594
  0
LINE
  8
_0-1_
  6
CENTER1
 62
  152
 10
246.71572521884269
 20
19.209877291472367
 11
263.39184800028585
 21
19.209877291472367
  0
LINE
  8
_0-1_
  6
CENTER1
 62
  152
 10
255.55807508954609
 20
12.421908741301422
 11
255.55807508954609
 21
86.181182171935006
  0
LINE
  8
_0-1_
  6
CENTER1
 62
  152
 10
263.39184800028585
 20
79.209877291472367
 11
246.60649540706441
 21
79.209877291472367
  0
LINE
  8
_0-1_
  6
CENTER1
 62
  152
 10
286.55807508954609
 20
94.989865416749126
 11
286.55807508954609
 21
122.57495242024538
  0
LINE
  8
_0-1_
  6
CENTER1
 62
  152
 10
273.50888248707457
 20
108.20987729147237
 11
299.9349322215167
 21
108.20987729147237
  0
ARC
  8
_0-1_
  6
CENTER1
 62
  152
 10
372.05807508954609
 20
43.709877291472594
 40
59.960403601043033
 50
102.03079844281828
 51
163.52957156039136
  0
LINE
  8
_0-1_
  6
CENTER1
 62
  152
 10
630.727342489546
 20
146.61519034834987
 11
630.727342489546
 21
131.37610438073261
  0
LINE
  8
_0-1_
  6
CENTER1
 62
  152
 10
642.40416580884573
 20
139.20987729147237
 11
563.90137542672289
 21
139.20987729147237
  0
LINE
  8
_0-1_
  6
CENTER1
 62
  152
 10
570.727342489546
 20
131.37610438073261
 11
570.727342489546
 21
146.93148291618127
  0
LINE
  8
_0-1_
  6
CENTER1
 62
  152
 10
574.5726999344655
 20
87.209877291472367
 11
640.67249189150186
 21
87.209877291472367
  0
LINE
  8
_0-1_
  6
CENTER1
 62
  152
 10
633.727342489546
 20
93.562597425571312
 11
633.727342489546
 21
79.47433513417559
  0
LINE
  8
_0-1_
  6
CENTER1
 62
  152
 10
634.227342489546
 20
72.209877291472594
 11
634.227342489546
 21
15.209877291472594
  0
LINE
  8
ADD_LINE
  6
DOT
 62
  152
 10
634.227342489546
 20
17.209877291472594
 11
634.93444927073267
 21
17.916984072658806
  0
LINE
  8
ADD_LINE
  6
DOT
 62
  152
 10
634.227342489546
 20
17.209877291472594
 11
633.52023570835934
 21
17.916984072658806
  0
LINE
  8
_0-1_
  6
CENTER1
 62
  152
 10
609.227342489546
 20
15.209877291472594
 11
609.227342489546
 21
72.209877291472594
  0
LINE
  8
_0-1_
  6
CENTER1
 62
  152
 10
652.24300645522942
 20
66.209877291472594
 11
565.93856510523926
 21
66.209877291472594
  0
LINE
  8
_0-1_
  6
CENTER1
 62
  152
 10
572.727342489546
 20
72.059478614095269
 11
572.727342489546
 21
15.454454481705625
  0
LINE
  8
_0-1_
  6
CENTER1
 62
  152
 10
567.03541270230869
 20
21.209877291472594
 11
652.24300645522942
 21
21.209877291472594
  0
LINE
  8
_0-1_
  6
CENTER1
 62
  152
 10
645.727342489546
 20
13.450736813302456
 11
645.727342489546
 21
73.562266865397532
  0
LINE
  8
_0-1_
  6
CENTER1
 62
  152
 10
581.727342489546
 20
79.47433513417559
 11
581.727342489546
 21
93.562597425571312
  0
LINE
  8
_0-1_
  6
CENTER1
 62
  152
 10
666.727342489546
 20
43.709877291472594
 11
567.03541270230869
 21
43.709877291472594
  0
LINE
  8
_0-1_
  6
CENTER1
 62
  152
 10
734.56969236024941
 20
19.209877291472367
 11
717.89356957880625
 21
19.209877291472367
  0
LINE
  8
_0-1_
  6
CENTER1
 62
  152
 10
725.727342489546
 20
12.421908741301422
 11
725.727342489546
 21
86.181182171935006
  0
LINE
  8
_0-1_
  6
CENTER1
 62
  152
 10
717.89356957880625
 20
79.209877291472367
 11
734.67892217202768
 21
79.209877291472367
  0
LINE
  8
_0-1_
  6
CENTER1
 62
  152
 10
694.727342489546
 20
94.989865416749126
 11
694.727342489546
 21
122.57495242024538
  0
LINE
  8
_0-1_
  6
CENTER1
 62
  152
 10
707.77653509201753
 20
108.20987729147237
 11
681.35048535757539
 21
108.20987729147237
  0
ARC
  8
_0-1_
  6
CENTER1
 62
  152
 10
609.227342489546
 20
43.709877291472594
 40
59.960403601043033
 50
16.470428439608639
 51
77.969201557181734
  0
LINE
  8
_0-0_
  6
CONTINUOUS
 62
    7
 10
179.80487819040115
 20
299.10502037595484
 11
179.80487819040115
 21
314.10502037595484
  0
LINE
  8
_0-0_
  6
CONTINUOUS
 62
    7
 10
179.80487819040115
 20
314.10502037595484
 11
29.804878190401155
 21
314.10502037595484
  0
LINE
  8
_0-0_
  6
CONTINUOUS
 62
    7
 10
29.804878190401155
 20
314.10502037595484
 11
29.804878190401155
 21
299.10502037595484
  0
LINE
  8
_0-0_
  6
CONTINUOUS
 62
    7
 10
29.804878190401155
 20
299.10502037595484
 11
179.80487819040115
 21
299.10502037595484
  0
LINE
  8
_0-0_
  6
CONTINUOUS
 62
    7
 10
142.66128440410682
 20
297.7445473050318
 11
142.66128440410682
 21
287.46549210327044
  0
LINE
  8
_0-0_
  6
CONTINUOUS
 62
    7
 10
139.1971826127259
 20
286.10502037780657
 11
118.41257377178351
 21
286.10502037780657
  0
LINE
  8
_0-0_
  6
CONTINUOUS
 62
    7
 10
120.80487819040115
 20
286.10502037780657
 11
120.80487819040115
 21
250.10502037595484
  0
LINE
  8
_0-0_
  6
CONTINUOUS
 62
    7
 10
121.87667508632728
 20
250.10502037780702
 11
121.87667508632728
 21
241.4654921014187
  0
LINE
  8
_0-0_
  6
CONTINUOUS
 62
    7
 10
120.80487819040115
 20
240.10502037595484
 11
120.80487819040115
 21
236.0492922859537
  0
LINE
  8
_0-0_
  6
CONTINUOUS
 62
    7
 10
120.80487819040115
 20
236.0492922859537
 11
136.80487819040115
 21
236.0492922859537
  0
LINE
  8
_0-0_
  6
CONTINUOUS
 62
    7
 10
136.80487819040115
 20
236.0492922859537
 11
136.80487819040115
 21
240.10502037595484
  0
LINE
  8
_0-0_
  6
CONTINUOUS
 62
    7
 10
139.1971826127259
 20
240.10502037595484
 11
118.41257377178351
 21
240.10502037595484
  0
LINE
  8
_0-0_
  6
CONTINUOUS
 62
    7
 10
114.94847198040077
 20
241.4654921014187
 11
114.94847198040077
 21
250.10502037780748
  0
LINE
  8
_0-0_
  6
CONTINUOUS
 62
    7
 10
114.94847198040077
 20
250.10502037780748
 11
142.66128440410682
 21
250.10502037780748
  0
LINE
  8
_0-0_
  6
CONTINUOUS
 62
    7
 10
142.66128440410682
 20
250.10502037780748
 11
142.66128440410682
 21
241.4654921014187
  0
LINE
  8
_0-0_
  6
CONTINUOUS
 62
    7
 10
135.73308129818031
 20
241.4654921014187
 11
135.73308129818031
 21
250.10502037780702
  0
LINE
  8
_0-0_
  6
CONTINUOUS
 62
    7
 10
136.80487819040115
 20
250.10502037595484
 11
136.80487819040115
 21
286.10502037780657
  0
LINE
  8
_0-0_
  6
CONTINUOUS
 62
    7
 10
121.87667508632728
 20
287.46549210327044
 11
121.87667508632728
 21
297.74454749981282
  0
LINE
  8
_0-0_
  6
CONTINUOUS
 62
    7
 10
121.70487828576859
 20
351.10502037595484
 11
135.90487809503372
 21
351.10502037595484
  0
LINE
  8
_0-0_
  6
CONTINUOUS
 62
    7
 10
135.90487809503372
 20
351.10502037595484
 11
136.80487819040115
 21
350.20502075742456
  0
LINE
  8
_0-0_
  6
CONTINUOUS
 62
    7
 10
120.80487819040115
 20
350.20502075742456
 11
121.70487828576859
 21
351.10502037595484
  0
LINE
  8
_0-0_
  6
CONTINUOUS
 62
    7
 10
118.41257377178351
 20
299.10502037595484
 11
139.1971826127259
 21
299.10502037595484
  0
LINE
  8
_0-0_
  6
CONTINUOUS
 62
    7
 10
135.73308129818031
 20
297.74454749981282
 11
135.73308129818031
 21
287.46549210327044
  0
LINE
  8
_0-0_
  6
CONTINUOUS
 62
    7
 10
114.94847198040077
 20
287.46549210327044
 11
114.94847198040077
 21
297.7445473050318
  0
LINE
  8
_0-0_
  6
CONTINUOUS
 62
    7
 10
98.804878190400245
 20
217.90502037595456
 11
98.804878190400245
 21
206.10502037595461
  0
LINE
  8
_0-0_
  6
CONTINUOUS
 62
    7
 10
98.804878190400245
 20
206.10502037595461
 11
158.80487819040115
 21
206.10502037595461
  0
LINE
  8
_0-0_
  6
CONTINUOUS
 62
    7
 10
158.80487819040115
 20
206.10502037595461
 11
158.80487819040115
 21
217.90502037595456
  0
LINE
  8
_0-0_
  6
CONTINUOUS
 62
    7
 10
158.80487819040115
 20
217.90502037595456
 11
146.60487819040134
 21
230.10502037595484
  0
LINE
  8
_0-0_
  6
CONTINUOUS
 62
    7
 10
146.60487819040134
 20
230.10502037595484
 11
111.00487819040097
 21
230.10502037595484
  0
LINE
  8
_0-0_
  6
CONTINUOUS
 62
    7
 10
111.00487819040097
 20
230.10502037595484
 11
98.804878190400245
 21
217.90502037595456
  0
LINE
  8
_0-0_
  6
CONTINUOUS
 62
    7
 10
98.804878190400245
 20
217.90502037595456
 11
158.80487819040115
 21
217.90502037595456
  0
LINE
  8
_0-0_
  6
CONTINUOUS
 62
    7
 10
154.80487819040115
 20
206.10502037595461
 11
154.80487819040115
 21
205.10502037595461
  0
LINE
  8
_0-0_
  6
CONTINUOUS
 62
    7
 10
154.80487819040115
 20
205.10502037595461
 11
102.80487819040115
 21
205.10502037595461
  0
LINE
  8
_0-0_
  6
CONTINUOUS
 62
    7
 10
102.80487819040115
 20
205.10502037595461
 11
102.80487819040115
 21
206.10502037595461
  0
ARC
  8
_0-0_
  6
CONTINUOUS
 62
    7
 10
128.80487819040115
 20
227.10502037595484
 40
12
 50
14.477512185929864
 51
48.189685104221027
  0
ARC
  8
_0-0_
  6
CONTINUOUS
 62
    7
 10
128.80487819040115
 20
227.10502037595484
 40
12
 50
131.81031489577896
 51
165.52248781407013
  0
LINE
  8
_0-0_
  6
CONTINUOUS
 62
    7
 10
135.73308050816451
 20
241.46549370273681
 11
137.25830535602358
 21
240.52009481598657
  0
LINE
  8
_0-0_
  6
CONTINUOUS
 62
    7
 10
137.25830535602358
 20
240.52009481598657
 11
138.84244200820842
 21
240.11876369335198
  0
LINE
  8
_0-0_
  6
CONTINUOUS
 62
    7
 10
138.84244200820842
 20
240.11876369335198
 11
140.43735727415401
 21
240.27369457791087
  0
LINE
  8
_0-0_
  6
CONTINUOUS
 62
    7
 10
140.43735727415401
 20
240.27369457791087
 11
141.99459046057086
 21
240.98017997313474
  0
LINE
  8
_0-0_
  6
CONTINUOUS
 62
    7
 10
141.99459046057086
 20
240.98017997313474
 11
142.66128245883328
 21
241.46549185764502
  0
LINE
  8
_0-0_
  6
CONTINUOUS
 62
    7
 10
114.94847166722212
 20
241.46549370273681
 11
116.4736965150812
 21
240.52009481598657
  0
LINE
  8
_0-0_
  6
CONTINUOUS
 62
    7
 10
116.4736965150812
 20
240.52009481598657
 11
118.05783316726604
 21
240.11876369335198
  0
LINE
  8
_0-0_
  6
CONTINUOUS
 62
    7
 10
118.05783316726604
 20
240.11876369335198
 11
119.65274843321163
 21
240.27369457791087
  0
LINE
  8
_0-0_
  6
CONTINUOUS
 62
    7
 10
119.65274843321163
 20
240.27369457791087
 11
121.20998161962848
 21
240.98017997313474
  0
LINE
  8
_0-0_
  6
CONTINUOUS
 62
    7
 10
121.20998161962848
 20
240.98017997313474
 11
121.8766736178909
 21
241.46549185764502
  0
ARC
  8
_0-0_
  6
CONTINUOUS
 62
    7
 10
128.8048781922538
 20
258.42619404386255
 40
18.321172714233398
 50
247.78068542480463
 51
292.21929931640619
  0
ARC
  8
_0-0_
  6
CONTINUOUS
 62
    7
 10
128.8048781922538
 20
280.78384670804712
 40
18.321172714233398
 50
67.780689151566392
 51
112.21931084843362
  0
LINE
  8
_0-0_
  6
CONTINUOUS
 62
    7
 10
142.66128440410768
 20
297.74454730503169
 11
141.13605953879176
 21
298.68994607912867
  0
LINE
  8
_0-0_
  6
CONTINUOUS
 62
    7
 10
141.13605953879176
 20
298.68994607912867
 11
139.55192287919635
 21
299.09127708475887
  0
LINE
  8
_0-0_
  6
CONTINUOUS
 62
    7
 10
139.55192287919635
 20
299.09127708475887
 11
137.95700761611158
 21
298.93634608239944
  0
LINE
  8
_0-0_
  6
CONTINUOUS
 62
    7
 10
137.95700761611158
 20
298.93634608239944
 11
136.39977444274001
 21
298.2298605721582
  0
LINE
  8
_0-0_
  6
CONTINUOUS
 62
    7
 10
136.39977444274001
 20
298.2298605721582
 11
135.73308050816451
 21
297.74454704917292
  0
LINE
  8
_0-0_
  6
CONTINUOUS
 62
    7
 10
121.8766736178909
 20
297.74454889426465
 11
120.3514486441444
 21
298.68994696863098
  0
LINE
  8
_0-0_
  6
CONTINUOUS
 62
    7
 10
120.3514486441444
 20
298.68994696863098
 11
118.76731193851919
 21
299.09127724750334
  0
LINE
  8
_0-0_
  6
CONTINUOUS
 62
    7
 10
118.76731193851919
 20
299.09127724750334
 11
117.17239669320389
 21
298.93634551344121
  0
LINE
  8
_0-0_
  6
CONTINUOUS
 62
    7
 10
117.17239669320389
 20
298.93634551344121
 11
115.61516360086137
 21
298.22985928878478
  0
LINE
  8
_0-0_
  6
CONTINUOUS
 62
    7
 10
115.61516360086137
 20
298.22985928878478
 11
114.94847198040156
 21
297.74454730503157
  0
LINE
  8
_0-0_
  6
CONTINUOUS
 62
    7
 10
135.73308050816451
 20
287.46549370458854
 11
137.25830535602358
 21
286.5200948178383
  0
LINE
  8
_0-0_
  6
CONTINUOUS
 62
    7
 10
137.25830535602358
 20
286.5200948178383
 11
138.84244200820842
 21
286.11876369520371
  0
LINE
  8
_0-0_
  6
CONTINUOUS
 62
    7
 10
138.84244200820842
 20
286.11876369520371
 11
140.43735727415401
 21
286.2736945797626
  0
LINE
  8
_0-0_
  6
CONTINUOUS
 62
    7
 10
140.43735727415401
 20
286.2736945797626
 11
141.99459046057086
 21
286.98017997498647
  0
LINE
  8
_0-0_
  6
CONTINUOUS
 62
    7
 10
141.99459046057086
 20
286.98017997498647
 11
142.66128245883328
 21
287.46549185949675
  0
LINE
  8
_0-0_
  6
CONTINUOUS
 62
    7
 10
114.94847166722212
 20
287.46549370458854
 11
116.4736965150812
 21
286.5200948178383
  0
LINE
  8
_0-0_
  6
CONTINUOUS
 62
    7
 10
116.4736965150812
 20
286.5200948178383
 11
118.05783316726604
 21
286.11876369520371
  0
LINE
  8
_0-0_
  6
CONTINUOUS
 62
    7
 10
118.05783316726604
 20
286.11876369520371
 11
119.65274843321163
 21
286.2736945797626
  0
LINE
  8
_0-0_
  6
CONTINUOUS
 62
    7
 10
119.65274843321163
 20
286.2736945797626
 11
121.20998161962848
 21
286.98017997498647
  0
LINE
  8
_0-0_
  6
CONTINUOUS
 62
    7
 10
121.20998161962848
 20
286.98017997498647
 11
121.8766736178909
 21
287.46549185949675
  0
ARC
  8
_0-0_
  6
CONTINUOUS
 62
    7
 10
128.8048781922538
 20
304.42619404571428
 40
18.321172714233398
 50
247.78068542480463
 51
292.21929931640619
  0
LINE
  8
_0-0_
  6
CONTINUOUS
 62
    7
 10
97.804878190401155
 20
299.10502037595484
 11
30.804878190401155
 21
299.10502037595484
  0
LINE
  8
_0-0_
  6
CONTINUOUS
 62
    7
 10
30.804878190401155
 20
299.10502037595484
 11
30.804878190401155
 21
295.10502037595484
  0
LINE
  8
_0-0_
  6
CONTINUOUS
 62
    7
 10
30.804878190401155
 20
295.10502037595484
 11
97.804878190401155
 21
295.10502037595484
  0
LINE
  8
_0-0_
  6
CONTINUOUS
 62
    7
 10
97.804878190401155
 20
295.10502037595484
 11
97.804878190401155
 21
299.10502037595484
  0
LINE
  8
_0-0_
  6
CONTINUOUS
 62
    7
 10
93.013082122900755
 20
290.6605759314541
 11
35.596674257901554
 21
290.6605759314541
  0
LINE
  8
_0-0_
  6
CONTINUOUS
 62
    7
 10
35.304878190401155
 20
288.8827981536549
 11
93.304878190401155
 21
288.8827981536549
  0
LINE
  8
_0-0_
  6
CONTINUOUS
 62
    7
 10
93.304878190401155
 20
288.8827981536549
 11
93.304878190401155
 21
287.10502037585479
  0
LINE
  8
_0-0_
  6
CONTINUOUS
 62
    7
 10
93.304878190401155
 20
287.10502037585479
 11
35.304878190401155
 21
287.10502037585479
  0
LINE
  8
_0-0_
  6
CONTINUOUS
 62
    7
 10
35.304878190401155
 20
287.10502037585479
 11
35.304878190401155
 21
288.8827981536549
  0
LINE
  8
_0-0_
  6
CONTINUOUS
 62
    7
 10
36.804878190401155
 20
285.10502037595484
 11
91.804878190401155
 21
285.10502037595484
  0
LINE
  8
_0-0_
  6
CONTINUOUS
 62
    7
 10
97.804878190401155
 20
279.10502037595484
 11
97.804878190401155
 21
234.77984366654596
  0
LINE
  8
_0-0_
  6
CONTINUOUS
 62
    7
 10
25.804878190401155
 20
241.9050205666897
 11
29.804878190401155
 21
241.9050205666897
  0
LINE
  8
_0-0_
  6
CONTINUOUS
 62
    7
 10
29.804878190401155
 20
242.60502037595484
 11
26.504878953340608
 21
242.60502037595484
  0
LINE
  8
_0-0_
  6
CONTINUOUS
 62
    7
 10
26.504878953340608
 20
242.60502037595484
 11
26.504878953340608
 21
232.60502037595484
  0
LINE
  8
_0-0_
  6
CONTINUOUS
 62
    7
 10
26.504878953340608
 20
232.60502037595484
 11
29.804878190401155
 21
232.60502037595484
  0
LINE
  8
_0-0_
  6
CONTINUOUS
 62
    7
 10
29.804878190401155
 20
233.30502018521997
 11
25.804878190401155
 21
233.30502018521997
  0
LINE
  8
_0-0_
  6
CONTINUOUS
 62
    7
 10
25.804878190401155
 20
233.30502018521997
 11
26.504878953340608
 21
232.60502037595484
  0
LINE
  8
_0-0_
  6
CONTINUOUS
 62
    7
 10
25.804878190401155
 20
233.30502018521997
 11
25.804878190401155
 21
241.9050205666897
  0
LINE
  8
_0-0_
  6
CONTINUOUS
 62
    7
 10
25.804878190401155
 20
241.9050205666897
 11
26.504878953340608
 21
242.60502037595484
  0
LINE
  8
_0-0_
  6
CONTINUOUS
 62
    7
 10
32.199771190400838
 20
242.50502037595538
 11
37.054322690400454
 21
242.50502037595538
  0
LINE
  8
_0-0_
  6
CONTINUOUS
 62
    7
 10
37.804878190401155
 20
246.10502037595484
 11
37.054322690400454
 21
247.40502037595502
  0
LINE
  8
_0-0_
  6
CONTINUOUS
 62
    7
 10
37.054322690400454
 20
247.40502037595502
 11
32.199771190400838
 21
247.40502037595502
  0
LINE
  8
_0-0_
  6
CONTINUOUS
 62
    7
 10
32.199771190400838
 20
247.40502037595502
 11
31.304878190401155
 21
245.85502037595484
  0
LINE
  8
_0-0_
  6
CONTINUOUS
 62
    7
 10
31.304878190401155
 20
245.85502037595484
 11
30.554878190401155
 21
245.85502037595484
  0
LINE
  8
_0-0_
  6
CONTINUOUS
 62
    7
 10
30.804878190401155
 20
245.85502037595484
 11
30.804878190401155
 21
279.10502037595484
  0
LINE
  8
_0-0_
  6
CONTINUOUS
 62
    7
 10
43.004878190400973
 20
270.60484343081293
 11
43.004878190400973
 21
266.60502037595484
  0
LINE
  8
_0-0_
  6
CONTINUOUS
 62
    7
 10
42.73692899797004
 20
265.60502037595484
 11
41.272827382832816
 21
263.06912199109206
  0
LINE
  8
_0-0_
  6
CONTINUOUS
 62
    7
 10
41.004878190400973
 20
262.06912199109206
 11
41.004878190400973
 21
222.10502037595484
  0
LINE
  8
_0-0_
  6
CONTINUOUS
 62
    7
 10
41.004878190400973
 20
222.10502037595484
 11
37.804878190401155
 21
222.10502037595484
  0
LINE
  8
_0-0_
  6
CONTINUOUS
 62
    7
 10
37.804878190401155
 20
222.10502037595484
 11
37.804878190401155
 21
262.06912199109206
  0
LINE
  8
_0-0_
  6
CONTINUOUS
 62
    7
 10
38.072827382832088
 20
263.06912199109206
 11
41.004878190400973
 21
268.14758296017476
  0
LINE
  8
_0-0_
  6
CONTINUOUS
 62
    7
 10
41.004878190400973
 20
268.14758296017476
 11
41.004878190400973
 21
268.5476657518509
  0
LINE
  8
_0-0_
  6
CONTINUOUS
 62
    7
 10
44.304878190401155
 20
267.10502037595484
 11
44.304878190401155
 21
208.10502037595484
  0
LINE
  8
_0-0_
  6
CONTINUOUS
 62
    7
 10
47.304878190401155
 20
205.10502037595461
 11
81.304878190401155
 21
205.10502037595461
  0
LINE
  8
_0-0_
  6
CONTINUOUS
 62
    7
 10
84.304878190401155
 20
208.10502037595484
 11
84.304878190401155
 21
267.10502037595484
  0
LINE
  8
_0-0_
  6
CONTINUOUS
 62
    7
 10
85.604878190401337
 20
266.60502037595484
 11
85.604878190401337
 21
270.60484343081293
  0
LINE
  8
_0-0_
  6
CONTINUOUS
 62
    7
 10
87.604878190401337
 20
270.10502037595484
 11
87.604878190401337
 21
268.68348134503753
  0
LINE
  8
_0-0_
  6
CONTINUOUS
 62
    7
 10
87.87282738283227
 20
267.68348134503753
 11
90.536928997970222
 21
263.06912199109206
  0
LINE
  8
_0-0_
  6
CONTINUOUS
 62
    7
 10
90.804878190401155
 20
262.06912199109206
 11
90.804878190401155
 21
222.10502037595484
  0
LINE
  8
_0-0_
  6
CONTINUOUS
 62
    7
 10
90.804878190401155
 20
222.10502037595484
 11
95.808396480050192
 21
228.7845375870163
  0
LINE
  8
_0-0_
  6
CONTINUOUS
 62
    7
 10
91.804878190401155
 20
229.10502037682522
 11
91.804878190401155
 21
246.10502037595484
  0
LINE
  8
_0-0_
  6
CONTINUOUS
 62
    7
 10
91.804878190401155
 20
246.10502037595484
 11
90.804878190401155
 21
246.10502037595484
  0
LINE
  8
_0-0_
  6
CONTINUOUS
 62
    7
 10
87.604878190401337
 20
247.60502037595484
 11
85.904878190400609
 21
247.60502037595484
  0
LINE
  8
_0-0_
  6
CONTINUOUS
 62
    7
 10
85.904878190400609
 20
257.10502037595484
 11
84.304878190401155
 21
258.60502037595484
  0
LINE
  8
_0-0_
  6
CONTINUOUS
 62
    7
 10
85.904878190400609
 20
257.10502037595484
 11
85.904878190400609
 21
218.10502037595484
  0
LINE
  8
_0-0_
  6
CONTINUOUS
 62
    7
 10
85.904878190400609
 20
218.10502037595484
 11
84.304878190401155
 21
216.60502037595484
  0
LINE
  8
_0-0_
  6
CONTINUOUS
 62
    7
 10
87.604878190401337
 20
222.10502037595484
 11
87.604878190401337
 21
262.06912199109206
  0
LINE
  8
_0-0_
  6
CONTINUOUS
 62
    7
 10
87.336928997969494
 20
263.06912199109206
 11
85.87282738283227
 21
265.60502037595484
  0
LINE
  8
_0-0_
  6
CONTINUOUS
 62
    7
 10
81.304878190401155
 20
270.10502037595484
 11
47.304878190401155
 21
270.10502037595484
  0
LINE
  8
_0-0_
  6
CONTINUOUS
 62
    7
 10
44.304878190401155
 20
258.60502037595484
 11
42.704878190401701
 21
257.10502037595484
  0
LINE
  8
_0-0_
  6
CONTINUOUS
 62
    7
 10
42.704878190401701
 20
257.10502037595484
 11
42.704878190401701
 21
218.10502037595484
  0
LINE
  8
_0-0_
  6
CONTINUOUS
 62
    7
 10
42.704878190401701
 20
218.10502037595484
 11
44.304878190401155
 21
216.60502037595484
  0
LINE
  8
_0-0_
  6
CONTINUOUS
 62
    7
 10
37.804878190401155
 20
222.10502037595484
 11
33.535100398112604
 21
227.80502037595465
  0
LINE
  8
_0-0_
  6
CONTINUOUS
 62
    7
 10
32.199771190400838
 20
227.80502037595465
 11
31.304878190401155
 21
229.35502037595484
  0
LINE
  8
_0-0_
  6
CONTINUOUS
 62
    7
 10
31.304878190401155
 20
229.35502037595484
 11
30.554878190401155
 21
229.35502037595484
  0
LINE
  8
_0-0_
  6
CONTINUOUS
 62
    7
 10
29.804878190401155
 20
230.10502037595484
 11
29.804878190401155
 21
245.10502037595484
  0
LINE
  8
_0-0_
  6
CONTINUOUS
 62
    7
 10
41.004878190400973
 20
247.60502037595484
 11
42.704878190401701
 21
247.60502037595484
  0
LINE
  8
_0-0_
  6
CONTINUOUS
 62
    7
 10
37.054322690400454
 20
232.7050203759552
 11
32.199771190400838
 21
232.7050203759552
  0
LINE
  8
_0-0_
  6
CONTINUOUS
 62
    7
 10
32.199771190400838
 20
227.80502037595465
 11
37.054322690400454
 21
227.80502037595465
  0
LINE
  8
_0-0_
  6
CONTINUOUS
 62
    7
 10
37.054322690400454
 20
227.80502037595465
 11
37.804878190401155
 21
229.10502037595484
  0
LINE
  8
_0-0_
  6
CONTINUOUS
 62
    7
 10
41.004878190400973
 20
227.60502037595484
 11
42.704878190401701
 21
227.60502037595484
  0
LINE
  8
_0-0_
  6
CONTINUOUS
 62
    7
 10
85.904878190400609
 20
227.60502037595484
 11
87.604878190401337
 21
227.60502037595484
  0
LINE
  8
_0-0_
  6
CONTINUOUS
 62
    7
 10
90.804878190401155
 20
229.10502037682522
 11
91.804878190401155
 21
229.10502037682522
  0
LINE
  8
_0-0_
  6
CONTINUOUS
 62
    7
 10
90.804878190401155
 20
222.10502037595484
 11
87.604878190401337
 21
222.10502037595484
  0
ARC
  8
_0-0_
  6
CONTINUOUS
 62
    7
 10
88.804878190401155
 20
262.06912199109206
 40
2
 50
0
 51
29.999999999999915
  0
ARC
  8
_0-0_
  6
CONTINUOUS
 62
    7
 10
85.604878190401337
 20
262.06912199109206
 40
2
 50
0
 51
30.000000000001442
  0
ARC
  8
_0-0_
  6
CONTINUOUS
 62
    7
 10
87.604878190401337
 20
266.60502037595484
 40
2
 50
180
 51
210.00000000000082
  0
ARC
  8
_0-0_
  6
CONTINUOUS
 62
    7
 10
89.604878190401337
 20
268.68348134503753
 40
2
 50
180
 51
209.99999999999986
  0
ARC
  8
_0-0_
  6
CONTINUOUS
 62
    7
 10
41.004878190400973
 20
266.60502037595484
 40
2
 50
329.99999999999994
 51
0
  0
ARC
  8
_0-0_
  6
CONTINUOUS
 62
    7
 10
43.004878190400973
 20
262.06912199109206
 40
2
 50
150.00000000000009
 51
180
  0
ARC
  8
_0-0_
  6
CONTINUOUS
 62
    7
 10
39.804878190401155
 20
262.06912199109206
 40
2
 50
149.99999999999977
 51
180
  0
ARC
  8
_0-0_
  6
CONTINUOUS
 62
    7
 10
43.004878190400973
 20
268.5476657518509
 40
2
 50
103.69273104115079
 51
180
  0
ARC
  8
_0-0_
  6
CONTINUOUS
 62
    7
 10
64.304878190401155
 20
181.12335371494783
 40
91.981666661191412
 50
75.326452380014757
 51
103.69273104114845
  0
ARC
  8
_0-0_
  6
CONTINUOUS
 62
    7
 10
87.804878190401155
 20
234.77984366654596
 40
10
 50
323.16371269154922
 51
0.0000000000000318
  0
ARC
  8
_0-0_
  6
CONTINUOUS
 62
    7
 10
91.804878190401155
 20
279.10502037595484
 40
6
 50
0
 51
90
  0
ARC
  8
_0-0_
  6
CONTINUOUS
 62
    7
 10
36.804878190401155
 20
279.10502037595484
 40
6
 50
90
 51
180
  0
ARC
  8
_0-0_
  6
CONTINUOUS
 62
    7
 10
89.304878190401155
 20
287.10502037585479
 40
1.9999999998999982
 50
270
 51
0
  0
ARC
  8
_0-0_
  6
CONTINUOUS
 62
    7
 10
39.304878190401155
 20
287.10502037585479
 40
1.9999999998999982
 50
180
 51
270
  0
LINE
  8
_0-0_
  6
CONTINUOUS
 62
    7
 10
93.013082122900471
 20
290.6605759314549
 11
92.563873076579625
 21
291.66900517086401
  0
LINE
  8
_0-0_
  6
CONTINUOUS
 62
    7
 10
92.563873076579625
 20
291.66900517086401
 11
91.924487637846426
 21
292.59277691994401
  0
LINE
  8
_0-0_
  6
CONTINUOUS
 62
    7
 10
91.924487637846426
 20
292.59277691994401
 11
91.114353209712249
 21
293.4038228415501
  0
LINE
  8
_0-0_
  6
CONTINUOUS
 62
    7
 10
91.114353209712249
 20
293.4038228415501
 11
90.158085316828021
 21
294.07749971576345
  0
LINE
  8
_0-0_
  6
CONTINUOUS
 62
    7
 10
90.158085316828021
 20
294.07749971576345
 11
89.084739675224284
 21
294.59333821165791
  0
LINE
  8
_0-0_
  6
CONTINUOUS
 62
    7
 10
89.084739675224284
 20
294.59333821165791
 11
87.926929349081888
 21
294.93566483756263
  0
LINE
  8
_0-0_
  6
CONTINUOUS
 62
    7
 10
87.926929349081888
 20
294.93566483756263
 11
86.719833819280552
 21
295.09407817217516
  0
LINE
  8
_0-0_
  6
CONTINUOUS
 62
    7
 10
86.719833819280552
 20
295.09407817217516
 11
86.304878190401155
 21
295.10502037595484
  0
LINE
  8
_0-0_
  6
CONTINUOUS
 62
    7
 10
93.013082122883588
 20
290.66057593145416
 11
93.042163491092765
 21
289.8706152753673
  0
LINE
  8
_0-0_
  6
CONTINUOUS
 62
    7
 10
93.042163491092765
 20
289.8706152753673
 11
93.225125179874226
 21
289.0971447203172
  0
LINE
  8
_0-0_
  6
CONTINUOUS
 62
    7
 10
93.225125179874226
 20
289.0971447203172
 11
93.304878190401155
 21
288.88279815365416
  0
LINE
  8
_0-0_
  6
CONTINUOUS
 62
    7
 10
35.304878190401155
 20
288.88279815365416
 11
35.530925008642612
 21
289.64721492362679
  0
LINE
  8
_0-0_
  6
CONTINUOUS
 62
    7
 10
35.530925008642612
 20
289.64721492362679
 11
35.604205641323006
 21
290.43490970127777
  0
LINE
  8
_0-0_
  6
CONTINUOUS
 62
    7
 10
35.604205641323006
 20
290.43490970127777
 11
35.596674257918721
 21
290.66057593145416
  0
LINE
  8
_0-0_
  6
CONTINUOUS
 62
    7
 10
42.304878190401155
 20
295.10502037595484
 11
41.089340946732705
 21
295.01049083914074
  0
LINE
  8
_0-0_
  6
CONTINUOUS
 62
    7
 10
41.089340946732705
 20
295.01049083914074
 11
39.910737187121526
 21
294.72977446084025
  0
LINE
  8
_0-0_
  6
CONTINUOUS
 62
    7
 10
39.910737187121526
 20
294.72977446084025
 11
38.804878190401155
 21
294.27140066615874
  0
LINE
  8
_0-0_
  6
CONTINUOUS
 62
    7
 10
38.804878190401155
 20
294.27140066615874
 11
37.805364922595459
 21
293.64929691089918
  0
LINE
  8
_0-0_
  6
CONTINUOUS
 62
    7
 10
37.805364922595459
 20
293.64929691089918
 11
36.942567088568353
 21
292.88236550286558
  0
LINE
  8
_0-0_
  6
CONTINUOUS
 62
    7
 10
36.942567088568353
 20
292.88236550286558
 11
36.242700363910103
 21
291.99390926480487
  0
LINE
  8
_0-0_
  6
CONTINUOUS
 62
    7
 10
36.242700363910103
 20
291.99390926480487
 11
35.727029844899903
 21
291.01092348993012
  0
LINE
  8
_0-0_
  6
CONTINUOUS
 62
    7
 10
35.727029844899903
 20
291.01092348993012
 11
35.596674257901896
 21
290.6605759314549
  0
ARC
  8
_0-0_
  6
CONTINUOUS
 62
    7
 10
30.554878190401155
 20
245.10502037595484
 40
0.75
 50
90
 51
180
  0
ARC
  8
_0-0_
  6
CONTINUOUS
 62
    7
 10
36.283241690400587
 20
245.39037437595539
 40
5
 50
174.66785499999978
 51
215.24477999999991
  0
ARC
  8
_0-0_
  6
CONTINUOUS
 62
    7
 10
41.279640190400983
 20
238.3150353759554
 40
10
 50
155.22862399999991
 51
184.07151099999959
  0
ARC
  8
_0-0_
  6
CONTINUOUS
 62
    7
 10
36.283241690400587
 20
229.81966637595519
 40
5
 50
144.75521999999964
 51
185.33214499999977
  0
ARC
  8
_0-0_
  6
CONTINUOUS
 62
    7
 10
30.554878190401155
 20
230.10502037595484
 40
0.75
 50
180
 51
270
  0
ARC
  8
_0-0_
  6
CONTINUOUS
 62
    7
 10
41.279640190400983
 20
236.89500537595518
 40
10
 50
175.92848900000004
 51
204.77137599999966
  0
ARC
  8
_0-0_
  6
CONTINUOUS
 62
    7
 10
27.853325690400538
 20
238.58817887595501
 40
10
 50
5.6422043214078608
 51
23.059334000000003
  0
ARC
  8
_0-0_
  6
CONTINUOUS
 62
    7
 10
27.853325690400538
 20
236.62186187595466
 40
10
 50
336.94066600000002
 51
354.35779567859214
  0
ARC
  8
_0-0_
  6
CONTINUOUS
 62
    7
 10
32.877832690400624
 20
229.95603337595526
 40
5
 50
9.7995955382493722
 51
33.353117000000431
  0
ARC
  8
_0-0_
  6
CONTINUOUS
 62
    7
 10
32.877832690400624
 20
245.25400737595533
 40
5
 50
326.64688299999955
 51
350.20040446175079
  0
ARC
  8
_0-0_
  6
CONTINUOUS
 62
    7
 10
84.773628192251977
 20
237.60502037595484
 40
11.031249998148837
 50
309.59775270452445
 51
50.402247302573535
  0
ARC
  8
_0-0_
  6
CONTINUOUS
 62
    7
 10
47.304878190401155
 20
208.10502037595484
 40
3
 50
180
 51
270
  0
ARC
  8
_0-0_
  6
CONTINUOUS
 62
    7
 10
81.304878190401155
 20
208.10502037595484
 40
3
 50
270
 51
0
  0
ARC
  8
_0-0_
  6
CONTINUOUS
 62
    7
 10
81.304878190401155
 20
267.10502037595484
 40
3
 50
0
 51
90
  0
ARC
  8
_0-0_
  6
CONTINUOUS
 62
    7
 10
47.304878190401155
 20
267.10502037595484
 40
3
 50
90
 51
180
  0
LINE
  8
_0-0_
  6
CONTINUOUS
 62
    7
 10
178.80487819040115
 20
299.10502037595484
 11
178.80487819040115
 21
314.10502037595484
  0
LINE
  8
_0-0_
  6
CONTINUOUS
 62
    7
 10
30.804878190401155
 20
314.10502037595484
 11
30.804878190401155
 21
299.10502037595484
  0
LINE
  8
_0-0_
  6
CONTINUOUS
 62
    7
 10
420.55807508954609
 20
314.10502037595484
 11
420.55807508954609
 21
299.10502037595484
  0
LINE
  8
_0-0_
  6
CONTINUOUS
 62
    7
 10
420.55807508954609
 20
299.10502037595484
 11
235.55807508954609
 21
299.10502037595484
  0
LINE
  8
_0-0_
  6
CONTINUOUS
 62
    7
 10
235.55807508954609
 20
299.10502037595484
 11
235.55807508954609
 21
314.10502037595484
  0
LINE
  8
_0-0_
  6
CONTINUOUS
 62
    7
 10
235.55807508954609
 20
314.10502037595484
 11
420.55807508954609
 21
314.10502037595484
  0
LINE
  8
_0-0_
  6
CONTINUOUS
 62
    7
 10
419.55807508954609
 20
314.10502037595484
 11
419.55807508954609
 21
295.10502037595484
  0
LINE
  8
_0-0_
  6
CONTINUOUS
 62
    7
 10
324.55807508954609
 20
295.10502037595484
 11
324.55807508954609
 21
299.10502037595484
  0
LINE
  8
_0-0_
  6
CONTINUOUS
 62
    7
 10
343.41096825113897
 20
299.10502037595484
 11
343.41096825113897
 21
298.16502037833902
  0
LINE
  8
_0-0_
  6
CONTINUOUS
 62
    7
 10
343.41096825113897
 20
298.16502037833902
 11
356.29096836557989
 21
298.16502037833902
  0
LINE
  8
_0-0_
  6
CONTINUOUS
 62
    7
 10
356.29096836557989
 20
298.16502037833902
 11
356.29096836557989
 21
299.10502037595484
  0
LINE
  8
_0-0_
  6
CONTINUOUS
 62
    7
 10
354.85096830835943
 20
298.16502037833902
 11
354.85096830835943
 21
291.26502022336695
  0
LINE
  8
_0-0_
  6
CONTINUOUS
 62
    7
 10
354.85096830835943
 20
291.26502022336695
 11
354.25096840372686
 21
290.66502079557154
  0
LINE
  8
_0-0_
  6
CONTINUOUS
 62
    7
 10
354.25096840372686
 20
290.66502079557154
 11
345.450968212992
 21
290.66502079557154
  0
LINE
  8
_0-0_
  6
CONTINUOUS
 62
    7
 10
345.450968212992
 20
290.66502079557154
 11
344.85096830835943
 21
291.26502022336695
  0
LINE
  8
_0-0_
  6
CONTINUOUS
 62
    7
 10
344.85096830835943
 20
291.26502022336695
 11
354.85096830835943
 21
291.26502022336695
  0
LINE
  8
_0-0_
  6
CONTINUOUS
 62
    7
 10
354.85096830835943
 20
296.66502031873438
 11
344.85096830835943
 21
296.66502031873438
  0
LINE
  8
_0-0_
  6
CONTINUOUS
 62
    7
 10
345.47596830835943
 20
296.66502031873438
 11
345.47596830835943
 21
291.26502022336695
  0
LINE
  8
_0-0_
  6
CONTINUOUS
 62
    7
 10
344.85096830835943
 20
291.26502022336695
 11
344.85096830835943
 21
298.16502037833902
  0
LINE
  8
_0-0_
  6
CONTINUOUS
 62
    7
 10
346.10096830835943
 20
296.66502031873438
 11
346.10096830835943
 21
291.26502022336695
  0
LINE
  8
_0-0_
  6
CONTINUOUS
 62
    7
 10
346.72596830835943
 20
291.26502022336695
 11
346.72596830835943
 21
296.66502031873438
  0
LINE
  8
_0-0_
  6
CONTINUOUS
 62
    7
 10
347.35096830835943
 20
296.66502031873438
 11
347.35096830835943
 21
291.26502022336695
  0
LINE
  8
_0-0_
  6
CONTINUOUS
 62
    7
 10
347.97596830835943
 20
291.26502022336695
 11
347.97596830835943
 21
296.66502031873438
  0
LINE
  8
_0-0_
  6
CONTINUOUS
 62
    7
 10
350.28398100247983
 20
296.66502031873438
 11
349.41795561423902
 21
298.16502037833902
  0
LINE
  8
_0-0_
  6
CONTINUOUS
 62
    7
 10
343.34987115704649
 20
290.6605759314541
 11
400.76627902204569
 21
290.6605759314541
  0
LINE
  8
_0-0_
  6
CONTINUOUS
 62
    7
 10
401.05807508954609
 20
288.8827981536549
 11
343.05807508954609
 21
288.8827981536549
  0
LINE
  8
_0-0_
  6
CONTINUOUS
 62
    7
 10
343.05807508954609
 20
288.8827981536549
 11
343.05807508954609
 21
287.10502037585479
  0
LINE
  8
_0-0_
  6
CONTINUOUS
 62
    7
 10
343.05807508954609
 20
287.10502037585479
 11
401.05807508954609
 21
287.10502037585479
  0
LINE
  8
_0-0_
  6
CONTINUOUS
 62
    7
 10
401.05807508954609
 20
287.10502037585479
 11
401.05807508954609
 21
288.8827981536549
  0
LINE
  8
_0-0_
  6
CONTINUOUS
 62
    7
 10
399.55807508954609
 20
285.10502037595484
 11
344.55807508954609
 21
285.10502037595484
  0
LINE
  8
_0-0_
  6
CONTINUOUS
 62
    7
 10
338.55807508954609
 20
279.10502037595484
 11
338.55807508954609
 21
273.10502037595484
  0
LINE
  8
_0-0_
  6
CONTINUOUS
 62
    7
 10
338.55807508954609
 20
273.10502037595484
 11
344.82116247869459
 21
272.06107999453502
  0
LINE
  8
_0-0_
  6
CONTINUOUS
 62
    7
 10
316.55807508954609
 20
206.10502037595461
 11
256.55807508954609
 21
206.10502037595461
  0
LINE
  8
_0-0_
  6
CONTINUOUS
 62
    7
 10
256.55807508954609
 20
206.10502037595461
 11
256.55807508954609
 21
217.90502037595456
  0
LINE
  8
_0-0_
  6
CONTINUOUS
 62
    7
 10
256.55807508954609
 20
217.90502037595456
 11
268.75807508954682
 21
230.10502037595484
  0
LINE
  8
_0-0_
  6
CONTINUOUS
 62
    7
 10
268.75807508954682
 20
230.10502037595484
 11
304.35807508954628
 21
230.10502037595484
  0
LINE
  8
_0-0_
  6
CONTINUOUS
 62
    7
 10
304.35807508954628
 20
230.10502037595484
 11
316.55807508954609
 21
217.90502037595456
  0
LINE
  8
_0-0_
  6
CONTINUOUS
 62
    7
 10
316.55807508954609
 20
217.90502037595456
 11
256.55807508954609
 21
217.90502037595456
  0
LINE
  8
_0-0_
  6
CONTINUOUS
 62
    7
 10
260.55807508954609
 20
206.10502037595461
 11
260.55807508954609
 21
205.10502037595461
  0
LINE
  8
_0-0_
  6
CONTINUOUS
 62
    7
 10
260.55807508954609
 20
205.10502037595461
 11
312.55807508954609
 21
205.10502037595461
  0
LINE
  8
_0-0_
  6
CONTINUOUS
 62
    7
 10
312.55807508954609
 20
205.10502037595461
 11
312.55807508954609
 21
206.10502037595461
  0
LINE
  8
_0-0_
  6
CONTINUOUS
 62
    7
 10
316.55807508954609
 20
206.10502037595461
 11
316.55807508954609
 21
217.90502037595456
  0
LINE
  8
_0-0_
  6
CONTINUOUS
 62
    7
 10
403.41096825113897
 20
299.10502037595484
 11
403.41096825113897
 21
298.16502037833902
  0
LINE
  8
_0-0_
  6
CONTINUOUS
 62
    7
 10
403.41096825113897
 20
298.16502037833902
 11
416.29096836557989
 21
298.16502037833902
  0
LINE
  8
_0-0_
  6
CONTINUOUS
 62
    7
 10
416.29096836557989
 20
298.16502037833902
 11
416.29096836557989
 21
299.10502037595484
  0
LINE
  8
_0-0_
  6
CONTINUOUS
 62
    7
 10
414.85096830835943
 20
298.16502037833902
 11
414.85096830835943
 21
291.26502022336695
  0
LINE
  8
_0-0_
  6
CONTINUOUS
 62
    7
 10
414.85096830835943
 20
291.26502022336695
 11
414.25096840372686
 21
290.66502079557154
  0
LINE
  8
_0-0_
  6
CONTINUOUS
 62
    7
 10
414.25096840372686
 20
290.66502079557154
 11
405.450968212992
 21
290.66502079557154
  0
LINE
  8
_0-0_
  6
CONTINUOUS
 62
    7
 10
405.450968212992
 20
290.66502079557154
 11
404.85096830835943
 21
291.26502022336695
  0
LINE
  8
_0-0_
  6
CONTINUOUS
 62
    7
 10
404.85096830835943
 20
291.26502022336695
 11
404.85096830835943
 21
298.16502037833902
  0
LINE
  8
_0-0_
  6
CONTINUOUS
 62
    7
 10
404.85096830835943
 20
296.66502031873438
 11
414.85096830835943
 21
296.66502031873438
  0
LINE
  8
_0-0_
  6
CONTINUOUS
 62
    7
 10
410.28398100247983
 20
296.66502031873438
 11
409.41795561423902
 21
298.16502037833902
  0
LINE
  8
_0-0_
  6
CONTINUOUS
 62
    7
 10
407.97596830835943
 20
296.66502031873438
 11
407.97596830835943
 21
291.26502022336695
  0
LINE
  8
_0-0_
  6
CONTINUOUS
 62
    7
 10
407.35096830835943
 20
291.26502022336695
 11
407.35096830835943
 21
296.66502031873438
  0
LINE
  8
_0-0_
  6
CONTINUOUS
 62
    7
 10
406.72596830835943
 20
296.66502031873438
 11
406.72596830835943
 21
291.26502022336695
  0
LINE
  8
_0-0_
  6
CONTINUOUS
 62
    7
 10
406.10096830835943
 20
291.26502022336695
 11
406.10096830835943
 21
296.66502031873438
  0
LINE
  8
_0-0_
  6
CONTINUOUS
 62
    7
 10
405.47596830835943
 20
296.66502031873438
 11
405.47596830835943
 21
291.26502022336695
  0
LINE
  8
_0-0_
  6
CONTINUOUS
 62
    7
 10
404.85096830835943
 20
291.26502022336695
 11
414.85096830835943
 21
291.26502022336695
  0
LINE
  8
_0-0_
  6
CONTINUOUS
 62
    7
 10
405.55807508954609
 20
279.10502037595484
 11
401.01714972224732
 21
275.10502037595484
  0
LINE
  8
_0-0_
  6
CONTINUOUS
 62
    7
 10
352.95718780393514
 20
267.75440332315407
 11
360.06137735238104
 21
230.65474679238446
  0
LINE
  8
_0-0_
  6
CONTINUOUS
 62
    7
 10
279.45807518491353
 20
351.10502037595484
 11
278.55807508954609
 21
350.20502075742456
  0
LINE
  8
_0-0_
  6
CONTINUOUS
 62
    7
 10
294.55807508954609
 20
350.20502075742456
 11
293.65807499417866
 21
351.10502037595484
  0
LINE
  8
_0-0_
  6
CONTINUOUS
 62
    7
 10
293.65807499417866
 20
351.10502037595484
 11
279.45807518491353
 21
351.10502037595484
  0
LINE
  8
_0-0_
  6
CONTINUOUS
 62
    7
 10
278.55807508954609
 20
314.10502037595484
 11
278.55807508954609
 21
350.20502075742456
  0
LINE
  8
_0-0_
  6
CONTINUOUS
 62
    7
 10
294.55807508954609
 20
314.10502037595484
 11
294.55807508954609
 21
350.20502075742456
  0
LINE
  8
_0-0_
  6
CONTINUOUS
 62
    7
 10
293.48627819732616
 20
297.74454749981282
 11
293.48627819732616
 21
287.46549210327044
  0
LINE
  8
_0-0_
  6
CONTINUOUS
 62
    7
 10
278.55807508954609
 20
286.10502037780657
 11
278.55807508954609
 21
250.10502037595484
  0
LINE
  8
_0-0_
  6
CONTINUOUS
 62
    7
 10
279.62987198547313
 20
250.10502037780702
 11
279.62987198547313
 21
241.4654921014187
  0
LINE
  8
_0-0_
  6
CONTINUOUS
 62
    7
 10
278.55807508954609
 20
240.10502037595484
 11
278.55807508954609
 21
236.0492922859537
  0
LINE
  8
_0-0_
  6
CONTINUOUS
 62
    7
 10
278.55807508954609
 20
236.0492922859537
 11
294.55807508954609
 21
236.0492922859537
  0
LINE
  8
_0-0_
  6
CONTINUOUS
 62
    7
 10
294.55807508954609
 20
236.0492922859537
 11
294.55807508954609
 21
240.10502037595484
  0
LINE
  8
_0-0_
  6
CONTINUOUS
 62
    7
 10
296.95037951187084
 20
240.10502037595484
 11
276.16577067092845
 21
240.10502037595484
  0
LINE
  8
_0-0_
  6
CONTINUOUS
 62
    7
 10
272.70166887954662
 20
241.4654921014187
 11
272.70166887954662
 21
250.10502037780748
  0
LINE
  8
_0-0_
  6
CONTINUOUS
 62
    7
 10
272.70166887954662
 20
250.10502037780748
 11
300.41448130325267
 21
250.10502037780748
  0
LINE
  8
_0-0_
  6
CONTINUOUS
 62
    7
 10
300.41448130325267
 20
250.10502037780748
 11
300.41448130325267
 21
241.4654921014187
  0
LINE
  8
_0-0_
  6
CONTINUOUS
 62
    7
 10
293.48627819732616
 20
241.4654921014187
 11
293.48627819732616
 21
250.10502037780702
  0
LINE
  8
_0-0_
  6
CONTINUOUS
 62
    7
 10
294.55807508954609
 20
250.10502037595484
 11
294.55807508954609
 21
286.10502037780657
  0
LINE
  8
_0-0_
  6
CONTINUOUS
 62
    7
 10
296.95037951187084
 20
286.10502037780657
 11
276.16577067092845
 21
286.10502037780657
  0
LINE
  8
_0-0_
  6
CONTINUOUS
 62
    7
 10
279.62987198547313
 20
287.46549210327044
 11
279.62987198547313
 21
297.74454749981282
  0
LINE
  8
_0-0_
  6
CONTINUOUS
 62
    7
 10
272.70166887954662
 20
297.74454730503135
 11
272.70166887954662
 21
287.46549210327044
  0
LINE
  8
_0-0_
  6
CONTINUOUS
 62
    7
 10
259.85096830835943
 20
291.26502022336695
 11
259.85096830835943
 21
298.16502037833902
  0
LINE
  8
_0-0_
  6
CONTINUOUS
 62
    7
 10
261.29096836557989
 20
298.16502037833902
 11
248.41096825113897
 21
298.16502037833902
  0
LINE
  8
_0-0_
  6
CONTINUOUS
 62
    7
 10
248.41096825113897
 20
298.16502037833902
 11
248.41096825113897
 21
299.10502037595484
  0
LINE
  8
_0-0_
  6
CONTINUOUS
 62
    7
 10
249.85096830835943
 20
298.16502037833902
 11
249.85096830835943
 21
291.26502022336695
  0
LINE
  8
_0-0_
  6
CONTINUOUS
 62
    7
 10
249.85096830835943
 20
291.26502022336695
 11
250.450968212992
 21
290.66502079557154
  0
LINE
  8
_0-0_
  6
CONTINUOUS
 62
    7
 10
250.450968212992
 20
290.66502079557154
 11
259.25096840372686
 21
290.66502079557154
  0
LINE
  8
_0-0_
  6
CONTINUOUS
 62
    7
 10
259.25096840372686
 20
290.66502079557154
 11
259.85096830835943
 21
291.26502022336695
  0
LINE
  8
_0-0_
  6
CONTINUOUS
 62
    7
 10
259.85096830835943
 20
291.26502022336695
 11
249.85096830835943
 21
291.26502022336695
  0
LINE
  8
_0-0_
  6
CONTINUOUS
 62
    7
 10
250.47596830835943
 20
291.26502022336695
 11
250.47596830835943
 21
296.66502031873438
  0
LINE
  8
_0-0_
  6
CONTINUOUS
 62
    7
 10
249.85096830835943
 20
296.66502031873438
 11
259.85096830835943
 21
296.66502031873438
  0
LINE
  8
_0-0_
  6
CONTINUOUS
 62
    7
 10
261.29096836557989
 20
298.16502037833902
 11
261.29096836557989
 21
299.10502037595484
  0
LINE
  8
_0-0_
  6
CONTINUOUS
 62
    7
 10
254.41795561423902
 20
298.16502037833902
 11
255.28398100247983
 21
296.66502031873438
  0
LINE
  8
_0-0_
  6
CONTINUOUS
 62
    7
 10
252.97596830835943
 20
296.66502031873438
 11
252.97596830835943
 21
291.26502022336695
  0
LINE
  8
_0-0_
  6
CONTINUOUS
 62
    7
 10
252.35096830835943
 20
291.26502022336695
 11
252.35096830835943
 21
296.66502031873438
  0
LINE
  8
_0-0_
  6
CONTINUOUS
 62
    7
 10
251.72596830835943
 20
296.66502031873438
 11
251.72596830835943
 21
291.26502022336695
  0
LINE
  8
_0-0_
  6
CONTINUOUS
 62
    7
 10
251.10096830835943
 20
291.26502022336695
 11
251.10096830835943
 21
296.66502031873438
  0
LINE
  8
_0-0_
  6
CONTINUOUS
 62
    7
 10
236.55807508954609
 20
314.10502037595484
 11
236.55807508954609
 21
299.10502037595484
  0
LINE
  8
_0-0_
  6
CONTINUOUS
 62
    7
 10
300.41448130325267
 20
287.46549210327044
 11
300.41448130325267
 21
297.7445473050318
  0
ARC
  8
_0-0_
  6
CONTINUOUS
 62
    7
 10
286.55807508954609
 20
227.10502037595484
 40
12
 50
14.477512185929864
 51
48.189685104221027
  0
ARC
  8
_0-0_
  6
CONTINUOUS
 62
    7
 10
286.55807508954609
 20
227.10502037595484
 40
12
 50
131.81031489577896
 51
165.52248781407013
  0
LINE
  8
_0-0_
  6
CONTINUOUS
 62
    7
 10
293.48627740730944
 20
241.46549370273681
 11
295.01150225516858
 21
240.52009481598657
  0
LINE
  8
_0-0_
  6
CONTINUOUS
 62
    7
 10
295.01150225516858
 20
240.52009481598657
 11
296.59563890735336
 21
240.11876369335198
  0
LINE
  8
_0-0_
  6
CONTINUOUS
 62
    7
 10
296.59563890735336
 20
240.11876369335198
 11
298.19055417329901
 21
240.27369457791087
  0
LINE
  8
_0-0_
  6
CONTINUOUS
 62
    7
 10
298.19055417329901
 20
240.27369457791087
 11
299.7477873597158
 21
240.98017997313474
  0
LINE
  8
_0-0_
  6
CONTINUOUS
 62
    7
 10
299.7477873597158
 20
240.98017997313474
 11
300.41447935797822
 21
241.46549185764502
  0
LINE
  8
_0-0_
  6
CONTINUOUS
 62
    7
 10
272.70166856636706
 20
241.46549370273681
 11
274.2268934142262
 21
240.52009481598657
  0
LINE
  8
_0-0_
  6
CONTINUOUS
 62
    7
 10
274.2268934142262
 20
240.52009481598657
 11
275.81103006641098
 21
240.11876369335198
  0
LINE
  8
_0-0_
  6
CONTINUOUS
 62
    7
 10
275.81103006641098
 20
240.11876369335198
 11
277.40594533235662
 21
240.27369457791087
  0
LINE
  8
_0-0_
  6
CONTINUOUS
 62
    7
 10
277.40594533235662
 20
240.27369457791087
 11
278.96317851877342
 21
240.98017997313474
  0
LINE
  8
_0-0_
  6
CONTINUOUS
 62
    7
 10
278.96317851877342
 20
240.98017997313474
 11
279.62987051703584
 21
241.46549185764502
  0
ARC
  8
_0-0_
  6
CONTINUOUS
 62
    7
 10
286.55807509139964
 20
258.42619404386255
 40
18.321172714233398
 50
247.78068542480463
 51
292.21929931640619
  0
ARC
  8
_0-0_
  6
CONTINUOUS
 62
    7
 10
286.55807509139964
 20
280.78384670804712
 40
18.321172714233398
 50
67.780689151566392
 51
112.21931084843362
  0
LINE
  8
_0-0_
  6
CONTINUOUS
 62
    7
 10
300.41448130325261
 20
297.74454730503169
 11
298.88925643793669
 21
298.68994607912867
  0
LINE
  8
_0-0_
  6
CONTINUOUS
 62
    7
 10
298.88925643793669
 20
298.68994607912867
 11
297.30511977834135
 21
299.09127708475887
  0
LINE
  8
_0-0_
  6
CONTINUOUS
 62
    7
 10
297.30511977834135
 20
299.09127708475887
 11
295.71020451525652
 21
298.93634608239944
  0
LINE
  8
_0-0_
  6
CONTINUOUS
 62
    7
 10
295.71020451525652
 20
298.93634608239944
 11
294.15297134188495
 21
298.2298605721582
  0
LINE
  8
_0-0_
  6
CONTINUOUS
 62
    7
 10
294.15297134188495
 20
298.2298605721582
 11
293.48627740730944
 21
297.74454704917292
  0
LINE
  8
_0-0_
  6
CONTINUOUS
 62
    7
 10
279.62987051703584
 20
297.74454889426465
 11
278.10464554328934
 21
298.68994696863098
  0
LINE
  8
_0-0_
  6
CONTINUOUS
 62
    7
 10
278.10464554328934
 20
298.68994696863098
 11
276.52050883766412
 21
299.09127724750334
  0
LINE
  8
_0-0_
  6
CONTINUOUS
 62
    7
 10
276.52050883766412
 20
299.09127724750334
 11
274.92559359234883
 21
298.93634551344121
  0
LINE
  8
_0-0_
  6
CONTINUOUS
 62
    7
 10
274.92559359234883
 20
298.93634551344121
 11
273.3683605000063
 21
298.22985928878478
  0
LINE
  8
_0-0_
  6
CONTINUOUS
 62
    7
 10
273.3683605000063
 20
298.22985928878478
 11
272.7016688795465
 21
297.74454730503157
  0
LINE
  8
_0-0_
  6
CONTINUOUS
 62
    7
 10
293.48627740730944
 20
287.46549370458854
 11
295.01150225516858
 21
286.5200948178383
  0
LINE
  8
_0-0_
  6
CONTINUOUS
 62
    7
 10
295.01150225516858
 20
286.5200948178383
 11
296.59563890735336
 21
286.11876369520371
  0
LINE
  8
_0-0_
  6
CONTINUOUS
 62
    7
 10
296.59563890735336
 20
286.11876369520371
 11
298.19055417329901
 21
286.2736945797626
  0
LINE
  8
_0-0_
  6
CONTINUOUS
 62
    7
 10
298.19055417329901
 20
286.2736945797626
 11
299.7477873597158
 21
286.98017997498647
  0
LINE
  8
_0-0_
  6
CONTINUOUS
 62
    7
 10
299.7477873597158
 20
286.98017997498647
 11
300.41447935797822
 21
287.46549185949675
  0
LINE
  8
_0-0_
  6
CONTINUOUS
 62
    7
 10
272.70166856636706
 20
287.46549370458854
 11
274.2268934142262
 21
286.5200948178383
  0
LINE
  8
_0-0_
  6
CONTINUOUS
 62
    7
 10
274.2268934142262
 20
286.5200948178383
 11
275.81103006641098
 21
286.11876369520371
  0
LINE
  8
_0-0_
  6
CONTINUOUS
 62
    7
 10
275.81103006641098
 20
286.11876369520371
 11
277.40594533235662
 21
286.2736945797626
  0
LINE
  8
_0-0_
  6
CONTINUOUS
 62
    7
 10
277.40594533235662
 20
286.2736945797626
 11
278.96317851877342
 21
286.98017997498647
  0
LINE
  8
_0-0_
  6
CONTINUOUS
 62
    7
 10
278.96317851877342
 20
286.98017997498647
 11
279.62987051703584
 21
287.46549185949675
  0
ARC
  8
_0-0_
  6
CONTINUOUS
 62
    7
 10
286.55807509139964
 20
304.42619404571428
 40
18.321172714233398
 50
247.78068542480463
 51
292.21929931640619
  0
ARC
  8
_0-0_
  6
CONTINUOUS
 62
    7
 10
347.05807508954609
 20
237.60502037595484
 40
32.499999999999986
 50
87.698542921362574
 51
358.81215746833811
  0
ARC
  8
_0-0_
  6
CONTINUOUS
 62
    7
 10
347.05807508954609
 20
237.60502037595484
 40
15
 50
122.51361463000015
 51
280.14554443389676
  0
ARC
  8
_0-0_
  6
CONTINUOUS
 62
    7
 10
343.83468352423921
 20
266.14273062394091
 40
6
 50
344.13883118963372
 51
80.536854608056856
  0
ARC
  8
_0-0_
  6
CONTINUOUS
 62
    7
 10
325.5580750914433
 20
271.33557032820931
 40
24.999999999999943
 50
302.51361463000001
 51
344.13883118963389
  0
ARC
  8
_0-0_
  6
CONTINUOUS
 62
    7
 10
344.55807508954609
 20
279.10502037595484
 40
6
 50
90
 51
180
  0
ARC
  8
_0-0_
  6
CONTINUOUS
 62
    7
 10
338.55807508954609
 20
285.10502037595484
 40
63.254533465779254
 50
280.14554443389653
 51
350.90386635813945
  0
ARC
  8
_0-0_
  6
CONTINUOUS
 62
    7
 10
397.05807508954609
 20
287.10502037585479
 40
1.9999999998999982
 50
270
 51
0
  0
ARC
  8
_0-0_
  6
CONTINUOUS
 62
    7
 10
347.05807508954609
 20
287.10502037585479
 40
1.9999999998999982
 50
180
 51
270
  0
ARC
  8
_0-0_
  6
CONTINUOUS
 62
    7
 10
399.55807508954609
 20
279.10502037595484
 40
6
 50
0
 51
90
  0
LINE
  8
_0-0_
  6
CONTINUOUS
 62
    7
 10
400.76627902204541
 20
290.6605759314549
 11
400.31706997572451
 21
291.66900517086401
  0
LINE
  8
_0-0_
  6
CONTINUOUS
 62
    7
 10
400.31706997572451
 20
291.66900517086401
 11
399.67768453699136
 21
292.59277691994401
  0
LINE
  8
_0-0_
  6
CONTINUOUS
 62
    7
 10
399.67768453699136
 20
292.59277691994401
 11
398.86755010885719
 21
293.4038228415501
  0
LINE
  8
_0-0_
  6
CONTINUOUS
 62
    7
 10
398.86755010885719
 20
293.4038228415501
 11
397.91128221597296
 21
294.07749971576345
  0
LINE
  8
_0-0_
  6
CONTINUOUS
 62
    7
 10
397.91128221597296
 20
294.07749971576345
 11
396.83793657436922
 21
294.59333821165791
  0
LINE
  8
_0-0_
  6
CONTINUOUS
 62
    7
 10
396.83793657436922
 20
294.59333821165791
 11
395.68012624822688
 21
294.93566483756263
  0
LINE
  8
_0-0_
  6
CONTINUOUS
 62
    7
 10
395.68012624822688
 20
294.93566483756263
 11
394.47303071842549
 21
295.09407817217516
  0
LINE
  8
_0-0_
  6
CONTINUOUS
 62
    7
 10
394.47303071842549
 20
295.09407817217516
 11
394.05807508954609
 21
295.10502037595484
  0
LINE
  8
_0-0_
  6
CONTINUOUS
 62
    7
 10
400.76627902202853
 20
290.66057593145416
 11
400.7953603902377
 21
289.8706152753673
  0
LINE
  8
_0-0_
  6
CONTINUOUS
 62
    7
 10
400.7953603902377
 20
289.8706152753673
 11
400.97832207901922
 21
289.0971447203172
  0
LINE
  8
_0-0_
  6
CONTINUOUS
 62
    7
 10
400.97832207901922
 20
289.0971447203172
 11
401.05807508954609
 21
288.88279815365416
  0
LINE
  8
_0-0_
  6
CONTINUOUS
 62
    7
 10
343.05807508954609
 20
288.88279815365416
 11
343.28412190778749
 21
289.64721492362679
  0
LINE
  8
_0-0_
  6
CONTINUOUS
 62
    7
 10
343.28412190778749
 20
289.64721492362679
 11
343.35740254046794
 21
290.43490970127777
  0
LINE
  8
_0-0_
  6
CONTINUOUS
 62
    7
 10
343.35740254046794
 20
290.43490970127777
 11
343.34987115706366
 21
290.66057593145416
  0
LINE
  8
_0-0_
  6
CONTINUOUS
 62
    7
 10
344.69576398771329
 20
292.88236550286558
 11
343.9958972630551
 21
291.99390926480487
  0
LINE
  8
_0-0_
  6
CONTINUOUS
 62
    7
 10
343.9958972630551
 20
291.99390926480487
 11
343.48022674404478
 21
291.01092348993012
  0
LINE
  8
_0-0_
  6
CONTINUOUS
 62
    7
 10
343.48022674404478
 20
291.01092348993012
 11
343.34987115704678
 21
290.6605759314549
  0
CIRCLE
  8
_0-0_
  6
CONTINUOUS
 62
    7
 10
347.05807508954609
 20
237.60502037595484
 40
8.5
  0
ARC
  8
_0-0_
  6
CONTINUOUS
 62
    7
 10
347.05807508954609
 20
237.60502037595484
 40
26.499999999999986
 50
84.846905317308256
 51
347.84722568943033
  0
ARC
  8
_0-0_
  6
CONTINUOUS
 62
    7
 10
347.05807508954609
 20
237.60502037595484
 40
24.999999999999986
 50
85.643716984156185
 51
344.41035184164332
  0
ARC
  8
_0-0_
  6
CONTINUOUS
 62
    7
 10
347.05807508954609
 20
237.60502037595484
 40
20.999999999999986
 50
89.956682792545706
 51
332.72158301459029
  0
LINE
  8
_0-0_
  6
CONTINUOUS
 62
    7
 10
801.480539388691
 20
299.10502037595484
 11
801.480539388691
 21
314.10502037595484
  0
LINE
  8
_0-0_
  6
CONTINUOUS
 62
    7
 10
801.480539388691
 20
314.10502037595484
 11
951.480539388691
 21
314.10502037595484
  0
LINE
  8
_0-0_
  6
CONTINUOUS
 62
    7
 10
951.480539388691
 20
314.10502037595484
 11
951.480539388691
 21
299.10502037595484
  0
LINE
  8
_0-0_
  6
CONTINUOUS
 62
    7
 10
951.480539388691
 20
299.10502037595484
 11
801.480539388691
 21
299.10502037595484
  0
LINE
  8
_0-0_
  6
CONTINUOUS
 62
    7
 10
883.480539388691
 20
299.10502037595484
 11
950.480539388691
 21
299.10502037595484
  0
LINE
  8
_0-0_
  6
CONTINUOUS
 62
    7
 10
950.480539388691
 20
299.10502037595484
 11
950.480539388691
 21
295.10502037595484
  0
LINE
  8
_0-0_
  6
CONTINUOUS
 62
    7
 10
950.480539388691
 20
295.10502037595484
 11
883.480539388691
 21
295.10502037595484
  0
LINE
  8
_0-0_
  6
CONTINUOUS
 62
    7
 10
883.480539388691
 20
295.10502037595484
 11
883.480539388691
 21
299.10502037595484
  0
LINE
  8
_0-0_
  6
CONTINUOUS
 62
    7
 10
888.2723354561914
 20
290.6605759314541
 11
945.6887433211906
 21
290.6605759314541
  0
LINE
  8
_0-0_
  6
CONTINUOUS
 62
    7
 10
945.980539388691
 20
288.8827981536549
 11
887.980539388691
 21
288.8827981536549
  0
LINE
  8
_0-0_
  6
CONTINUOUS
 62
    7
 10
887.980539388691
 20
288.8827981536549
 11
887.980539388691
 21
287.10502037585479
  0
LINE
  8
_0-0_
  6
CONTINUOUS
 62
    7
 10
887.980539388691
 20
287.10502037585479
 11
945.980539388691
 21
287.10502037585479
  0
LINE
  8
_0-0_
  6
CONTINUOUS
 62
    7
 10
945.980539388691
 20
287.10502037585479
 11
945.980539388691
 21
288.8827981536549
  0
LINE
  8
_0-0_
  6
CONTINUOUS
 62
    7
 10
944.480539388691
 20
285.10502037595484
 11
889.480539388691
 21
285.10502037595484
  0
LINE
  8
_0-0_
  6
CONTINUOUS
 62
    7
 10
883.480539388691
 20
279.10502037595484
 11
883.480539388691
 21
234.77984366654596
  0
LINE
  8
_0-0_
  6
CONTINUOUS
 62
    7
 10
955.480539388691
 20
241.9050205666897
 11
951.480539388691
 21
241.9050205666897
  0
LINE
  8
_0-0_
  6
CONTINUOUS
 62
    7
 10
951.480539388691
 20
242.60502037595484
 11
954.78053862575155
 21
242.60502037595484
  0
LINE
  8
_0-0_
  6
CONTINUOUS
 62
    7
 10
954.78053862575155
 20
242.60502037595484
 11
954.78053862575155
 21
232.60502037595484
  0
LINE
  8
_0-0_
  6
CONTINUOUS
 62
    7
 10
954.78053862575155
 20
232.60502037595484
 11
951.480539388691
 21
232.60502037595484
  0
LINE
  8
_0-0_
  6
CONTINUOUS
 62
    7
 10
951.480539388691
 20
233.30502018521997
 11
955.480539388691
 21
233.30502018521997
  0
LINE
  8
_0-0_
  6
CONTINUOUS
 62
    7
 10
955.480539388691
 20
233.30502018521997
 11
954.78053862575155
 21
232.60502037595484
  0
LINE
  8
_0-0_
  6
CONTINUOUS
 62
    7
 10
955.480539388691
 20
233.30502018521997
 11
955.480539388691
 21
241.9050205666897
  0
LINE
  8
_0-0_
  6
CONTINUOUS
 62
    7
 10
955.480539388691
 20
241.9050205666897
 11
954.78053862575155
 21
242.60502037595484
  0
LINE
  8
_0-0_
  6
CONTINUOUS
 62
    7
 10
949.08564638869132
 20
242.50502037595538
 11
944.2310948886917
 21
242.50502037595538
  0
LINE
  8
_0-0_
  6
CONTINUOUS
 62
    7
 10
943.480539388691
 20
246.10502037595484
 11
944.2310948886917
 21
247.40502037595502
  0
LINE
  8
_0-0_
  6
CONTINUOUS
 62
    7
 10
944.2310948886917
 20
247.40502037595502
 11
949.08564638869132
 21
247.40502037595502
  0
LINE
  8
_0-0_
  6
CONTINUOUS
 62
    7
 10
949.08564638869132
 20
247.40502037595502
 11
949.980539388691
 21
245.85502037595484
  0
LINE
  8
_0-0_
  6
CONTINUOUS
 62
    7
 10
949.980539388691
 20
245.85502037595484
 11
950.730539388691
 21
245.85502037595484
  0
LINE
  8
_0-0_
  6
CONTINUOUS
 62
    7
 10
950.480539388691
 20
245.85502037595484
 11
950.480539388691
 21
279.10502037595484
  0
LINE
  8
_0-0_
  6
CONTINUOUS
 62
    7
 10
938.28053938869118
 20
270.60484343081293
 11
938.28053938869118
 21
266.60502037595484
  0
LINE
  8
_0-0_
  6
CONTINUOUS
 62
    7
 10
938.54848858112211
 20
265.60502037595484
 11
940.01259019625934
 21
263.06912199109206
  0
LINE
  8
_0-0_
  6
CONTINUOUS
 62
    7
 10
940.28053938869118
 20
262.06912199109206
 11
940.28053938869118
 21
222.10502037595484
  0
LINE
  8
_0-0_
  6
CONTINUOUS
 62
    7
 10
940.28053938869118
 20
222.10502037595484
 11
943.480539388691
 21
222.10502037595484
  0
LINE
  8
_0-0_
  6
CONTINUOUS
 62
    7
 10
943.480539388691
 20
222.10502037595484
 11
943.480539388691
 21
262.06912199109206
  0
LINE
  8
_0-0_
  6
CONTINUOUS
 62
    7
 10
943.21259019626007
 20
263.06912199109206
 11
940.28053938869118
 21
268.14758296017476
  0
LINE
  8
_0-0_
  6
CONTINUOUS
 62
    7
 10
940.28053938869118
 20
268.14758296017476
 11
940.28053938869118
 21
268.5476657518509
  0
LINE
  8
_0-0_
  6
CONTINUOUS
 62
    7
 10
936.980539388691
 20
267.10502037595484
 11
936.980539388691
 21
208.10502037595484
  0
LINE
  8
_0-0_
  6
CONTINUOUS
 62
    7
 10
933.980539388691
 20
205.10502037595461
 11
899.980539388691
 21
205.10502037595461
  0
LINE
  8
_0-0_
  6
CONTINUOUS
 62
    7
 10
896.980539388691
 20
208.10502037595484
 11
896.980539388691
 21
267.10502037595484
  0
LINE
  8
_0-0_
  6
CONTINUOUS
 62
    7
 10
895.68053938869082
 20
266.60502037595484
 11
895.68053938869082
 21
270.60484343081293
  0
LINE
  8
_0-0_
  6
CONTINUOUS
 62
    7
 10
893.68053938869082
 20
270.10502037595484
 11
893.68053938869082
 21
268.68348134503753
  0
LINE
  8
_0-0_
  6
CONTINUOUS
 62
    7
 10
893.41259019625988
 20
267.68348134503753
 11
890.74848858112193
 21
263.06912199109206
  0
LINE
  8
_0-0_
  6
CONTINUOUS
 62
    7
 10
890.480539388691
 20
262.06912199109206
 11
890.480539388691
 21
222.10502037595484
  0
LINE
  8
_0-0_
  6
CONTINUOUS
 62
    7
 10
890.480539388691
 20
222.10502037595484
 11
885.47702109904196
 21
228.7845375870163
  0
LINE
  8
_0-0_
  6
CONTINUOUS
 62
    7
 10
889.480539388691
 20
229.10502037682522
 11
889.480539388691
 21
246.10502037595484
  0
LINE
  8
_0-0_
  6
CONTINUOUS
 62
    7
 10
889.480539388691
 20
246.10502037595484
 11
890.480539388691
 21
246.10502037595484
  0
LINE
  8
_0-0_
  6
CONTINUOUS
 62
    7
 10
893.68053938869082
 20
247.60502037595484
 11
895.38053938869155
 21
247.60502037595484
  0
LINE
  8
_0-0_
  6
CONTINUOUS
 62
    7
 10
895.38053938869155
 20
257.10502037595484
 11
896.980539388691
 21
258.60502037595484
  0
LINE
  8
_0-0_
  6
CONTINUOUS
 62
    7
 10
895.38053938869155
 20
257.10502037595484
 11
895.38053938869155
 21
218.10502037595484
  0
LINE
  8
_0-0_
  6
CONTINUOUS
 62
    7
 10
895.38053938869155
 20
218.10502037595484
 11
896.980539388691
 21
216.60502037595484
  0
LINE
  8
_0-0_
  6
CONTINUOUS
 62
    7
 10
893.68053938869082
 20
222.10502037595484
 11
893.68053938869082
 21
262.06912199109206
  0
LINE
  8
_0-0_
  6
CONTINUOUS
 62
    7
 10
893.94848858112266
 20
263.06912199109206
 11
895.41259019625988
 21
265.60502037595484
  0
LINE
  8
_0-0_
  6
CONTINUOUS
 62
    7
 10
899.980539388691
 20
270.10502037595484
 11
933.980539388691
 21
270.10502037595484
  0
LINE
  8
_0-0_
  6
CONTINUOUS
 62
    7
 10
936.980539388691
 20
258.60502037595484
 11
938.58053938869045
 21
257.10502037595484
  0
LINE
  8
_0-0_
  6
CONTINUOUS
 62
    7
 10
938.58053938869045
 20
257.10502037595484
 11
938.58053938869045
 21
218.10502037595484
  0
LINE
  8
_0-0_
  6
CONTINUOUS
 62
    7
 10
938.58053938869045
 20
218.10502037595484
 11
936.980539388691
 21
216.60502037595484
  0
LINE
  8
_0-0_
  6
CONTINUOUS
 62
    7
 10
943.480539388691
 20
222.10502037595484
 11
947.75031718097955
 21
227.80502037595465
  0
LINE
  8
_0-0_
  6
CONTINUOUS
 62
    7
 10
949.08564638869132
 20
227.80502037595465
 11
949.980539388691
 21
229.35502037595484
  0
LINE
  8
_0-0_
  6
CONTINUOUS
 62
    7
 10
949.980539388691
 20
229.35502037595484
 11
950.730539388691
 21
229.35502037595484
  0
LINE
  8
_0-0_
  6
CONTINUOUS
 62
    7
 10
951.480539388691
 20
230.10502037595484
 11
951.480539388691
 21
245.10502037595484
  0
LINE
  8
_0-0_
  6
CONTINUOUS
 62
    7
 10
940.28053938869118
 20
247.60502037595484
 11
938.58053938869045
 21
247.60502037595484
  0
LINE
  8
_0-0_
  6
CONTINUOUS
 62
    7
 10
944.2310948886917
 20
232.7050203759552
 11
949.08564638869132
 21
232.7050203759552
  0
LINE
  8
_0-0_
  6
CONTINUOUS
 62
    7
 10
949.08564638869132
 20
227.80502037595465
 11
944.2310948886917
 21
227.80502037595465
  0
LINE
  8
_0-0_
  6
CONTINUOUS
 62
    7
 10
944.2310948886917
 20
227.80502037595465
 11
943.480539388691
 21
229.10502037595484
  0
LINE
  8
_0-0_
  6
CONTINUOUS
 62
    7
 10
940.28053938869118
 20
227.60502037595484
 11
938.58053938869045
 21
227.60502037595484
  0
LINE
  8
_0-0_
  6
CONTINUOUS
 62
    7
 10
895.38053938869155
 20
227.60502037595484
 11
893.68053938869082
 21
227.60502037595484
  0
LINE
  8
_0-0_
  6
CONTINUOUS
 62
    7
 10
890.480539388691
 20
229.10502037682522
 11
889.480539388691
 21
229.10502037682522
  0
LINE
  8
_0-0_
  6
CONTINUOUS
 62
    7
 10
890.480539388691
 20
222.10502037595484
 11
893.68053938869082
 21
222.10502037595484
  0
ARC
  8
_0-0_
  6
CONTINUOUS
 62
    7
 10
892.480539388691
 20
262.06912199109206
 40
2
 50
150.00000000000009
 51
180
  0
ARC
  8
_0-0_
  6
CONTINUOUS
 62
    7
 10
895.68053938869082
 20
262.06912199109206
 40
2
 50
149.99999999999855
 51
180
  0
ARC
  8
_0-0_
  6
CONTINUOUS
 62
    7
 10
893.68053938869082
 20
266.60502037595484
 40
2
 50
329.99999999999915
 51
0.000000000000019
  0
ARC
  8
_0-0_
  6
CONTINUOUS
 62
    7
 10
891.68053938869082
 20
268.68348134503753
 40
2
 50
330.00000000000011
 51
0
  0
ARC
  8
_0-0_
  6
CONTINUOUS
 62
    7
 10
940.28053938869118
 20
266.60502037595484
 40
2
 50
180
 51
210.00000000000006
  0
ARC
  8
_0-0_
  6
CONTINUOUS
 62
    7
 10
938.28053938869118
 20
262.06912199109206
 40
2
 50
0
 51
29.999999999999915
  0
ARC
  8
_0-0_
  6
CONTINUOUS
 62
    7
 10
941.480539388691
 20
262.06912199109206
 40
2
 50
0
 51
30.00000000000022
  0
ARC
  8
_0-0_
  6
CONTINUOUS
 62
    7
 10
938.28053938869118
 20
268.5476657518509
 40
2
 50
0
 51
76.307268958849207
  0
ARC
  8
_0-0_
  6
CONTINUOUS
 62
    7
 10
916.980539388691
 20
181.12335371494783
 40
91.981666661191412
 50
76.307268958851552
 51
104.67354761998524
  0
ARC
  8
_0-0_
  6
CONTINUOUS
 62
    7
 10
893.480539388691
 20
234.77984366654596
 40
10
 50
180
 51
216.83628730845086
  0
ARC
  8
_0-0_
  6
CONTINUOUS
 62
    7
 10
889.480539388691
 20
279.10502037595484
 40
6
 50
90
 51
180
  0
ARC
  8
_0-0_
  6
CONTINUOUS
 62
    7
 10
944.480539388691
 20
279.10502037595484
 40
6
 50
0
 51
90
  0
ARC
  8
_0-0_
  6
CONTINUOUS
 62
    7
 10
891.980539388691
 20
287.10502037585479
 40
1.9999999998999982
 50
180
 51
270
  0
ARC
  8
_0-0_
  6
CONTINUOUS
 62
    7
 10
941.980539388691
 20
287.10502037585479
 40
1.9999999998999982
 50
270
 51
0
  0
LINE
  8
_0-0_
  6
CONTINUOUS
 62
    7
 10
894.980539388691
 20
295.10502037595484
 11
893.76500214502255
 21
295.01049083914074
  0
LINE
  8
_0-0_
  6
CONTINUOUS
 62
    7
 10
893.76500214502255
 20
295.01049083914074
 11
892.58639838541137
 21
294.72977446084025
  0
LINE
  8
_0-0_
  6
CONTINUOUS
 62
    7
 10
892.58639838541137
 20
294.72977446084025
 11
891.480539388691
 21
294.27140066615874
  0
LINE
  8
_0-0_
  6
CONTINUOUS
 62
    7
 10
891.480539388691
 20
294.27140066615874
 11
890.4810261208853
 21
293.64929691089918
  0
LINE
  8
_0-0_
  6
CONTINUOUS
 62
    7
 10
890.4810261208853
 20
293.64929691089918
 11
889.6182282868582
 21
292.88236550286553
  0
LINE
  8
_0-0_
  6
CONTINUOUS
 62
    7
 10
889.6182282868582
 20
292.88236550286553
 11
888.91836156219995
 21
291.99390926480487
  0
LINE
  8
_0-0_
  6
CONTINUOUS
 62
    7
 10
888.91836156219995
 20
291.99390926480487
 11
888.40269104318975
 21
291.01092348993006
  0
LINE
  8
_0-0_
  6
CONTINUOUS
 62
    7
 10
888.40269104318975
 20
291.01092348993006
 11
888.27233545619174
 21
290.6605759314549
  0
LINE
  8
_0-0_
  6
CONTINUOUS
 62
    7
 10
887.980539388691
 20
288.88279815365416
 11
888.20658620693234
 21
289.64721492362679
  0
LINE
  8
_0-0_
  6
CONTINUOUS
 62
    7
 10
888.20658620693234
 20
289.64721492362679
 11
888.27986683961285
 21
290.43490970127777
  0
LINE
  8
_0-0_
  6
CONTINUOUS
 62
    7
 10
888.27986683961285
 20
290.43490970127777
 11
888.27233545620857
 21
290.66057593145416
  0
LINE
  8
_0-0_
  6
CONTINUOUS
 62
    7
 10
945.68874332117343
 20
290.66057593145416
 11
945.71782468938261
 21
289.8706152753673
  0
LINE
  8
_0-0_
  6
CONTINUOUS
 62
    7
 10
945.71782468938261
 20
289.8706152753673
 11
945.90078637816407
 21
289.0971447203172
  0
LINE
  8
_0-0_
  6
CONTINUOUS
 62
    7
 10
945.90078637816407
 20
289.0971447203172
 11
945.980539388691
 21
288.88279815365416
  0
LINE
  8
_0-0_
  6
CONTINUOUS
 62
    7
 10
945.68874332119026
 20
290.6605759314549
 11
945.23953427486947
 21
291.66900517086401
  0
LINE
  8
_0-0_
  6
CONTINUOUS
 62
    7
 10
945.23953427486947
 20
291.66900517086401
 11
944.60014883613633
 21
292.59277691994401
  0
LINE
  8
_0-0_
  6
CONTINUOUS
 62
    7
 10
944.60014883613633
 20
292.59277691994401
 11
943.79001440800209
 21
293.4038228415501
  0
LINE
  8
_0-0_
  6
CONTINUOUS
 62
    7
 10
943.79001440800209
 20
293.4038228415501
 11
942.83374651511792
 21
294.07749971576345
  0
LINE
  8
_0-0_
  6
CONTINUOUS
 62
    7
 10
942.83374651511792
 20
294.07749971576345
 11
941.76040087351407
 21
294.59333821165791
  0
LINE
  8
_0-0_
  6
CONTINUOUS
 62
    7
 10
941.76040087351407
 20
294.59333821165791
 11
940.60259054737173
 21
294.93566483756263
  0
LINE
  8
_0-0_
  6
CONTINUOUS
 62
    7
 10
940.60259054737173
 20
294.93566483756263
 11
939.3954950175704
 21
295.09407817217516
  0
LINE
  8
_0-0_
  6
CONTINUOUS
 62
    7
 10
939.3954950175704
 20
295.09407817217516
 11
938.980539388691
 21
295.10502037595484
  0
ARC
  8
_0-0_
  6
CONTINUOUS
 62
    7
 10
950.730539388691
 20
245.10502037595484
 40
0.75
 50
0
 51
90
  0
ARC
  8
_0-0_
  6
CONTINUOUS
 62
    7
 10
945.00217588869157
 20
245.39037437595539
 40
5
 50
324.75522000000001
 51
5.3321450000002173
  0
ARC
  8
_0-0_
  6
CONTINUOUS
 62
    7
 10
940.00577738869117
 20
238.3150353759554
 40
10
 50
355.92848900000041
 51
24.771376000000082
  0
ARC
  8
_0-0_
  6
CONTINUOUS
 62
    7
 10
945.00217588869157
 20
229.81966637595519
 40
5
 50
354.66785500000015
 51
35.244780000000354
  0
ARC
  8
_0-0_
  6
CONTINUOUS
 62
    7
 10
950.730539388691
 20
230.10502037595484
 40
0.75
 50
270
 51
0
  0
ARC
  8
_0-0_
  6
CONTINUOUS
 62
    7
 10
940.00577738869117
 20
236.89500537595518
 40
10
 50
335.22862400000025
 51
4.071510999999945
  0
ARC
  8
_0-0_
  6
CONTINUOUS
 62
    7
 10
953.43209188869162
 20
238.58817887595501
 40
10
 50
156.94066599999999
 51
174.35779567859217
  0
ARC
  8
_0-0_
  6
CONTINUOUS
 62
    7
 10
953.43209188869162
 20
236.62186187595466
 40
10
 50
185.64220432140786
 51
203.05933399999995
  0
ARC
  8
_0-0_
  6
CONTINUOUS
 62
    7
 10
948.40758488869153
 20
229.95603337595526
 40
5
 50
146.6468829999996
 51
170.20040446175059
  0
ARC
  8
_0-0_
  6
CONTINUOUS
 62
    7
 10
948.40758488869153
 20
245.25400737595533
 40
5
 50
189.79959553824918
 51
213.3531170000004
  0
ARC
  8
_0-0_
  6
CONTINUOUS
 62
    7
 10
896.51178938684018
 20
237.60502037595484
 40
11.031249998148837
 50
129.59775269742644
 51
230.40224729547555
  0
ARC
  8
_0-0_
  6
CONTINUOUS
 62
    7
 10
933.980539388691
 20
208.10502037595484
 40
3
 50
270
 51
0
  0
ARC
  8
_0-0_
  6
CONTINUOUS
 62
    7
 10
899.980539388691
 20
208.10502037595484
 40
3
 50
180
 51
270
  0
ARC
  8
_0-0_
  6
CONTINUOUS
 62
    7
 10
899.980539388691
 20
267.10502037595484
 40
3
 50
90
 51
180
  0
ARC
  8
_0-0_
  6
CONTINUOUS
 62
    7
 10
933.980539388691
 20
267.10502037595484
 40
3
 50
0
 51
90
  0
LINE
  8
_0-0_
  6
CONTINUOUS
 62
    7
 10
802.480539388691
 20
299.10502037595484
 11
802.480539388691
 21
314.10502037595484
  0
LINE
  8
_0-0_
  6
CONTINUOUS
 62
    7
 10
950.480539388691
 20
314.10502037595484
 11
950.480539388691
 21
299.10502037595484
  0
LINE
  8
_0-0_
  6
CONTINUOUS
 62
    7
 10
560.727342489546
 20
314.10502037595484
 11
560.727342489546
 21
299.10502037595484
  0
LINE
  8
_0-0_
  6
CONTINUOUS
 62
    7
 10
560.727342489546
 20
299.10502037595484
 11
745.727342489546
 21
299.10502037595484
  0
LINE
  8
_0-0_
  6
CONTINUOUS
 62
    7
 10
745.727342489546
 20
299.10502037595484
 11
745.727342489546
 21
314.10502037595484
  0
LINE
  8
_0-0_
  6
CONTINUOUS
 62
    7
 10
745.727342489546
 20
314.10502037595484
 11
560.727342489546
 21
314.10502037595484
  0
LINE
  8
_0-0_
  6
CONTINUOUS
 62
    7
 10
561.727342489546
 20
314.10502037595484
 11
561.727342489546
 21
295.10502037595484
  0
LINE
  8
_0-0_
  6
CONTINUOUS
 62
    7
 10
656.727342489546
 20
295.10502037595484
 11
656.727342489546
 21
299.10502037595484
  0
LINE
  8
_0-0_
  6
CONTINUOUS
 62
    7
 10
637.87444932795313
 20
299.10502037595484
 11
637.87444932795313
 21
298.16502037833902
  0
LINE
  8
_0-0_
  6
CONTINUOUS
 62
    7
 10
637.87444932795313
 20
298.16502037833902
 11
624.99444921351221
 21
298.16502037833902
  0
LINE
  8
_0-0_
  6
CONTINUOUS
 62
    7
 10
624.99444921351221
 20
298.16502037833902
 11
624.99444921351221
 21
299.10502037595484
  0
LINE
  8
_0-0_
  6
CONTINUOUS
 62
    7
 10
626.43444927073267
 20
298.16502037833902
 11
626.43444927073267
 21
291.26502022336695
  0
LINE
  8
_0-0_
  6
CONTINUOUS
 62
    7
 10
626.43444927073267
 20
291.26502022336695
 11
627.03444917536524
 21
290.66502079557154
  0
LINE
  8
_0-0_
  6
CONTINUOUS
 62
    7
 10
627.03444917536524
 20
290.66502079557154
 11
635.8344493661001
 21
290.66502079557154
  0
LINE
  8
_0-0_
  6
CONTINUOUS
 62
    7
 10
635.8344493661001
 20
290.66502079557154
 11
636.43444927073267
 21
291.26502022336695
  0
LINE
  8
_0-0_
  6
CONTINUOUS
 62
    7
 10
636.43444927073267
 20
291.26502022336695
 11
626.43444927073267
 21
291.26502022336695
  0
LINE
  8
_0-0_
  6
CONTINUOUS
 62
    7
 10
626.43444927073267
 20
296.66502031873438
 11
636.43444927073267
 21
296.66502031873438
  0
LINE
  8
_0-0_
  6
CONTINUOUS
 62
    7
 10
635.80944927073267
 20
296.66502031873438
 11
635.80944927073267
 21
291.26502022336695
  0
LINE
  8
_0-0_
  6
CONTINUOUS
 62
    7
 10
636.43444927073267
 20
291.26502022336695
 11
636.43444927073267
 21
298.16502037833902
  0
LINE
  8
_0-0_
  6
CONTINUOUS
 62
    7
 10
635.18444927073267
 20
296.66502031873438
 11
635.18444927073267
 21
291.26502022336695
  0
LINE
  8
_0-0_
  6
CONTINUOUS
 62
    7
 10
634.55944927073267
 20
291.26502022336695
 11
634.55944927073267
 21
296.66502031873438
  0
LINE
  8
_0-0_
  6
CONTINUOUS
 62
    7
 10
633.93444927073267
 20
296.66502031873438
 11
633.93444927073267
 21
291.26502022336695
  0
LINE
  8
_0-0_
  6
CONTINUOUS
 62
    7
 10
633.30944927073267
 20
291.26502022336695
 11
633.30944927073267
 21
296.66502031873438
  0
LINE
  8
_0-0_
  6
CONTINUOUS
 62
    7
 10
631.00143657661226
 20
296.66502031873438
 11
631.86746196485308
 21
298.16502037833902
  0
LINE
  8
_0-0_
  6
CONTINUOUS
 62
    7
 10
637.9355464220456
 20
290.6605759314541
 11
580.5191385570464
 21
290.6605759314541
  0
LINE
  8
_0-0_
  6
CONTINUOUS
 62
    7
 10
580.227342489546
 20
288.8827981536549
 11
638.227342489546
 21
288.8827981536549
  0
LINE
  8
_0-0_
  6
CONTINUOUS
 62
    7
 10
638.227342489546
 20
288.8827981536549
 11
638.227342489546
 21
287.10502037585479
  0
LINE
  8
_0-0_
  6
CONTINUOUS
 62
    7
 10
638.227342489546
 20
287.10502037585479
 11
580.227342489546
 21
287.10502037585479
  0
LINE
  8
_0-0_
  6
CONTINUOUS
 62
    7
 10
580.227342489546
 20
287.10502037585479
 11
580.227342489546
 21
288.8827981536549
  0
LINE
  8
_0-0_
  6
CONTINUOUS
 62
    7
 10
581.727342489546
 20
285.10502037595484
 11
636.727342489546
 21
285.10502037595484
  0
LINE
  8
_0-0_
  6
CONTINUOUS
 62
    7
 10
642.727342489546
 20
279.10502037595484
 11
642.727342489546
 21
273.10502037595484
  0
LINE
  8
_0-0_
  6
CONTINUOUS
 62
    7
 10
642.727342489546
 20
273.10502037595484
 11
636.46425510039751
 21
272.06107999453502
  0
LINE
  8
_0-0_
  6
CONTINUOUS
 62
    7
 10
664.727342489546
 20
206.10502037595461
 11
724.727342489546
 21
206.10502037595461
  0
LINE
  8
_0-0_
  6
CONTINUOUS
 62
    7
 10
724.727342489546
 20
206.10502037595461
 11
724.727342489546
 21
217.90502037595456
  0
LINE
  8
_0-0_
  6
CONTINUOUS
 62
    7
 10
724.727342489546
 20
217.90502037595456
 11
712.52734248954528
 21
230.10502037595484
  0
LINE
  8
_0-0_
  6
CONTINUOUS
 62
    7
 10
712.52734248954528
 20
230.10502037595484
 11
676.92734248954582
 21
230.10502037595484
  0
LINE
  8
_0-0_
  6
CONTINUOUS
 62
    7
 10
676.92734248954582
 20
230.10502037595484
 11
664.727342489546
 21
217.90502037595456
  0
LINE
  8
_0-0_
  6
CONTINUOUS
 62
    7
 10
664.727342489546
 20
217.90502037595456
 11
724.727342489546
 21
217.90502037595456
  0
LINE
  8
_0-0_
  6
CONTINUOUS
 62
    7
 10
720.727342489546
 20
206.10502037595461
 11
720.727342489546
 21
205.10502037595461
  0
LINE
  8
_0-0_
  6
CONTINUOUS
 62
    7
 10
720.727342489546
 20
205.10502037595461
 11
668.727342489546
 21
205.10502037595461
  0
LINE
  8
_0-0_
  6
CONTINUOUS
 62
    7
 10
668.727342489546
 20
205.10502037595461
 11
668.727342489546
 21
206.10502037595461
  0
LINE
  8
_0-0_
  6
CONTINUOUS
 62
    7
 10
664.727342489546
 20
206.10502037595461
 11
664.727342489546
 21
217.90502037595456
  0
LINE
  8
_0-0_
  6
CONTINUOUS
 62
    7
 10
577.87444932795313
 20
299.10502037595484
 11
577.87444932795313
 21
298.16502037833902
  0
LINE
  8
_0-0_
  6
CONTINUOUS
 62
    7
 10
577.87444932795313
 20
298.16502037833902
 11
564.99444921351221
 21
298.16502037833902
  0
LINE
  8
_0-0_
  6
CONTINUOUS
 62
    7
 10
564.99444921351221
 20
298.16502037833902
 11
564.99444921351221
 21
299.10502037595484
  0
LINE
  8
_0-0_
  6
CONTINUOUS
 62
    7
 10
566.43444927073267
 20
298.16502037833902
 11
566.43444927073267
 21
291.26502022336695
  0
LINE
  8
_0-0_
  6
CONTINUOUS
 62
    7
 10
566.43444927073267
 20
291.26502022336695
 11
567.03444917536524
 21
290.66502079557154
  0
LINE
  8
_0-0_
  6
CONTINUOUS
 62
    7
 10
567.03444917536524
 20
290.66502079557154
 11
575.8344493661001
 21
290.66502079557154
  0
LINE
  8
_0-0_
  6
CONTINUOUS
 62
    7
 10
575.8344493661001
 20
290.66502079557154
 11
576.43444927073267
 21
291.26502022336695
  0
LINE
  8
_0-0_
  6
CONTINUOUS
 62
    7
 10
576.43444927073267
 20
291.26502022336695
 11
576.43444927073267
 21
298.16502037833902
  0
LINE
  8
_0-0_
  6
CONTINUOUS
 62
    7
 10
576.43444927073267
 20
296.66502031873438
 11
566.43444927073267
 21
296.66502031873438
  0
LINE
  8
_0-0_
  6
CONTINUOUS
 62
    7
 10
571.00143657661226
 20
296.66502031873438
 11
571.86746196485308
 21
298.16502037833902
  0
LINE
  8
_0-0_
  6
CONTINUOUS
 62
    7
 10
573.30944927073267
 20
296.66502031873438
 11
573.30944927073267
 21
291.26502022336695
  0
LINE
  8
_0-0_
  6
CONTINUOUS
 62
    7
 10
573.93444927073267
 20
291.26502022336695
 11
573.93444927073267
 21
296.66502031873438
  0
LINE
  8
_0-0_
  6
CONTINUOUS
 62
    7
 10
574.55944927073267
 20
296.66502031873438
 11
574.55944927073267
 21
291.26502022336695
  0
LINE
  8
_0-0_
  6
CONTINUOUS
 62
    7
 10
575.18444927073267
 20
291.26502022336695
 11
575.18444927073267
 21
296.66502031873438
  0
LINE
  8
_0-0_
  6
CONTINUOUS
 62
    7
 10
575.80944927073267
 20
296.66502031873438
 11
575.80944927073267
 21
291.26502022336695
  0
LINE
  8
_0-0_
  6
CONTINUOUS
 62
    7
 10
576.43444927073267
 20
291.26502022336695
 11
566.43444927073267
 21
291.26502022336695
  0
LINE
  8
_0-0_
  6
CONTINUOUS
 62
    7
 10
575.727342489546
 20
279.10502037595484
 11
580.26826785684477
 21
275.10502037595484
  0
LINE
  8
_0-0_
  6
CONTINUOUS
 62
    7
 10
628.32822977515696
 20
267.75440332315407
 11
621.22404022671105
 21
230.65474679238446
  0
LINE
  8
_0-0_
  6
CONTINUOUS
 62
    7
 10
701.82734239417857
 20
351.10502037595484
 11
702.727342489546
 21
350.20502075742456
  0
LINE
  8
_0-0_
  6
CONTINUOUS
 62
    7
 10
686.727342489546
 20
350.20502075742456
 11
687.62734258491344
 21
351.10502037595484
  0
LINE
  8
_0-0_
  6
CONTINUOUS
 62
    7
 10
687.62734258491344
 20
351.10502037595484
 11
701.82734239417857
 21
351.10502037595484
  0
LINE
  8
_0-0_
  6
CONTINUOUS
 62
    7
 10
702.727342489546
 20
314.10502037595484
 11
702.727342489546
 21
350.20502075742456
  0
LINE
  8
_0-0_
  6
CONTINUOUS
 62
    7
 10
687.79913938176594
 20
297.74454749981282
 11
687.79913938176594
 21
287.46549210327044
  0
LINE
  8
_0-0_
  6
CONTINUOUS
 62
    7
 10
702.727342489546
 20
286.10502037780657
 11
702.727342489546
 21
250.10502037595484
  0
LINE
  8
_0-0_
  6
CONTINUOUS
 62
    7
 10
701.65554559361897
 20
250.10502037780702
 11
701.65554559361897
 21
241.4654921014187
  0
LINE
  8
_0-0_
  6
CONTINUOUS
 62
    7
 10
702.727342489546
 20
240.10502037595484
 11
702.727342489546
 21
236.0492922859537
  0
LINE
  8
_0-0_
  6
CONTINUOUS
 62
    7
 10
702.727342489546
 20
236.0492922859537
 11
686.727342489546
 21
236.0492922859537
  0
LINE
  8
_0-0_
  6
CONTINUOUS
 62
    7
 10
686.727342489546
 20
236.0492922859537
 11
686.727342489546
 21
240.10502037595484
  0
LINE
  8
_0-0_
  6
CONTINUOUS
 62
    7
 10
684.33503806722126
 20
240.10502037595484
 11
705.11964690816365
 21
240.10502037595484
  0
LINE
  8
_0-0_
  6
CONTINUOUS
 62
    7
 10
708.58374869954548
 20
241.4654921014187
 11
708.58374869954548
 21
250.10502037780748
  0
LINE
  8
_0-0_
  6
CONTINUOUS
 62
    7
 10
708.58374869954548
 20
250.10502037780748
 11
680.87093627583943
 21
250.10502037780748
  0
LINE
  8
_0-0_
  6
CONTINUOUS
 62
    7
 10
680.87093627583943
 20
250.10502037780748
 11
680.87093627583943
 21
241.4654921014187
  0
LINE
  8
_0-0_
  6
CONTINUOUS
 62
    7
 10
687.79913938176594
 20
241.4654921014187
 11
687.79913938176594
 21
250.10502037780702
  0
LINE
  8
_0-0_
  6
CONTINUOUS
 62
    7
 10
686.727342489546
 20
250.10502037595484
 11
686.727342489546
 21
286.10502037780657
  0
LINE
  8
_0-0_
  6
CONTINUOUS
 62
    7
 10
684.33503806722126
 20
286.10502037780657
 11
705.11964690816365
 21
286.10502037780657
  0
LINE
  8
_0-0_
  6
CONTINUOUS
 62
    7
 10
701.65554559361897
 20
287.46549210327044
 11
701.65554559361897
 21
297.74454749981282
  0
LINE
  8
_0-0_
  6
CONTINUOUS
 62
    7
 10
708.58374869954548
 20
297.74454730503135
 11
708.58374869954548
 21
287.46549210327044
  0
LINE
  8
_0-0_
  6
CONTINUOUS
 62
    7
 10
721.43444927073267
 20
291.26502022336695
 11
721.43444927073267
 21
298.16502037833902
  0
LINE
  8
_0-0_
  6
CONTINUOUS
 62
    7
 10
719.99444921351221
 20
298.16502037833902
 11
732.87444932795313
 21
298.16502037833902
  0
LINE
  8
_0-0_
  6
CONTINUOUS
 62
    7
 10
732.87444932795313
 20
298.16502037833902
 11
732.87444932795313
 21
299.10502037595484
  0
LINE
  8
_0-0_
  6
CONTINUOUS
 62
    7
 10
731.43444927073267
 20
298.16502037833902
 11
731.43444927073267
 21
291.26502022336695
  0
LINE
  8
_0-0_
  6
CONTINUOUS
 62
    7
 10
731.43444927073267
 20
291.26502022336695
 11
730.8344493661001
 21
290.66502079557154
  0
LINE
  8
_0-0_
  6
CONTINUOUS
 62
    7
 10
730.8344493661001
 20
290.66502079557154
 11
722.03444917536524
 21
290.66502079557154
  0
LINE
  8
_0-0_
  6
CONTINUOUS
 62
    7
 10
722.03444917536524
 20
290.66502079557154
 11
721.43444927073267
 21
291.26502022336695
  0
LINE
  8
_0-0_
  6
CONTINUOUS
 62
    7
 10
721.43444927073267
 20
291.26502022336695
 11
731.43444927073267
 21
291.26502022336695
  0
LINE
  8
_0-0_
  6
CONTINUOUS
 62
    7
 10
730.80944927073267
 20
291.26502022336695
 11
730.80944927073267
 21
296.66502031873438
  0
LINE
  8
_0-0_
  6
CONTINUOUS
 62
    7
 10
731.43444927073267
 20
296.66502031873438
 11
721.43444927073267
 21
296.66502031873438
  0
LINE
  8
_0-0_
  6
CONTINUOUS
 62
    7
 10
719.99444921351221
 20
298.16502037833902
 11
719.99444921351221
 21
299.10502037595484
  0
LINE
  8
_0-0_
  6
CONTINUOUS
 62
    7
 10
726.86746196485308
 20
298.16502037833902
 11
726.00143657661226
 21
296.66502031873438
  0
LINE
  8
_0-0_
  6
CONTINUOUS
 62
    7
 10
728.30944927073267
 20
296.66502031873438
 11
728.30944927073267
 21
291.26502022336695
  0
LINE
  8
_0-0_
  6
CONTINUOUS
 62
    7
 10
728.93444927073267
 20
291.26502022336695
 11
728.93444927073267
 21
296.66502031873438
  0
LINE
  8
_0-0_
  6
CONTINUOUS
 62
    7
 10
729.55944927073267
 20
296.66502031873438
 11
729.55944927073267
 21
291.26502022336695
  0
LINE
  8
_0-0_
  6
CONTINUOUS
 62
    7
 10
730.18444927073267
 20
291.26502022336695
 11
730.18444927073267
 21
296.66502031873438
  0
LINE
  8
_0-0_
  6
CONTINUOUS
 62
    7
 10
744.727342489546
 20
314.10502037595484
 11
744.727342489546
 21
299.10502037595484
  0
LINE
  8
_0-0_
  6
CONTINUOUS
 62
    7
 10
680.87093627583943
 20
287.46549210327044
 11
680.87093627583943
 21
297.7445473050318
  0
ARC
  8
_0-0_
  6
CONTINUOUS
 62
    7
 10
694.727342489546
 20
227.10502037595484
 40
12
 50
131.81031489577896
 51
165.5224878140701
  0
ARC
  8
_0-0_
  6
CONTINUOUS
 62
    7
 10
694.727342489546
 20
227.10502037595484
 40
12
 50
14.477512185929857
 51
48.189685104221027
  0
LINE
  8
_0-0_
  6
CONTINUOUS
 62
    7
 10
680.87093822111387
 20
241.46549185764502
 11
682.39616319486038
 21
240.5200937832787
  0
LINE
  8
_0-0_
  6
CONTINUOUS
 62
    7
 10
682.39616319486038
 20
240.5200937832787
 11
683.98029990048565
 21
240.11876350440633
  0
LINE
  8
_0-0_
  6
CONTINUOUS
 62
    7
 10
683.98029990048565
 20
240.11876350440633
 11
685.57521514580083
 21
240.27369523846846
  0
LINE
  8
_0-0_
  6
CONTINUOUS
 62
    7
 10
685.57521514580083
 20
240.27369523846846
 11
687.13244823814341
 21
240.98018146312489
  0
LINE
  8
_0-0_
  6
CONTINUOUS
 62
    7
 10
687.13244823814341
 20
240.98018146312489
 11
687.7991401717826
 21
241.46549370273675
  0
LINE
  8
_0-0_
  6
CONTINUOUS
 62
    7
 10
701.65554706205626
 20
241.46549185764502
 11
703.18077203580276
 21
240.5200937832787
  0
LINE
  8
_0-0_
  6
CONTINUOUS
 62
    7
 10
703.18077203580276
 20
240.5200937832787
 11
704.76490874142803
 21
240.11876350440633
  0
LINE
  8
_0-0_
  6
CONTINUOUS
 62
    7
 10
704.76490874142803
 20
240.11876350440633
 11
706.35982398674321
 21
240.27369523846846
  0
LINE
  8
_0-0_
  6
CONTINUOUS
 62
    7
 10
706.35982398674321
 20
240.27369523846846
 11
707.91705707908579
 21
240.98018146312489
  0
LINE
  8
_0-0_
  6
CONTINUOUS
 62
    7
 10
707.91705707908579
 20
240.98018146312489
 11
708.58374901272498
 21
241.46549370273675
  0
ARC
  8
_0-0_
  6
CONTINUOUS
 62
    7
 10
694.72734248769245
 20
258.42619404386255
 40
18.321172714233398
 50
247.78070068359375
 51
292.21931457519531
  0
ARC
  8
_0-0_
  6
CONTINUOUS
 62
    7
 10
694.72734248769245
 20
280.78384670804712
 40
18.321172714233398
 50
67.780689151566378
 51
112.21931084843361
  0
LINE
  8
_0-0_
  6
CONTINUOUS
 62
    7
 10
687.7991401717826
 20
297.74454704917287
 11
686.27391532392357
 21
298.68994593592311
  0
LINE
  8
_0-0_
  6
CONTINUOUS
 62
    7
 10
686.27391532392357
 20
298.68994593592311
 11
684.68977867173874
 21
299.09127705855769
  0
LINE
  8
_0-0_
  6
CONTINUOUS
 62
    7
 10
684.68977867173874
 20
299.09127705855769
 11
683.09486340579315
 21
298.9363461739988
  0
LINE
  8
_0-0_
  6
CONTINUOUS
 62
    7
 10
683.09486340579315
 20
298.9363461739988
 11
681.5376302193763
 21
298.22986077877493
  0
LINE
  8
_0-0_
  6
CONTINUOUS
 62
    7
 10
681.5376302193763
 20
298.22986077877493
 11
680.87093627583943
 21
297.74454730503169
  0
LINE
  8
_0-0_
  6
CONTINUOUS
 62
    7
 10
708.58374869954559
 20
297.74454730503157
 11
707.05852383422973
 21
298.68994607912862
  0
LINE
  8
_0-0_
  6
CONTINUOUS
 62
    7
 10
707.05852383422973
 20
298.68994607912862
 11
705.47438717463433
 21
299.09127708475887
  0
LINE
  8
_0-0_
  6
CONTINUOUS
 62
    7
 10
705.47438717463433
 20
299.09127708475887
 11
703.87947191154944
 21
298.9363460823995
  0
LINE
  8
_0-0_
  6
CONTINUOUS
 62
    7
 10
703.87947191154944
 20
298.9363460823995
 11
702.32223873817793
 21
298.22986057215832
  0
LINE
  8
_0-0_
  6
CONTINUOUS
 62
    7
 10
702.32223873817793
 20
298.22986057215832
 11
701.65554706205626
 21
297.74454889426465
  0
LINE
  8
_0-0_
  6
CONTINUOUS
 62
    7
 10
680.87093822111387
 20
287.46549185949675
 11
682.39616319486038
 21
286.52009378513043
  0
LINE
  8
_0-0_
  6
CONTINUOUS
 62
    7
 10
682.39616319486038
 20
286.52009378513043
 11
683.98029990048565
 21
286.11876350625806
  0
LINE
  8
_0-0_
  6
CONTINUOUS
 62
    7
 10
683.98029990048565
 20
286.11876350625806
 11
685.57521514580083
 21
286.27369524032019
  0
LINE
  8
_0-0_
  6
CONTINUOUS
 62
    7
 10
685.57521514580083
 20
286.27369524032019
 11
687.13244823814341
 21
286.98018146497662
  0
LINE
  8
_0-0_
  6
CONTINUOUS
 62
    7
 10
687.13244823814341
 20
286.98018146497662
 11
687.7991401717826
 21
287.46549370458848
  0
LINE
  8
_0-0_
  6
CONTINUOUS
 62
    7
 10
701.65554706205626
 20
287.46549185949675
 11
703.18077203580276
 21
286.52009378513043
  0
LINE
  8
_0-0_
  6
CONTINUOUS
 62
    7
 10
703.18077203580276
 20
286.52009378513043
 11
704.76490874142803
 21
286.11876350625806
  0
LINE
  8
_0-0_
  6
CONTINUOUS
 62
    7
 10
704.76490874142803
 20
286.11876350625806
 11
706.35982398674321
 21
286.27369524032019
  0
LINE
  8
_0-0_
  6
CONTINUOUS
 62
    7
 10
706.35982398674321
 20
286.27369524032019
 11
707.91705707908579
 21
286.98018146497662
  0
LINE
  8
_0-0_
  6
CONTINUOUS
 62
    7
 10
707.91705707908579
 20
286.98018146497662
 11
708.58374901272498
 21
287.46549370458848
  0
ARC
  8
_0-0_
  6
CONTINUOUS
 62
    7
 10
694.72734248769245
 20
304.42619404571428
 40
18.321172714233398
 50
247.78070068359375
 51
292.21931457519531
  0
ARC
  8
_0-0_
  6
CONTINUOUS
 62
    7
 10
634.227342489546
 20
237.60502037595484
 40
32.499999999999986
 50
181.18784253166186
 51
92.301457078637455
  0
ARC
  8
_0-0_
  6
CONTINUOUS
 62
    7
 10
634.227342489546
 20
237.60502037595484
 40
15
 50
259.85445556610318
 51
57.486385369999823
  0
ARC
  8
_0-0_
  6
CONTINUOUS
 62
    7
 10
637.45073405485289
 20
266.14273062394091
 40
6
 50
99.463145391943172
 51
195.86116881036628
  0
ARC
  8
_0-0_
  6
CONTINUOUS
 62
    7
 10
655.7273424876488
 20
271.33557032820931
 40
24.999999999999943
 50
195.86116881036611
 51
237.48638536999999
  0
ARC
  8
_0-0_
  6
CONTINUOUS
 62
    7
 10
636.727342489546
 20
279.10502037595484
 40
6
 50
0
 51
90
  0
ARC
  8
_0-0_
  6
CONTINUOUS
 62
    7
 10
642.727342489546
 20
285.10502037595484
 40
63.254533465779254
 50
189.09613364186058
 51
259.85445556610347
  0
ARC
  8
_0-0_
  6
CONTINUOUS
 62
    7
 10
584.227342489546
 20
287.10502037585479
 40
1.9999999998999982
 50
180
 51
270
  0
ARC
  8
_0-0_
  6
CONTINUOUS
 62
    7
 10
634.227342489546
 20
287.10502037585479
 40
1.9999999998999982
 50
270
 51
0
  0
ARC
  8
_0-0_
  6
CONTINUOUS
 62
    7
 10
581.727342489546
 20
279.10502037595484
 40
6
 50
90
 51
180
  0
LINE
  8
_0-0_
  6
CONTINUOUS
 62
    7
 10
587.227342489546
 20
295.10502037595484
 11
586.01180524587755
 21
295.01049083914074
  0
LINE
  8
_0-0_
  6
CONTINUOUS
 62
    7
 10
586.01180524587755
 20
295.01049083914074
 11
584.83320148626638
 21
294.72977446084025
  0
LINE
  8
_0-0_
  6
CONTINUOUS
 62
    7
 10
584.83320148626638
 20
294.72977446084025
 11
583.727342489546
 21
294.27140066615874
  0
LINE
  8
_0-0_
  6
CONTINUOUS
 62
    7
 10
583.727342489546
 20
294.27140066615874
 11
582.72782922174031
 21
293.64929691089918
  0
LINE
  8
_0-0_
  6
CONTINUOUS
 62
    7
 10
582.72782922174031
 20
293.64929691089918
 11
581.8650313877132
 21
292.88236550286553
  0
LINE
  8
_0-0_
  6
CONTINUOUS
 62
    7
 10
581.8650313877132
 20
292.88236550286553
 11
581.16516466305495
 21
291.99390926480487
  0
LINE
  8
_0-0_
  6
CONTINUOUS
 62
    7
 10
581.16516466305495
 20
291.99390926480487
 11
580.64949414404475
 21
291.01092348993006
  0
LINE
  8
_0-0_
  6
CONTINUOUS
 62
    7
 10
580.64949414404475
 20
291.01092348993006
 11
580.51913855704674
 21
290.6605759314549
  0
LINE
  8
_0-0_
  6
CONTINUOUS
 62
    7
 10
580.227342489546
 20
288.88279815365416
 11
580.45338930778735
 21
289.64721492362679
  0
LINE
  8
_0-0_
  6
CONTINUOUS
 62
    7
 10
580.45338930778735
 20
289.64721492362679
 11
580.52666994046785
 21
290.43490970127777
  0
LINE
  8
_0-0_
  6
CONTINUOUS
 62
    7
 10
580.52666994046785
 20
290.43490970127777
 11
580.51913855706357
 21
290.66057593145416
  0
LINE
  8
_0-0_
  6
CONTINUOUS
 62
    7
 10
637.93554642202844
 20
290.66057593145416
 11
637.96462779023761
 21
289.8706152753673
  0
LINE
  8
_0-0_
  6
CONTINUOUS
 62
    7
 10
637.96462779023761
 20
289.8706152753673
 11
638.14758947901908
 21
289.0971447203172
  0
LINE
  8
_0-0_
  6
CONTINUOUS
 62
    7
 10
638.14758947901908
 20
289.0971447203172
 11
638.227342489546
 21
288.88279815365416
  0
LINE
  8
_0-0_
  6
CONTINUOUS
 62
    7
 10
637.93554642204526
 20
290.6605759314549
 11
637.48633737572447
 21
291.66900517086401
  0
LINE
  8
_0-0_
  6
CONTINUOUS
 62
    7
 10
637.48633737572447
 20
291.66900517086401
 11
636.84695193699133
 21
292.59277691994401
  0
CIRCLE
  8
_0-0_
  6
CONTINUOUS
 62
    7
 10
634.227342489546
 20
237.60502037595484
 40
8.5
  0
ARC
  8
_0-0_
  6
CONTINUOUS
 62
    7
 10
634.227342489546
 20
237.60502037595484
 40
26.499999999999986
 50
192.15277431056961
 51
95.153094682691744
  0
ARC
  8
_0-0_
  6
CONTINUOUS
 62
    7
 10
634.227342489546
 20
237.60502037595484
 40
24.999999999999986
 50
195.58964815835668
 51
94.356283015843786
  0
ARC
  8
_0-0_
  6
CONTINUOUS
 62
    7
 10
634.227342489546
 20
237.60502037595484
 40
20.999999999999986
 50
207.27841698540968
 51
90.04331720745428
  0
LINE
  8
_0-0_
  6
CONTINUOUS
 62
    7
 10
686.727342489546
 20
314.10502037595484
 11
686.727342489546
 21
350.20502075742456
  0
LINE
  8
_0-0_
  6
CONTINUOUS
 62
    7
 10
120.80487819040115
 20
350.20502075742456
 11
120.80487819040115
 21
314.10502037595484
  0
LINE
  8
_0-0_
  6
CONTINUOUS
 62
    7
 10
136.80487819040115
 20
314.10502037595484
 11
136.80487819040115
 21
350.20502075742456
  0
LINE
  8
_0-0_
  6
CONTINUOUS
 62
    7
 10
344.85096830835943
 20
295.10502037595484
 11
324.55807508954609
 21
295.10502037595484
  0
LINE
  8
_0-0_
  6
CONTINUOUS
 62
    7
 10
419.55807508954609
 20
295.10502037595484
 11
414.85096830835943
 21
295.10502037595484
  0
LINE
  8
_0-0_
  6
CONTINUOUS
 62
    7
 10
404.85096830835943
 20
295.10502037595484
 11
354.85096830835943
 21
295.10502037595484
  0
LINE
  8
_0-0_
  6
CONTINUOUS
 62
    7
 10
561.727342489546
 20
295.10502037595484
 11
566.43444927073267
 21
295.10502037595484
  0
LINE
  8
_0-0_
  6
CONTINUOUS
 62
    7
 10
576.43444927073267
 20
295.10502037595484
 11
626.43444927073267
 21
295.10502037595484
  0
LINE
  8
_0-0_
  6
CONTINUOUS
 62
    7
 10
636.43444927073267
 20
295.10502037595484
 11
656.727342489546
 21
295.10502037595484
  0
LINE
  8
_0-0_
  6
CONTINUOUS
 62
    7
 10
636.84695193699133
 20
292.59277691994401
 11
636.43444927073267
 21
293.00574369866888
  0
LINE
  8
_0-1_
  6
PHANTOM1
 62
  152
 10
4.1474337113928641
 20
358.39271153318185
 11
17.480023370282879
 21
308.6348095297368
  0
LINE
  8
_0-1_
  6
PHANTOM1
 62
  152
 10
5.2963170943659179
 20
354.10502037595484
 11
139.80487819040115
 21
354.10502037595484
  0
LINE
  8
_0-1_
  6
PHANTOM1
 62
  152
 10
16.014284791610748
 20
314.10502037595484
 11
139.80487819040115
 21
314.10502037595484
  0
LINE
  8
_0-1_
  6
PHANTOM1
 62
  152
 10
139.80487819040115
 20
314.10502037595484
 11
139.80487819040115
 21
416.9480705355507
  0
LINE
  8
_0-1_
  6
PHANTOM1
 62
  152
 10
134.3003778976792
 20
418.42299694372241
 11
185.49724510365917
 21
404.70483772087664
  0
LINE
  8
_0-1_
  6
PHANTOM1
 62
  152
 10
179.80487819040115
 20
314.10502037595484
 11
179.80487819040115
 21
406.23010283830581
  0
LINE
  8
_0-1_
  6
PHANTOM1
 62
  152
 10
235.55807508954609
 20
416.9480705355507
 11
235.55807508954609
 21
314.10502037595484
  0
LINE
  8
_0-1_
  6
PHANTOM1
 62
  152
 10
230.02494920631761
 20
418.43066714758152
 11
280.91887636965862
 21
404.79368046451589
  0
LINE
  8
_0-1_
  6
PHANTOM1
 62
  152
 10
275.55807508954609
 20
406.23010283830581
 11
275.55807508954609
 21
314.10502037595484
  0
LINE
  8
_0-1_
  6
PHANTOM1
 62
  152
 10
426.75716925051881
 20
354.10502037595506
 11
275.55807508954609
 21
354.10502037595506
  0
LINE
  8
_0-1_
  6
PHANTOM1
 62
  152
 10
425.60828586754582
 20
358.39271153318185
 11
438.94087552643583
 21
308.6348095297368
  0
LINE
  8
_0-1_
  6
PHANTOM1
 62
  152
 10
235.55807508954609
 20
314.10502037595484
 11
437.47513694776376
 21
314.10502037595484
  0
LINE
  8
_0-1_
  6
PHANTOM1
 62
  152
 10
977.13798386769929
 20
358.39271153318185
 11
963.80539420880928
 21
308.6348095297368
  0
LINE
  8
_0-1_
  6
PHANTOM1
 62
  152
 10
975.98910048472624
 20
354.10502037595484
 11
841.480539388691
 21
354.10502037595484
  0
LINE
  8
_0-1_
  6
PHANTOM1
 62
  152
 10
965.27113278748141
 20
314.10502037595484
 11
841.480539388691
 21
314.10502037595484
  0
LINE
  8
_0-1_
  6
PHANTOM1
 62
  152
 10
841.480539388691
 20
314.10502037595484
 11
841.480539388691
 21
416.9480705355507
  0
LINE
  8
_0-1_
  6
PHANTOM1
 62
  152
 10
846.98503968141301
 20
418.42299694372241
 11
795.78817247543304
 21
404.70483772087664
  0
LINE
  8
_0-1_
  6
PHANTOM1
 62
  152
 10
801.480539388691
 20
314.10502037595484
 11
801.480539388691
 21
406.23010283830581
  0
LINE
  8
_0-1_
  6
PHANTOM1
 62
  152
 10
745.727342489546
 20
416.9480705355507
 11
745.727342489546
 21
314.10502037595484
  0
LINE
  8
_0-1_
  6
PHANTOM1
 62
  152
 10
751.26046837277454
 20
418.43066714758152
 11
700.36654120943354
 21
404.79368046451589
  0
LINE
  8
_0-1_
  6
PHANTOM1
 62
  152
 10
705.727342489546
 20
406.23010283830581
 11
705.727342489546
 21
314.10502037595484
  0
LINE
  8
_0-1_
  6
PHANTOM1
 62
  152
 10
554.52824832857334
 20
354.10502037595506
 11
705.727342489546
 21
354.10502037595506
  0
LINE
  8
_0-1_
  6
PHANTOM1
 62
  152
 10
555.67713171154639
 20
358.39271153318185
 11
542.34454205265627
 21
308.6348095297368
  0
LINE
  8
_0-1_
  6
PHANTOM1
 62
  152
 10
745.727342489546
 20
314.10502037595484
 11
543.8102806313284
 21
314.10502037595484
  0
LINE
  8
_0-1_
  6
CONTINUOUS
 62
  152
 10
135.90487809503372
 20
286.10502037780657
 11
135.90487809503372
 21
256.60502037595484
  0
LINE
  8
_0-1_
  6
CONTINUOUS
 62
  152
 10
135.90487809503372
 20
256.60502037595484
 11
136.80487819040115
 21
255.04617448396107
  0
LINE
  8
_0-1_
  6
CONTINUOUS
 62
  152
 10
136.80487819040115
 20
256.60502037595484
 11
120.80487819040115
 21
256.60502037595484
  0
LINE
  8
_0-1_
  6
CONTINUOUS
 62
  152
 10
121.70487828576859
 20
256.60502037595484
 11
120.80487819040115
 21
255.04617448396107
  0
LINE
  8
_0-1_
  6
CONTINUOUS
 62
  152
 10
121.70487828576859
 20
256.60502037595484
 11
121.70487828576859
 21
286.10502037780657
  0
LINE
  8
_0-1_
  6
CONTINUOUS
 62
  152
 10
136.80487819040115
 20
350.20502075742456
 11
120.80487819040115
 21
350.20502075742456
  0
LINE
  8
_0-1_
  6
CENTER1
 62
  152
 10
128.80487819040115
 20
205.10502037595461
 11
128.80487819040115
 21
351.10502037595484
  0
LINE
  8
_0-1_
  6
CENTER1
 62
  152
 10
95.804878190401155
 20
237.60502037595484
 11
25.804878190401155
 21
237.60502037595484
  0
LINE
  8
ADD_LINE
  6
DOT
 62
  152
 10
38.511984971586912
 20
238.3121271571415
 11
37.804878190401155
 21
237.60502037595484
  0
LINE
  8
ADD_LINE
  6
DOT
 62
  152
 10
37.804878190401155
 20
237.60502037595484
 11
38.511984971586912
 21
236.89791359476817
  0
LINE
  8
_0-1_
  6
CENTER1
 62
  152
 10
64.304878190401155
 20
299.10502037595484
 11
64.304878190401155
 21
205.10502037595461
  0
LINE
  8
ADD_LINE
  6
DOT
 62
  152
 10
349.85096830835943
 20
299.10502037595484
 11
349.14386152717276
 21
299.8121271571415
  0
LINE
  8
ADD_LINE
  6
DOT
 62
  152
 10
349.85096830835943
 20
299.10502037595484
 11
350.55807508954609
 21
299.8121271571415
  0
LINE
  8
_0-1_
  6
CENTER1
 62
  152
 10
349.85096830835943
 20
290.66502079557154
 11
349.85096830835943
 21
314.10502037595484
  0
LINE
  8
_0-1_
  6
CENTER1
 62
  152
 10
347.05807508954609
 20
270.10502037595484
 11
347.05807508954609
 21
205.10502037595461
  0
LINE
  8
_0-1_
  6
CENTER1
 62
  152
 10
314.55807508954609
 20
237.60502037595484
 11
379.55807508954609
 21
237.60502037595484
  0
LINE
  8
_0-1_
  6
CENTER1
 62
  152
 10
372.05807508954609
 20
231.44976896499406
 11
372.05807508954609
 21
304.34653370850424
  0
LINE
  8
ADD_LINE
  6
DOT
 62
  152
 10
409.85096830835943
 20
299.10502037595484
 11
409.14386152717276
 21
299.8121271571415
  0
LINE
  8
ADD_LINE
  6
DOT
 62
  152
 10
409.85096830835943
 20
299.10502037595484
 11
410.55807508954609
 21
299.8121271571415
  0
LINE
  8
_0-1_
  6
CENTER1
 62
  152
 10
409.85096830835943
 20
290.66502079557154
 11
409.85096830835943
 21
314.10502037595484
  0
LINE
  8
_0-1_
  6
CENTER1
 62
  152
 10
286.55807508954609
 20
205.10502037595461
 11
286.55807508954609
 21
354.89973420247838
  0
LINE
  8
_0-1_
  6
CONTINUOUS
 62
  152
 10
278.55807508954609
 20
350.20502075742456
 11
294.55807508954609
 21
350.20502075742456
  0
LINE
  8
_0-1_
  6
CONTINUOUS
 62
  152
 10
279.45807518491353
 20
351.10502037595484
 11
279.45807518491353
 21
314.10502037595484
  0
LINE
  8
_0-1_
  6
CONTINUOUS
 62
  152
 10
293.65807499417866
 20
351.10502037595484
 11
293.65807499417866
 21
314.10502037780657
  0
LINE
  8
_0-1_
  6
CONTINUOUS
 62
  152
 10
293.65807499417866
 20
286.10502037780657
 11
293.65807499417866
 21
256.60502037595484
  0
LINE
  8
_0-1_
  6
CONTINUOUS
 62
  152
 10
293.65807499417866
 20
256.60502037595484
 11
294.55807508954609
 21
255.04617448396107
  0
LINE
  8
_0-1_
  6
CONTINUOUS
 62
  152
 10
294.55807508954609
 20
256.60502037595484
 11
278.55807508954609
 21
256.60502037595484
  0
LINE
  8
_0-1_
  6
CONTINUOUS
 62
  152
 10
279.45807518491353
 20
256.60502037595484
 11
278.55807508954609
 21
255.04617448396107
  0
LINE
  8
_0-1_
  6
CONTINUOUS
 62
  152
 10
279.45807518491353
 20
256.60502037595484
 11
279.45807518491353
 21
286.10502037780657
  0
LINE
  8
ADD_LINE
  6
DOT
 62
  152
 10
254.85096830835943
 20
299.10502037595484
 11
254.14386152717276
 21
299.8121271571415
  0
LINE
  8
ADD_LINE
  6
DOT
 62
  152
 10
254.85096830835943
 20
299.10502037595484
 11
255.55807508954609
 21
299.8121271571415
  0
LINE
  8
_0-1_
  6
CENTER1
 62
  152
 10
254.85096830835943
 20
290.66502079557154
 11
254.85096830835943
 21
314.10502037595484
  0
LINE
  8
_0-1_
  6
CENTER1
 62
  152
 10
852.480539388691
 20
205.10502037595461
 11
852.480539388691
 21
351.10502037595484
  0
LINE
  8
_0-1_
  6
CENTER1
 62
  152
 10
885.480539388691
 20
237.60502037595484
 11
955.480539388691
 21
237.60502037595484
  0
LINE
  8
ADD_LINE
  6
DOT
 62
  152
 10
942.77343260750524
 20
238.3121271571415
 11
943.480539388691
 21
237.60502037595484
  0
LINE
  8
ADD_LINE
  6
DOT
 62
  152
 10
943.480539388691
 20
237.60502037595484
 11
942.77343260750524
 21
236.89791359476817
  0
LINE
  8
_0-1_
  6
CENTER1
 62
  152
 10
916.980539388691
 20
299.10502037595484
 11
916.980539388691
 21
205.10502037595461
  0
LINE
  8
ADD_LINE
  6
DOT
 62
  152
 10
631.43444927073267
 20
299.10502037595484
 11
632.14155605191934
 21
299.8121271571415
  0
LINE
  8
ADD_LINE
  6
DOT
 62
  152
 10
631.43444927073267
 20
299.10502037595484
 11
630.727342489546
 21
299.8121271571415
  0
LINE
  8
_0-1_
  6
CENTER1
 62
  152
 10
631.43444927073267
 20
290.66502079557154
 11
631.43444927073267
 21
314.10502037595484
  0
LINE
  8
_0-1_
  6
CENTER1
 62
  152
 10
634.227342489546
 20
270.10502037595484
 11
634.227342489546
 21
205.10502037595461
  0
LINE
  8
_0-1_
  6
CENTER1
 62
  152
 10
666.727342489546
 20
237.60502037595484
 11
601.727342489546
 21
237.60502037595484
  0
LINE
  8
_0-1_
  6
CENTER1
 62
  152
 10
609.227342489546
 20
231.44976896499406
 11
609.227342489546
 21
304.34653370850424
  0
LINE
  8
ADD_LINE
  6
DOT
 62
  152
 10
571.43444927073267
 20
299.10502037595484
 11
572.14155605191934
 21
299.8121271571415
  0
LINE
  8
ADD_LINE
  6
DOT
 62
  152
 10
571.43444927073267
 20
299.10502037595484
 11
570.727342489546
 21
299.8121271571415
  0
LINE
  8
_0-1_
  6
CENTER1
 62
  152
 10
571.43444927073267
 20
290.66502079557154
 11
571.43444927073267
 21
314.10502037595484
  0
LINE
  8
_0-1_
  6
CENTER1
 62
  152
 10
694.727342489546
 20
205.10502037595461
 11
694.727342489546
 21
354.89973420247838
  0
LINE
  8
_0-1_
  6
CONTINUOUS
 62
  152
 10
702.727342489546
 20
350.20502075742456
 11
686.727342489546
 21
350.20502075742456
  0
LINE
  8
_0-1_
  6
CONTINUOUS
 62
  152
 10
701.82734239417857
 20
351.10502037595484
 11
701.82734239417857
 21
314.10502037595484
  0
LINE
  8
_0-1_
  6
CONTINUOUS
 62
  152
 10
687.62734258491344
 20
351.10502037595484
 11
687.62734258491344
 21
314.10502037780657
  0
LINE
  8
_0-1_
  6
CONTINUOUS
 62
  152
 10
687.62734258491344
 20
286.10502037780657
 11
687.62734258491344
 21
256.60502037595484
  0
LINE
  8
_0-1_
  6
CONTINUOUS
 62
  152
 10
687.62734258491344
 20
256.60502037595484
 11
686.727342489546
 21
255.04617448396107
  0
LINE
  8
_0-1_
  6
CONTINUOUS
 62
  152
 10
686.727342489546
 20
256.60502037595484
 11
702.727342489546
 21
256.60502037595484
  0
LINE
  8
_0-1_
  6
CONTINUOUS
 62
  152
 10
701.82734239417857
 20
256.60502037595484
 11
702.727342489546
 21
255.04617448396107
  0
LINE
  8
_0-1_
  6
CONTINUOUS
 62
  152
 10
701.82734239417857
 20
256.60502037595484
 11
701.82734239417857
 21
286.10502037780657
  0
LINE
  8
ADD_LINE
  6
DOT
 62
  152
 10
726.43444927073267
 20
299.10502037595484
 11
727.14155605191934
 21
299.8121271571415
  0
LINE
  8
ADD_LINE
  6
DOT
 62
  152
 10
726.43444927073267
 20
299.10502037595484
 11
725.727342489546
 21
299.8121271571415
  0
LINE
  8
_0-1_
  6
CENTER1
 62
  152
 10
726.43444927073267
 20
290.66502079557154
 11
726.43444927073267
 21
314.10502037595484
  0
LINE
  8
_0-1_
  6
CONTINUOUS
 62
  152
 10
121.70487828576859
 20
314.10502037595484
 11
121.70487828576859
 21
351.10502037595484
  0
LINE
  8
_0-1_
  6
CONTINUOUS
 62
  152
 10
135.90487809503372
 20
351.10502037595484
 11
135.90487809503372
 21
314.10502037595484
  0
TEXT
  8
_0-1_
 62
    7
 10
322.63929040735877
 20
175.1622864651774
 40
10
 41
1
 50
0
  1
L
  0
TEXT
  8
_0-1_
 62
    7
 10
648.65111695137978
 20
176.26741130091983
 40
10
 41
1
 50
0
  1
R
  0
ENDSEC
  0
EOF
