  0
SECTION
  2
HEADER
  9
$ACADVER
  1
AC1009
  9
$INSBASE
 10
0
 20
0
 30
0
  9
$EXTMIN
 10
0
 20
0
  9
$EXTMAX
 10
1189
 20
841
  9
$LIMMIN
 10
0
 20
0
  9
$LIMMAX
 10
1189
 20
841
  9
$LTSCALE
 40
1
  0
ENDSEC
  0
SECTION
  2
TABLES
  0
TABLE
  2
LTYPE
 70
     9
  0
LTYPE
  2
CONTINUOUS
 70
    64
  3
実線
 72
    65
 73
     0
 40
0.0
  0
LTYPE
  2
DASHED1
 70
    64
  3
--  --  --  --  --  --  --  --  
 72
    65
 73
     2
 40
2.5
 49
1.25
 49
-1.25
  0
LTYPE
  2
DASHED2
 70
    64
  3
----    ----    ----    ----    
 72
    65
 73
     2
 40
5.0
 49
2.5
 49
-2.5
  0
LTYPE
  2
DASHED3
 70
    64
  3
------  ------  ------  ------  
 72
    65
 73
     2
 40
5.0
 49
3.75
 49
-1.25
  0
LTYPE
  2
CENTER1
 70
    64
  3
----- - ----- - ----- - ----- - 
 72
    65
 73
     4
 40
10.0
 49
6.25
 49
-1.25
 49
1.25
 49
-1.25
  0
LTYPE
  2
CENTER2
 70
    64
  3
----------  --  ----------  --  
 72
    65
 73
     4
 40
20.0
 49
12.5
 49
-2.5
 49
2.5
 49
-2.5
  0
LTYPE
  2
PHANTOM1
 70
    64
  3
--- - - --- - - --- - - --- - - 
 72
    65
 73
     6
 40
10.0
 49
3.25
 49
-1.25
 49
1.25
 49
-1.25
 49
1.25
 49
-1.25
  0
LTYPE
  2
PHANTOM2
 70
    64
  3
--------  -  -  --------  -  -  
 72
    65
 73
     6
 40
20.0
 49
10.0
 49
-2.5
 49
1.25
 49
-2.5
 49
1.25
 49
-2.5
  0
LTYPE
  2
DOT
 70
    64
  3
-   -   -   -   -   -   -   -   
 72
    65
 73
     2
 40
2.5
 49
0.625
 49
-1.875
  0
LTYPE
  2
DUMMY
 70
    64
  3
ダミー
 72
    65
 73
     0
 40
0.0
  0
LTYPE
  2
RAND1
 70
    64
  3
ランダム線1
 72
    65
 73
     4
 40
10.0
 49
1.0
 49
-2.0
 49
3.0
 49
-4.0
  0
LTYPE
  2
RAND2
 70
    64
  3
ランダム線2
 72
    65
 73
     4
 40
14.0
 49
2.0
 49
-3.0
 49
4.0
 49
-5.0
  0
LTYPE
  2
RAND3
 70
    64
  3
ランダム線3
 72
    65
 73
     4
 40
18.0
 49
3.0
 49
-4.0
 49
5.0
 49
-6.0
  0
LTYPE
  2
RAND4
 70
    64
  3
ランダム線4
 72
    65
 73
     4
 40
22.0
 49
4.0
 49
-5.0
 49
6.0
 49
-7.0
  0
LTYPE
  2
RAND5
 70
    64
  3
ランダム線5
 72
    65
 73
     4
 40
26.0
 49
5.0
 49
-6.0
 49
7.0
 49
-8.0
  0
LTYPE
  2
LONG1
 70
    64
  3
----------  --  ----------  --  
 72
    65
 73
     4
 40
40.0
 49
32.5
 49
-2.5
 49
2.5
 49
-2.5
  0
LTYPE
  2
LONG2
 70
    64
  3
--------  -  -  --------  -  -  
 72
    65
 73
     6
 40
40.0
 49
30.0
 49
-2.5
 49
1.25
 49
-2.5
 49
1.25
 49
-2.5
  0
LTYPE
  2
LONG3
 70
    64
  3
+++++++++++++++..+++++++++++++++
 72
    65
 73
     2
 40
40.0
 49
37.5
 49
-2.5
  0
LTYPE
  2
LONG4
 70
    64
  3
+++++++++++++++..+++++++++++++++
 72
    65
 73
     2
 40
80.0
 49
75.0
 49
-5.0
  0
LTYPE
  2
LONG5
 70
    64
  3
----------  --  ----------  --  
 72
    65
 73
     4
 40
60.0
 49
37.5
 49
-7.5
 49
7.5
 49
-7.5
  0
LTYPE
  2
dashed
 70
   64
  3
-------   -------------   ------
 72
   65
 73
    2
 40
7.5
 49
6
 49
-1.5
  0
LTYPE
  2
dashed_spaced
 70
   64
  3
----        --------        ----
 72
   65
 73
    2
 40
12
 49
6
 49
-6
  0
LTYPE
  2
long_dashed_dotted
 70
   64
  3
------------- --- --------------
 72
   65
 73
    4
 40
15.25
 49
12
 49
-1.5
 49
0.25
 49
-1.5
  0
LTYPE
  2
long_dashed_double-dotted
 70
   64
  3
----------- --- --- ------------
 72
   65
 73
    6
 40
17
 49
12
 49
-1.5
 49
0.25
 49
-1.5
 49
0.25
 49
-1.5
  0
LTYPE
  2
long_dashed_triplicate-dotted
 70
   64
  3
--------- --- --- --- ----------
 72
   65
 73
    8
 40
18.75
 49
12
 49
-1.5
 49
0.25
 49
-1.5
 49
0.25
 49
-1.5
 49
0.25
 49
-1.5
  0
LTYPE
  2
dotted
 70
   64
  3
   -       -       -       -    
 72
   65
 73
    2
 40
1.75
 49
0.25
 49
-1.5
  0
LTYPE
  2
chain
 70
   64
  3
-------------- -- --------------
 72
   65
 73
    4
 40
18.5
 49
12
 49
-1.5
 49
3.5
 49
-1.5
  0
LTYPE
  2
chain_double_dash
 70
   64
  3
------------ -- -- -------------
 72
   65
 73
    6
 40
23.5
 49
12
 49
-1.5
 49
3.5
 49
-1.5
 49
3.5
 49
-1.5
  0
LTYPE
  2
dashed_dotted
 70
   64
  3
-----------     -     ----------
 72
   65
 73
    4
 40
9.25
 49
6
 49
-1.5
 49
0.25
 49
-1.5
  0
LTYPE
  2
double-dashed_dotted
 70
   64
  3
------   -----------   -   -----
 72
   65
 73
    6
 40
16.75
 49
6
 49
-1.5
 49
6
 49
-1.5
 49
0.25
 49
-1.5
  0
LTYPE
  2
dashed_double-dotted
 70
   64
  3
---------    -    -    ---------
 72
   65
 73
    6
 40
11
 49
6
 49
-1.5
 49
0.25
 49
-1.5
 49
0.25
 49
-1.5
  0
LTYPE
  2
double-dashed_double-dotted
 70
   64
  3
-----   ---------   -   -   ----
 72
   65
 73
    8
 40
18.5
 49
6
 49
-1.5
 49
6
 49
-1.5
 49
0.25
 49
-1.5
 49
0.25
 49
-1.5
  0
LTYPE
  2
dashed_triplicate-dotted
 70
   64
  3
-------    -    -    -    ------
 72
   65
 73
    8
 40
12.75
 49
6
 49
-1.5
 49
0.25
 49
-1.5
 49
0.25
 49
-1.5
 49
0.25
 49
-1.5
  0
LTYPE
  2
double-dashed_triplicate-dotted
 70
   64
  3
-----  ---------  -  -  -  -----
 72
   65
 73
   10
 40
20.25
 49
6
 49
-1.5
 49
6
 49
-1.5
 49
0.25
 49
-1.5
 49
0.25
 49
-1.5
 49
0.25
 49
-1.5
  0
LTYPE
  2
undefined
 70
   64
  3
--------------------------------
 72
   65
 73
    0
 40
0
  0
ENDTAB
  0
TABLE
  2
STYLE
  5
3
100
AcDbSymbolTable
 70
     1
  0
STYLE
  5
10
100
AcDbSymbolTableRecord
100
AcDbTextStyleTableRecord
  2
STANDARD
 70
     0
 40
0.0
 41
1.0
 50
0.0
 71
     0
 42
0.2
  3
txt
  4
bigfont.shx
  0
STYLE
  5
26
100
AcDbSymbolTableRecord
100
AcDbTextStyleTableRecord
  2
TATEGAKI
 70
    68
 40
0.0
 41
1.0
 50
0.0
 71
     0
 42
1.0
  3
txt
  4
bigfont.shx
  0
ENDTAB
  0
TABLE
  2
LAYER
 70
    6
  0
LAYER
  2
_0-0_
 70
   64
 62
    7
  6
CONTINUOUS
  0
LAYER
  2
_0-1_
 70
   64
 62
    7
  6
CONTINUOUS
  0
LAYER
  2
_0-8_
 70
   64
 62
    7
  6
CONTINUOUS
  0
LAYER
  2
_0-9_
 70
   64
 62
    7
  6
CONTINUOUS
  0
LAYER
  2
_0-f_
 70
   64
 62
    7
  6
CONTINUOUS
  0
LAYER
  2
ADD_LINE
 70
   64
 62
    7
  6
CONTINUOUS
  0
ENDTAB
  0
ENDSEC
  0
SECTION
  2
BLOCKS
  0
ENDSEC
  0
SECTION
  2
ENTITIES
  0
LINE
  8
_0-1_
  6
PHANTOM1
 62
  152
 10
4.1474337113928641
 20
358.39271153318185
 11
17.480023370282879
 21
308.6348095297368
  0
LINE
  8
_0-1_
  6
PHANTOM1
 62
  152
 10
16.014284791610748
 20
314.10502037595484
 11
139.80487819040115
 21
314.10502037595484
  0
LINE
  8
_0-1_
  6
PHANTOM1
 62
  152
 10
139.80487819040115
 20
314.10502037595484
 11
139.80487819040115
 21
416.9480705355507
  0
LINE
  8
_0-1_
  6
PHANTOM1
 62
  152
 10
134.3003778976792
 20
418.42299694372241
 11
185.49724510365917
 21
404.70483772087664
  0
LINE
  8
_0-1_
  6
PHANTOM1
 62
  152
 10
179.80487819040115
 20
406.23010283830581
 11
179.80487819040115
 21
314.10502037595484
  0
LINE
  8
_0-0_
  6
CONTINUOUS
 62
    7
 10
179.80487819040115
 20
314.10502037595484
 11
179.80487819040115
 21
299.10502037595484
  0
LINE
  8
_0-0_
  6
CONTINUOUS
 62
    7
 10
179.80487819040115
 20
299.10502037595484
 11
29.804878190401155
 21
299.10502037595484
  0
LINE
  8
_0-0_
  6
CONTINUOUS
 62
    7
 10
29.804878190401155
 20
299.10502037595484
 11
29.804878190401155
 21
314.10502037595484
  0
LINE
  8
_0-0_
  6
CONTINUOUS
 62
    7
 10
29.804878190401155
 20
314.10502037595484
 11
179.80487819040115
 21
314.10502037595484
  0
LINE
  8
_0-0_
  6
CONTINUOUS
 62
    7
 10
178.80487819040115
 20
314.10502037595484
 11
178.80487819040115
 21
299.10502037595484
  0
LINE
  8
_0-0_
  6
CONTINUOUS
 62
    7
 10
97.804878190401155
 20
295.10502037595484
 11
30.804878190401155
 21
295.10502037595484
  0
LINE
  8
_0-0_
  6
CONTINUOUS
 62
    7
 10
30.804878190401155
 20
295.10502037595484
 11
30.804878190401155
 21
314.10502037595484
  0
LINE
  8
_0-0_
  6
CONTINUOUS
 62
    7
 10
36.942567088568353
 20
292.88236550286558
 11
37.805364922595459
 21
293.64929691089918
  0
LINE
  8
_0-0_
  6
CONTINUOUS
 62
    7
 10
37.805364922595459
 20
293.64929691089918
 11
38.804878190401155
 21
294.27140066615874
  0
LINE
  8
_0-0_
  6
CONTINUOUS
 62
    7
 10
38.804878190401155
 20
294.27140066615874
 11
39.910737187121526
 21
294.72977446084025
  0
LINE
  8
_0-0_
  6
CONTINUOUS
 62
    7
 10
39.910737187121526
 20
294.72977446084025
 11
41.089340946732705
 21
295.01049083914074
  0
LINE
  8
_0-0_
  6
CONTINUOUS
 62
    7
 10
41.089340946732705
 20
295.01049083914074
 11
42.304878190401155
 21
295.10502037595484
  0
LINE
  8
_0-0_
  6
CONTINUOUS
 62
    7
 10
36.942567088568353
 20
292.88236550286558
 11
36.242700363910103
 21
291.99390926480487
  0
LINE
  8
_0-0_
  6
CONTINUOUS
 62
    7
 10
36.242700363910103
 20
291.99390926480487
 11
35.727029844899903
 21
291.01092348993012
  0
LINE
  8
_0-0_
  6
CONTINUOUS
 62
    7
 10
35.727029844899903
 20
291.01092348993012
 11
35.596674257901896
 21
290.6605759314549
  0
LINE
  8
_0-0_
  6
CONTINUOUS
 62
    7
 10
35.596674257901554
 20
290.6605759314541
 11
93.013082122900755
 21
290.6605759314541
  0
LINE
  8
_0-0_
  6
CONTINUOUS
 62
    7
 10
93.013082122900471
 20
290.6605759314549
 11
92.563873076579625
 21
291.66900517086401
  0
LINE
  8
_0-0_
  6
CONTINUOUS
 62
    7
 10
92.563873076579625
 20
291.66900517086401
 11
91.924487637846426
 21
292.59277691994401
  0
LINE
  8
_0-0_
  6
CONTINUOUS
 62
    7
 10
91.924487637846426
 20
292.59277691994401
 11
91.114353209712249
 21
293.4038228415501
  0
LINE
  8
_0-0_
  6
CONTINUOUS
 62
    7
 10
91.114353209712249
 20
293.4038228415501
 11
90.158085316828021
 21
294.07749971576345
  0
LINE
  8
_0-0_
  6
CONTINUOUS
 62
    7
 10
90.158085316828021
 20
294.07749971576345
 11
89.084739675224284
 21
294.59333821165791
  0
LINE
  8
_0-0_
  6
CONTINUOUS
 62
    7
 10
89.084739675224284
 20
294.59333821165791
 11
87.926929349081888
 21
294.93566483756263
  0
LINE
  8
_0-0_
  6
CONTINUOUS
 62
    7
 10
87.926929349081888
 20
294.93566483756263
 11
86.719833819280552
 21
295.09407817217516
  0
LINE
  8
_0-0_
  6
CONTINUOUS
 62
    7
 10
86.719833819280552
 20
295.09407817217516
 11
86.304878190401155
 21
295.10502037595484
  0
LINE
  8
_0-0_
  6
CONTINUOUS
 62
    7
 10
93.013082122883588
 20
290.66057593145416
 11
93.042163491092765
 21
289.8706152753673
  0
LINE
  8
_0-0_
  6
CONTINUOUS
 62
    7
 10
93.042163491092765
 20
289.8706152753673
 11
93.225125179874226
 21
289.0971447203172
  0
LINE
  8
_0-0_
  6
CONTINUOUS
 62
    7
 10
93.225125179874226
 20
289.0971447203172
 11
93.304878190401155
 21
288.88279815365416
  0
LINE
  8
_0-0_
  6
CONTINUOUS
 62
    7
 10
93.304878190401155
 20
288.8827981536549
 11
35.304878190401155
 21
288.8827981536549
  0
LINE
  8
_0-0_
  6
CONTINUOUS
 62
    7
 10
35.304878190401155
 20
288.8827981536549
 11
35.304878190401155
 21
287.10502037585479
  0
LINE
  8
_0-0_
  6
CONTINUOUS
 62
    7
 10
35.304878190401155
 20
287.10502037585479
 11
93.304878190401155
 21
287.10502037585479
  0
LINE
  8
_0-0_
  6
CONTINUOUS
 62
    7
 10
93.304878190401155
 20
287.10502037585479
 11
93.304878190401155
 21
288.8827981536549
  0
LINE
  8
_0-0_
  6
CONTINUOUS
 62
    7
 10
91.804878190401155
 20
285.10502037595484
 11
36.804878190401155
 21
285.10502037595484
  0
LINE
  8
_0-0_
  6
CONTINUOUS
 62
    7
 10
35.304878190401155
 20
288.88279815365416
 11
35.530925008642612
 21
289.64721492362679
  0
LINE
  8
_0-0_
  6
CONTINUOUS
 62
    7
 10
35.530925008642612
 20
289.64721492362679
 11
35.604205641323006
 21
290.43490970127777
  0
LINE
  8
_0-0_
  6
CONTINUOUS
 62
    7
 10
35.604205641323006
 20
290.43490970127777
 11
35.596674257918721
 21
290.66057593145416
  0
LINE
  8
_0-0_
  6
CONTINUOUS
 62
    7
 10
30.804878190401155
 20
279.10502037595484
 11
30.804878190401155
 21
245.85502037595484
  0
LINE
  8
_0-0_
  6
CONTINUOUS
 62
    7
 10
30.554878190401155
 20
245.85502037595484
 11
31.304878190401155
 21
245.85502037595484
  0
LINE
  8
_0-0_
  6
CONTINUOUS
 62
    7
 10
31.304878190401155
 20
245.85502037595484
 11
32.199771190400838
 21
247.40502037595502
  0
LINE
  8
_0-0_
  6
CONTINUOUS
 62
    7
 10
32.199771190400838
 20
247.40502037595502
 11
37.054322690400454
 21
247.40502037595502
  0
LINE
  8
_0-0_
  6
CONTINUOUS
 62
    7
 10
37.054322690400454
 20
247.40502037595502
 11
37.804878190401155
 21
246.10502037595484
  0
LINE
  8
_0-0_
  6
CONTINUOUS
 62
    7
 10
37.054322690400454
 20
242.50502037595538
 11
32.199771190400838
 21
242.50502037595538
  0
LINE
  8
_0-0_
  6
CONTINUOUS
 62
    7
 10
29.804878190401155
 20
242.60502037595484
 11
26.504878953340608
 21
242.60502037595484
  0
LINE
  8
_0-0_
  6
CONTINUOUS
 62
    7
 10
26.504878953340608
 20
242.60502037595484
 11
26.504878953340608
 21
232.60502037595484
  0
LINE
  8
_0-0_
  6
CONTINUOUS
 62
    7
 10
26.504878953340608
 20
232.60502037595484
 11
29.804878190401155
 21
232.60502037595484
  0
LINE
  8
_0-0_
  6
CONTINUOUS
 62
    7
 10
29.804878190401155
 20
233.30502018521997
 11
25.804878190401155
 21
233.30502018521997
  0
LINE
  8
_0-0_
  6
CONTINUOUS
 62
    7
 10
25.804878190401155
 20
233.30502018521997
 11
26.504878953340608
 21
232.60502037595484
  0
LINE
  8
_0-0_
  6
CONTINUOUS
 62
    7
 10
25.804878190401155
 20
233.30502018521997
 11
25.804878190401155
 21
241.9050205666897
  0
LINE
  8
_0-0_
  6
CONTINUOUS
 62
    7
 10
25.804878190401155
 20
241.9050205666897
 11
29.804878190401155
 21
241.9050205666897
  0
LINE
  8
_0-0_
  6
CONTINUOUS
 62
    7
 10
29.804878190401155
 20
245.10502037595484
 11
29.804878190401155
 21
230.10502037595484
  0
LINE
  8
_0-0_
  6
CONTINUOUS
 62
    7
 10
30.554878190401155
 20
229.35502037595484
 11
31.304878190401155
 21
229.35502037595484
  0
LINE
  8
_0-0_
  6
CONTINUOUS
 62
    7
 10
31.304878190401155
 20
229.35502037595484
 11
32.199771190400838
 21
227.80502037595465
  0
LINE
  8
_0-0_
  6
CONTINUOUS
 62
    7
 10
32.199771190400838
 20
227.80502037595465
 11
37.054322690400454
 21
227.80502037595465
  0
LINE
  8
_0-0_
  6
CONTINUOUS
 62
    7
 10
37.054322690400454
 20
227.80502037595465
 11
37.804878190401155
 21
229.10502037595484
  0
LINE
  8
_0-0_
  6
CONTINUOUS
 62
    7
 10
37.054322690400454
 20
232.7050203759552
 11
32.199771190400838
 21
232.7050203759552
  0
LINE
  8
_0-0_
  6
CONTINUOUS
 62
    7
 10
33.535100398112604
 20
227.80502037595465
 11
37.804878190401155
 21
222.10502037595484
  0
LINE
  8
_0-0_
  6
CONTINUOUS
 62
    7
 10
37.804878190401155
 20
222.10502037595484
 11
41.004878190400973
 21
222.10502037595484
  0
LINE
  8
_0-0_
  6
CONTINUOUS
 62
    7
 10
41.004878190400973
 20
222.10502037595484
 11
41.004878190400973
 21
262.06912199109206
  0
LINE
  8
_0-0_
  6
CONTINUOUS
 62
    7
 10
41.272827382832816
 20
263.06912199109206
 11
42.73692899797004
 21
265.60502037595484
  0
LINE
  8
_0-0_
  6
CONTINUOUS
 62
    7
 10
43.004878190400973
 20
266.60502037595484
 11
43.004878190400973
 21
270.60484343081293
  0
LINE
  8
_0-0_
  6
CONTINUOUS
 62
    7
 10
41.004878190400973
 20
268.5476657518509
 11
41.004878190400973
 21
268.14758296017476
  0
LINE
  8
_0-0_
  6
CONTINUOUS
 62
    7
 10
41.004878190400973
 20
268.14758296017476
 11
38.072827382832088
 21
263.06912199109206
  0
LINE
  8
_0-0_
  6
CONTINUOUS
 62
    7
 10
37.804878190401155
 20
262.06912199109206
 11
37.804878190401155
 21
222.10502037595484
  0
LINE
  8
_0-0_
  6
CONTINUOUS
 62
    7
 10
41.004878190400973
 20
227.60502037595484
 11
42.704878190401701
 21
227.60502037595484
  0
LINE
  8
_0-0_
  6
CONTINUOUS
 62
    7
 10
42.704878190401701
 20
218.10502037595484
 11
42.704878190401701
 21
257.10502037595484
  0
LINE
  8
_0-0_
  6
CONTINUOUS
 62
    7
 10
42.704878190401701
 20
257.10502037595484
 11
44.304878190401155
 21
258.60502037595484
  0
LINE
  8
_0-0_
  6
CONTINUOUS
 62
    7
 10
44.304878190401155
 20
267.10502037595484
 11
44.304878190401155
 21
208.10502037595484
  0
LINE
  8
_0-0_
  6
CONTINUOUS
 62
    7
 10
47.304878190401155
 20
205.10502037595461
 11
81.304878190401155
 21
205.10502037595461
  0
LINE
  8
_0-0_
  6
CONTINUOUS
 62
    7
 10
84.304878190401155
 20
208.10502037595484
 11
84.304878190401155
 21
267.10502037595484
  0
LINE
  8
_0-0_
  6
CONTINUOUS
 62
    7
 10
85.604878190401337
 20
266.60502037595484
 11
85.604878190401337
 21
270.60484343081293
  0
LINE
  8
_0-0_
  6
CONTINUOUS
 62
    7
 10
87.604878190401337
 20
270.10502037595484
 11
87.604878190401337
 21
268.68348134503753
  0
LINE
  8
_0-0_
  6
CONTINUOUS
 62
    7
 10
87.87282738283227
 20
267.68348134503753
 11
90.536928997970222
 21
263.06912199109206
  0
LINE
  8
_0-0_
  6
CONTINUOUS
 62
    7
 10
90.804878190401155
 20
262.06912199109206
 11
90.804878190401155
 21
222.10502037595484
  0
LINE
  8
_0-0_
  6
CONTINUOUS
 62
    7
 10
90.804878190401155
 20
222.10502037595484
 11
95.808396480050192
 21
228.7845375870163
  0
LINE
  8
_0-0_
  6
CONTINUOUS
 62
    7
 10
91.804878190401155
 20
229.10502037682522
 11
91.804878190401155
 21
246.10502037595484
  0
LINE
  8
_0-0_
  6
CONTINUOUS
 62
    7
 10
91.804878190401155
 20
246.10502037595484
 11
90.804878190401155
 21
246.10502037595484
  0
LINE
  8
_0-0_
  6
CONTINUOUS
 62
    7
 10
87.604878190401337
 20
247.60502037595484
 11
85.904878190400609
 21
247.60502037595484
  0
LINE
  8
_0-0_
  6
CONTINUOUS
 62
    7
 10
85.904878190400609
 20
257.10502037595484
 11
84.304878190401155
 21
258.60502037595484
  0
LINE
  8
_0-0_
  6
CONTINUOUS
 62
    7
 10
85.904878190400609
 20
257.10502037595484
 11
85.904878190400609
 21
218.10502037595484
  0
LINE
  8
_0-0_
  6
CONTINUOUS
 62
    7
 10
85.904878190400609
 20
218.10502037595484
 11
84.304878190401155
 21
216.60502037595484
  0
LINE
  8
_0-0_
  6
CONTINUOUS
 62
    7
 10
87.604878190401337
 20
222.10502037595484
 11
87.604878190401337
 21
262.06912199109206
  0
LINE
  8
_0-0_
  6
CONTINUOUS
 62
    7
 10
87.336928997969494
 20
263.06912199109206
 11
85.87282738283227
 21
265.60502037595484
  0
LINE
  8
_0-0_
  6
CONTINUOUS
 62
    7
 10
81.304878190401155
 20
270.10502037595484
 11
47.304878190401155
 21
270.10502037595484
  0
LINE
  8
_0-0_
  6
CONTINUOUS
 62
    7
 10
42.704878190401701
 20
247.60502037595484
 11
41.004878190400973
 21
247.60502037595484
  0
LINE
  8
ADD_LINE
  6
DOT
 62
  152
 10
38.511984971586912
 20
238.3121271571415
 11
37.804878190401155
 21
237.60502037595484
  0
LINE
  8
ADD_LINE
  6
DOT
 62
  152
 10
37.804878190401155
 20
237.60502037595484
 11
38.511984971586912
 21
236.89791359476817
  0
LINE
  8
_0-1_
  6
CENTER1
 62
  152
 10
25.804878190401155
 20
237.60502037595484
 11
95.804878190401155
 21
237.60502037595484
  0
LINE
  8
_0-0_
  6
CONTINUOUS
 62
    7
 10
97.804878190401155
 20
234.77984366654596
 11
97.804878190401155
 21
279.10502037595484
  0
LINE
  8
_0-0_
  6
CONTINUOUS
 62
    7
 10
97.804878190401155
 20
295.10502037595484
 11
97.804878190401155
 21
299.10502037595484
  0
LINE
  8
_0-1_
  6
CENTER1
 62
  152
 10
64.304878190401155
 20
299.10502037595484
 11
64.304878190401155
 21
205.10502037595461
  0
LINE
  8
_0-0_
  6
CONTINUOUS
 62
    7
 10
44.304878190401155
 20
216.60502037595484
 11
42.704878190401701
 21
218.10502037595484
  0
LINE
  8
_0-0_
  6
CONTINUOUS
 62
    7
 10
26.504878953340608
 20
242.60502037595484
 11
25.804878190401155
 21
241.9050205666897
  0
LINE
  8
_0-0_
  6
CONTINUOUS
 62
    7
 10
85.904878190400609
 20
227.60502037595484
 11
87.604878190401337
 21
227.60502037595484
  0
LINE
  8
_0-0_
  6
CONTINUOUS
 62
    7
 10
90.804878190401155
 20
229.10502037682522
 11
91.804878190401155
 21
229.10502037682522
  0
LINE
  8
_0-0_
  6
CONTINUOUS
 62
    7
 10
90.804878190401155
 20
222.10502037595484
 11
87.604878190401337
 21
222.10502037595484
  0
LINE
  8
_0-1_
  6
PHANTOM1
 62
  152
 10
139.80487819040115
 20
354.10502037595484
 11
5.2963170943659179
 21
354.10502037595484
  0
LINE
  8
_0-0_
  6
CONTINUOUS
 62
    7
 10
235.55807508954609
 20
314.10502037595484
 11
235.55807508954609
 21
299.10502037595484
  0
LINE
  8
_0-0_
  6
CONTINUOUS
 62
    7
 10
235.55807508954609
 20
299.10502037595484
 11
420.55807508954609
 21
299.10502037595484
  0
LINE
  8
_0-0_
  6
CONTINUOUS
 62
    7
 10
420.55807508954609
 20
299.10502037595484
 11
420.55807508954609
 21
314.10502037595484
  0
LINE
  8
_0-0_
  6
CONTINUOUS
 62
    7
 10
420.55807508954609
 20
314.10502037595484
 11
235.55807508954609
 21
314.10502037595484
  0
LINE
  8
_0-1_
  6
PHANTOM1
 62
  152
 10
235.55807508954609
 20
314.10502037595484
 11
235.55807508954609
 21
416.9480705355507
  0
LINE
  8
_0-1_
  6
PHANTOM1
 62
  152
 10
230.02494920631761
 20
418.43066714758152
 11
280.91887636965862
 21
404.79368046451589
  0
LINE
  8
_0-1_
  6
PHANTOM1
 62
  152
 10
275.55807508954609
 20
406.23010283830581
 11
275.55807508954609
 21
314.10502037595484
  0
LINE
  8
_0-0_
  6
CONTINUOUS
 62
    7
 10
260.55807508954609
 20
291.26502022336695
 11
260.55807508954609
 21
298.16502037833902
  0
LINE
  8
_0-0_
  6
CONTINUOUS
 62
    7
 10
261.99807514676655
 20
298.16502037833902
 11
249.11807503232563
 21
298.16502037833902
  0
LINE
  8
_0-0_
  6
CONTINUOUS
 62
    7
 10
249.11807503232563
 20
298.16502037833902
 11
249.11807503232563
 21
299.10502037595484
  0
LINE
  8
_0-0_
  6
CONTINUOUS
 62
    7
 10
250.55807508954609
 20
298.16502037833902
 11
250.55807508954609
 21
291.26502022336695
  0
LINE
  8
_0-0_
  6
CONTINUOUS
 62
    7
 10
250.55807508954609
 20
291.26502022336695
 11
251.15807499417866
 21
290.66502079557154
  0
LINE
  8
_0-0_
  6
CONTINUOUS
 62
    7
 10
251.15807499417866
 20
290.66502079557154
 11
259.95807518491353
 21
290.66502079557154
  0
LINE
  8
_0-0_
  6
CONTINUOUS
 62
    7
 10
259.95807518491353
 20
290.66502079557154
 11
260.55807508954609
 21
291.26502022336695
  0
LINE
  8
_0-0_
  6
CONTINUOUS
 62
    7
 10
260.55807508954609
 20
291.26502022336695
 11
250.55807508954609
 21
291.26502022336695
  0
LINE
  8
_0-0_
  6
CONTINUOUS
 62
    7
 10
251.18307508954609
 20
291.26502022336695
 11
251.18307508954609
 21
296.66502031873438
  0
LINE
  8
_0-0_
  6
CONTINUOUS
 62
    7
 10
250.55807508954609
 20
296.66502031873438
 11
260.55807508954609
 21
296.66502031873438
  0
LINE
  8
_0-0_
  6
CONTINUOUS
 62
    7
 10
261.99807514676655
 20
298.16502037833902
 11
261.99807514676655
 21
299.10502037595484
  0
LINE
  8
ADD_LINE
  6
DOT
 62
  152
 10
255.55807508954609
 20
299.10502037595484
 11
254.85096830835943
 21
299.8121271571415
  0
LINE
  8
ADD_LINE
  6
DOT
 62
  152
 10
255.55807508954609
 20
299.10502037595484
 11
256.26518187073276
 21
299.8121271571415
  0
LINE
  8
_0-0_
  6
CONTINUOUS
 62
    7
 10
255.12506239542569
 20
298.16502037833902
 11
255.9910877836665
 21
296.66502031873438
  0
LINE
  8
_0-0_
  6
CONTINUOUS
 62
    7
 10
253.68307508954609
 20
296.66502031873438
 11
253.68307508954609
 21
291.26502022336695
  0
LINE
  8
_0-0_
  6
CONTINUOUS
 62
    7
 10
253.05807508954609
 20
291.26502022336695
 11
253.05807508954609
 21
296.66502031873438
  0
LINE
  8
_0-0_
  6
CONTINUOUS
 62
    7
 10
252.43307508954609
 20
296.66502031873438
 11
252.43307508954609
 21
291.26502022336695
  0
LINE
  8
_0-0_
  6
CONTINUOUS
 62
    7
 10
251.80807508954609
 20
291.26502022336695
 11
251.80807508954609
 21
296.66502031873438
  0
LINE
  8
_0-1_
  6
CENTER1
 62
  152
 10
255.55807508954609
 20
290.66502079557154
 11
255.55807508954609
 21
314.10502037595484
  0
LINE
  8
_0-0_
  6
CONTINUOUS
 62
    7
 10
236.55807508954609
 20
314.10502037595484
 11
236.55807508954609
 21
299.10502037595484
  0
LINE
  8
_0-1_
  6
PHANTOM1
 62
  152
 10
235.55807508954609
 20
314.10502037595484
 11
437.47513694776376
 21
314.10502037595484
  0
LINE
  8
_0-1_
  6
PHANTOM1
 62
  152
 10
438.94087552643583
 20
308.6348095297368
 11
425.60828586754582
 21
358.39271153318185
  0
LINE
  8
_0-1_
  6
PHANTOM1
 62
  152
 10
426.75716925051881
 20
354.10502037595506
 11
275.55807508954609
 21
354.10502037595506
  0
LINE
  8
_0-1_
  6
CENTER1
 62
  152
 10
314.55807508954609
 20
237.60502037595484
 11
379.55807508954609
 21
237.60502037595484
  0
LINE
  8
_0-1_
  6
CENTER1
 62
  152
 10
372.05807508954609
 20
231.44976896499406
 11
372.05807508954609
 21
304.34653370850424
  0
LINE
  8
_0-0_
  6
CONTINUOUS
 62
    7
 10
356.99807514676655
 20
299.10502037595484
 11
356.99807514676655
 21
298.16502037833902
  0
LINE
  8
_0-0_
  6
CONTINUOUS
 62
    7
 10
356.99807514676655
 20
298.16502037833902
 11
344.11807503232563
 21
298.16502037833902
  0
LINE
  8
_0-0_
  6
CONTINUOUS
 62
    7
 10
344.11807503232563
 20
298.16502037833902
 11
344.11807503232563
 21
299.10502037595484
  0
LINE
  8
_0-0_
  6
CONTINUOUS
 62
    7
 10
345.55807508954609
 20
298.16502037833902
 11
345.55807508954609
 21
291.26502022336695
  0
LINE
  8
_0-0_
  6
CONTINUOUS
 62
    7
 10
345.55807508954609
 20
291.26502022336695
 11
346.15807499417866
 21
290.66502079557154
  0
LINE
  8
_0-0_
  6
CONTINUOUS
 62
    7
 10
346.15807499417866
 20
290.66502079557154
 11
354.95807518491353
 21
290.66502079557154
  0
LINE
  8
_0-0_
  6
CONTINUOUS
 62
    7
 10
354.95807518491353
 20
290.66502079557154
 11
355.55807508954609
 21
291.26502022336695
  0
LINE
  8
_0-0_
  6
CONTINUOUS
 62
    7
 10
355.55807508954609
 20
291.26502022336695
 11
355.55807508954609
 21
298.16502037833902
  0
LINE
  8
_0-0_
  6
CONTINUOUS
 62
    7
 10
355.55807508954609
 20
296.66502031873438
 11
345.55807508954609
 21
296.66502031873438
  0
LINE
  8
_0-0_
  6
CONTINUOUS
 62
    7
 10
346.18307508954609
 20
296.66502031873438
 11
346.18307508954609
 21
291.26502022336695
  0
LINE
  8
_0-0_
  6
CONTINUOUS
 62
    7
 10
345.55807508954609
 20
291.26502022336695
 11
355.55807508954609
 21
291.26502022336695
  0
LINE
  8
_0-0_
  6
CONTINUOUS
 62
    7
 10
355.55807508954609
 20
295.10502037595484
 11
405.55807508954609
 21
295.10502037595484
  0
LINE
  8
_0-0_
  6
CONTINUOUS
 62
    7
 10
405.55807508954609
 20
296.66502031873438
 11
415.55807508954609
 21
296.66502031873438
  0
LINE
  8
_0-0_
  6
CONTINUOUS
 62
    7
 10
415.55807508954609
 20
298.16502037833902
 11
415.55807508954609
 21
291.26502022336695
  0
LINE
  8
_0-0_
  6
CONTINUOUS
 62
    7
 10
415.55807508954609
 20
291.26502022336695
 11
414.95807518491353
 21
290.66502079557154
  0
LINE
  8
_0-0_
  6
CONTINUOUS
 62
    7
 10
414.95807518491353
 20
290.66502079557154
 11
406.15807499417866
 21
290.66502079557154
  0
LINE
  8
_0-0_
  6
CONTINUOUS
 62
    7
 10
406.15807499417866
 20
290.66502079557154
 11
405.55807508954609
 21
291.26502022336695
  0
LINE
  8
_0-0_
  6
CONTINUOUS
 62
    7
 10
405.55807508954609
 20
291.26502022336695
 11
405.55807508954609
 21
298.16502037833902
  0
LINE
  8
_0-0_
  6
CONTINUOUS
 62
    7
 10
404.11807503232563
 20
298.16502037833902
 11
404.11807503232563
 21
299.10502037595484
  0
LINE
  8
_0-0_
  6
CONTINUOUS
 62
    7
 10
404.11807503232563
 20
298.16502037833902
 11
416.99807514676655
 21
298.16502037833902
  0
LINE
  8
_0-0_
  6
CONTINUOUS
 62
    7
 10
416.99807514676655
 20
298.16502037833902
 11
416.99807514676655
 21
299.10502037595484
  0
LINE
  8
_0-0_
  6
CONTINUOUS
 62
    7
 10
415.55807508954609
 20
295.10502037595484
 11
419.55807508954609
 21
295.10502037595484
  0
LINE
  8
_0-0_
  6
CONTINUOUS
 62
    7
 10
419.55807508954609
 20
295.10502037595484
 11
419.55807508954609
 21
314.10502037595484
  0
LINE
  8
_0-1_
  6
CENTER1
 62
  152
 10
410.55807508954609
 20
314.10502037595484
 11
410.55807508954609
 21
290.66502079557154
  0
LINE
  8
_0-0_
  6
CONTINUOUS
 62
    7
 10
408.68307508954609
 20
291.26502022336695
 11
408.68307508954609
 21
296.66502031873438
  0
LINE
  8
_0-0_
  6
CONTINUOUS
 62
    7
 10
408.05807508954609
 20
296.66502031873438
 11
408.05807508954609
 21
291.26502022336695
  0
LINE
  8
_0-0_
  6
CONTINUOUS
 62
    7
 10
407.43307508954609
 20
291.26502022336695
 11
407.43307508954609
 21
296.66502031873438
  0
LINE
  8
_0-0_
  6
CONTINUOUS
 62
    7
 10
406.80807508954609
 20
296.66502031873438
 11
406.80807508954609
 21
291.26502022336695
  0
LINE
  8
_0-0_
  6
CONTINUOUS
 62
    7
 10
406.18307508954609
 20
291.26502022336695
 11
406.18307508954609
 21
296.66502031873438
  0
LINE
  8
_0-0_
  6
CONTINUOUS
 62
    7
 10
410.9910877836665
 20
296.66502031873438
 11
410.12506239542569
 21
298.16502037833902
  0
LINE
  8
ADD_LINE
  6
DOT
 62
  152
 10
410.55807508954609
 20
299.10502037595484
 11
409.85096830835943
 21
299.8121271571415
  0
LINE
  8
ADD_LINE
  6
DOT
 62
  152
 10
410.55807508954609
 20
299.10502037595484
 11
411.26518187073276
 21
299.8121271571415
  0
LINE
  8
_0-0_
  6
CONTINUOUS
 62
    7
 10
415.55807508954609
 20
291.26502022336695
 11
405.55807508954609
 21
291.26502022336695
  0
LINE
  8
_0-0_
  6
CONTINUOUS
 62
    7
 10
400.76627902204541
 20
290.6605759314549
 11
400.31706997572451
 21
291.66900517086401
  0
LINE
  8
_0-0_
  6
CONTINUOUS
 62
    7
 10
400.31706997572451
 20
291.66900517086401
 11
399.67768453699136
 21
292.59277691994401
  0
LINE
  8
_0-0_
  6
CONTINUOUS
 62
    7
 10
399.67768453699136
 20
292.59277691994401
 11
398.86755010885719
 21
293.4038228415501
  0
LINE
  8
_0-0_
  6
CONTINUOUS
 62
    7
 10
398.86755010885719
 20
293.4038228415501
 11
397.91128221597296
 21
294.07749971576345
  0
LINE
  8
_0-0_
  6
CONTINUOUS
 62
    7
 10
397.91128221597296
 20
294.07749971576345
 11
396.83793657436922
 21
294.59333821165791
  0
LINE
  8
_0-0_
  6
CONTINUOUS
 62
    7
 10
396.83793657436922
 20
294.59333821165791
 11
395.68012624822688
 21
294.93566483756263
  0
LINE
  8
_0-0_
  6
CONTINUOUS
 62
    7
 10
395.68012624822688
 20
294.93566483756263
 11
394.47303071842549
 21
295.09407817217516
  0
LINE
  8
_0-0_
  6
CONTINUOUS
 62
    7
 10
394.47303071842549
 20
295.09407817217516
 11
394.05807508954609
 21
295.10502037595484
  0
LINE
  8
_0-0_
  6
CONTINUOUS
 62
    7
 10
400.76627902202853
 20
290.66057593145416
 11
400.7953603902377
 21
289.8706152753673
  0
LINE
  8
_0-0_
  6
CONTINUOUS
 62
    7
 10
400.7953603902377
 20
289.8706152753673
 11
400.97832207901922
 21
289.0971447203172
  0
LINE
  8
_0-0_
  6
CONTINUOUS
 62
    7
 10
400.97832207901922
 20
289.0971447203172
 11
401.05807508954609
 21
288.88279815365416
  0
LINE
  8
_0-0_
  6
CONTINUOUS
 62
    7
 10
401.05807508954609
 20
288.8827981536549
 11
343.05807508954609
 21
288.8827981536549
  0
LINE
  8
_0-0_
  6
CONTINUOUS
 62
    7
 10
343.05807508954609
 20
288.8827981536549
 11
343.05807508954609
 21
287.10502037585479
  0
LINE
  8
_0-0_
  6
CONTINUOUS
 62
    7
 10
343.05807508954609
 20
287.10502037585479
 11
401.05807508954609
 21
287.10502037585479
  0
LINE
  8
_0-0_
  6
CONTINUOUS
 62
    7
 10
401.05807508954609
 20
287.10502037585479
 11
401.05807508954609
 21
288.8827981536549
  0
LINE
  8
_0-0_
  6
CONTINUOUS
 62
    7
 10
400.76627902204569
 20
290.6605759314541
 11
343.34987115704649
 21
290.6605759314541
  0
LINE
  8
_0-0_
  6
CONTINUOUS
 62
    7
 10
343.34987115706366
 20
290.66057593145416
 11
343.35740254046794
 21
290.43490970127777
  0
LINE
  8
_0-0_
  6
CONTINUOUS
 62
    7
 10
343.35740254046794
 20
290.43490970127777
 11
343.28412190778749
 21
289.64721492362679
  0
LINE
  8
_0-0_
  6
CONTINUOUS
 62
    7
 10
343.28412190778749
 20
289.64721492362679
 11
343.05807508954609
 21
288.88279815365416
  0
LINE
  8
_0-0_
  6
CONTINUOUS
 62
    7
 10
343.34987115704678
 20
290.6605759314549
 11
343.48022674404478
 21
291.01092348993012
  0
LINE
  8
_0-0_
  6
CONTINUOUS
 62
    7
 10
343.48022674404478
 20
291.01092348993012
 11
343.9958972630551
 21
291.99390926480487
  0
LINE
  8
_0-0_
  6
CONTINUOUS
 62
    7
 10
343.9958972630551
 20
291.99390926480487
 11
345.55807508954609
 21
293.97703917512302
  0
LINE
  8
_0-0_
  6
CONTINUOUS
 62
    7
 10
345.55807508954609
 20
295.10502037595484
 11
324.55807508954609
 21
295.10502037595484
  0
LINE
  8
_0-0_
  6
CONTINUOUS
 62
    7
 10
324.55807508954609
 20
295.10502037595484
 11
324.55807508954609
 21
299.10502037595484
  0
LINE
  8
_0-0_
  6
CONTINUOUS
 62
    7
 10
346.80807508954609
 20
296.66502031873438
 11
346.80807508954609
 21
291.26502022336695
  0
LINE
  8
_0-0_
  6
CONTINUOUS
 62
    7
 10
347.43307508954609
 20
291.26502022336695
 11
347.43307508954609
 21
296.66502031873438
  0
LINE
  8
_0-0_
  6
CONTINUOUS
 62
    7
 10
348.05807508954609
 20
296.66502031873438
 11
348.05807508954609
 21
291.26502022336695
  0
LINE
  8
_0-0_
  6
CONTINUOUS
 62
    7
 10
348.68307508954609
 20
291.26502022336695
 11
348.68307508954609
 21
296.66502031873438
  0
LINE
  8
_0-0_
  6
CONTINUOUS
 62
    7
 10
350.9910877836665
 20
296.66502031873438
 11
350.12506239542569
 21
298.16502037833902
  0
LINE
  8
ADD_LINE
  6
DOT
 62
  152
 10
350.55807508954609
 20
299.10502037595484
 11
349.85096830835943
 21
299.8121271571415
  0
LINE
  8
ADD_LINE
  6
DOT
 62
  152
 10
350.55807508954609
 20
299.10502037595484
 11
351.26518187073276
 21
299.8121271571415
  0
LINE
  8
_0-1_
  6
CENTER1
 62
  152
 10
350.55807508954609
 20
290.66502079557154
 11
350.55807508954609
 21
314.10502037595484
  0
LINE
  8
_0-0_
  6
CONTINUOUS
 62
    7
 10
344.55807508954609
 20
285.10502037595484
 11
399.55807508954609
 21
285.10502037595484
  0
LINE
  8
_0-0_
  6
CONTINUOUS
 62
    7
 10
401.01714972224732
 20
275.10502037595484
 11
405.55807508954609
 21
279.10502037595484
  0
LINE
  8
_0-0_
  6
CONTINUOUS
 62
    7
 10
352.95718780393514
 20
267.75440332315407
 11
360.06137735238104
 21
230.65474679238446
  0
LINE
  8
_0-1_
  6
CENTER1
 62
  152
 10
347.05807508954609
 20
205.10502037595461
 11
347.05807508954609
 21
270.10502037595484
  0
LINE
  8
_0-0_
  6
CONTINUOUS
 62
    7
 10
344.82116247869459
 20
272.06107999453502
 11
338.55807508954609
 21
273.10502037595484
  0
LINE
  8
_0-0_
  6
CONTINUOUS
 62
    7
 10
338.55807508954609
 20
273.10502037595484
 11
338.55807508954609
 21
279.10502037595484
  0
LINE
  8
_0-1_
  6
CENTER1
 62
  152
 10
286.55807508954609
 20
122.57495242024538
 11
286.55807508954609
 21
94.989865416749126
  0
LINE
  8
_0-1_
  6
CENTER1
 62
  152
 10
273.50888248707457
 20
108.20987729147237
 11
299.9349322215167
 21
108.20987729147237
  0
LINE
  8
_0-0_
  6
CONTINUOUS
 62
    7
 10
324.55807508954609
 20
72.209877291472594
 11
324.55807508954609
 21
63.709877291472594
  0
LINE
  8
_0-0_
  6
CONTINUOUS
 62
    7
 10
326.05807508954609
 20
63.709877291472594
 11
327.55807508954609
 21
65.309877291472503
  0
LINE
  8
_0-0_
  6
CONTINUOUS
 62
    7
 10
327.55807508954609
 20
65.309877291472503
 11
366.55807508954609
 21
65.309877291472503
  0
LINE
  8
_0-0_
  6
CONTINUOUS
 62
    7
 10
366.55807508954609
 20
65.309877291472503
 11
368.05807508954609
 21
63.709877291472594
  0
LINE
  8
_0-0_
  6
CONTINUOUS
 62
    7
 10
376.55807508954609
 20
63.709877291472594
 11
317.55807508954609
 21
63.709877291472594
  0
LINE
  8
_0-0_
  6
CONTINUOUS
 62
    7
 10
314.55807508954609
 20
60.709877291472594
 11
314.55807508954609
 21
26.709877291472594
  0
LINE
  8
_0-0_
  6
CONTINUOUS
 62
    7
 10
317.55807508954609
 20
23.709877291472822
 11
376.55807508954609
 21
23.709877291472822
  0
LINE
  8
_0-0_
  6
CONTINUOUS
 62
    7
 10
379.55807508954609
 20
26.709877291472822
 11
379.55807508954609
 21
60.709877291472594
  0
LINE
  8
_0-1_
  6
CENTER1
 62
  152
 10
372.05807508954609
 20
72.209877291472594
 11
372.05807508954609
 21
15.209877291472594
  0
LINE
  8
_0-0_
  6
CONTINUOUS
 62
    7
 10
366.55807508954609
 20
22.109877291472912
 11
327.55807508954609
 21
22.109877291472912
  0
LINE
  8
_0-0_
  6
CONTINUOUS
 62
    7
 10
327.55807508954609
 20
22.109877291472912
 11
326.05807508954609
 21
23.709877291472822
  0
LINE
  8
_0-0_
  6
CONTINUOUS
 62
    7
 10
324.55807508954609
 20
23.709877291472822
 11
324.55807508954609
 21
15.209877291472594
  0
LINE
  8
_0-0_
  6
CONTINUOUS
 62
    7
 10
331.55807508954609
 20
17.209877291472594
 11
351.56417355762648
 21
17.209877291472594
  0
LINE
  8
_0-0_
  6
CONTINUOUS
 62
    7
 10
351.95807508954573
 20
16.459321791472348
 11
351.95807508954573
 21
11.604770291472732
  0
LINE
  8
_0-0_
  6
CONTINUOUS
 62
    7
 10
352.05807508954609
 20
9.2098772914725942
 11
352.05807508954609
 21
5.9098780544120473
  0
LINE
  8
_0-0_
  6
CONTINUOUS
 62
    7
 10
352.05807508954609
 20
5.9098780544120473
 11
342.05807508954609
 21
5.9098780544120473
  0
LINE
  8
_0-0_
  6
CONTINUOUS
 62
    7
 10
342.05807508954609
 20
5.9098780544120473
 11
342.05807508954609
 21
9.2098772914725942
  0
LINE
  8
_0-0_
  6
CONTINUOUS
 62
    7
 10
342.75807489881123
 20
9.2098772914725942
 11
342.75807489881123
 21
5.2098772914725942
  0
LINE
  8
_0-0_
  6
CONTINUOUS
 62
    7
 10
342.75807489881123
 20
5.2098772914725942
 11
351.35807528028096
 21
5.2098772914725942
  0
LINE
  8
_0-0_
  6
CONTINUOUS
 62
    7
 10
351.35807528028096
 20
5.2098772914725942
 11
352.05807508954609
 21
5.9098780544120473
  0
LINE
  8
_0-0_
  6
CONTINUOUS
 62
    7
 10
351.35807528028096
 20
5.2098772914725942
 11
351.35807528028096
 21
9.2098772914725942
  0
LINE
  8
_0-0_
  6
CONTINUOUS
 62
    7
 10
355.30807508954609
 20
9.9598772914725942
 11
355.30807508954609
 21
10.709877291472594
  0
LINE
  8
_0-0_
  6
CONTINUOUS
 62
    7
 10
355.30807508954609
 20
10.709877291472594
 11
356.85807508954628
 21
11.604770291472732
  0
LINE
  8
_0-0_
  6
CONTINUOUS
 62
    7
 10
356.85807508954628
 20
11.604770291472732
 11
356.85807508954628
 21
13.856736753163887
  0
LINE
  8
_0-0_
  6
CONTINUOUS
 62
    7
 10
352.68799506906004
 20
20.409877291472867
 11
331.55807508954609
 21
20.409877291472867
  0
LINE
  8
_0-0_
  6
CONTINUOUS
 62
    7
 10
331.55807508954609
 20
20.409877291472867
 11
331.55807508954609
 21
17.209877291472594
  0
LINE
  8
_0-0_
  6
CONTINUOUS
 62
    7
 10
337.25807508954591
 20
16.459321791472348
 11
337.25807508954591
 21
11.604770291472732
  0
LINE
  8
_0-0_
  6
CONTINUOUS
 62
    7
 10
337.25807508954591
 20
11.604770291472732
 11
338.80807508954609
 21
10.709877291472594
  0
LINE
  8
_0-0_
  6
CONTINUOUS
 62
    7
 10
338.80807508954609
 20
10.709877291472594
 11
338.80807508954609
 21
9.9598772914725942
  0
LINE
  8
_0-0_
  6
CONTINUOUS
 62
    7
 10
342.15807508954555
 20
11.604770291472732
 11
342.15807508954555
 21
16.459321791472348
  0
LINE
  8
_0-0_
  6
CONTINUOUS
 62
    7
 10
338.55807508954609
 20
17.209877291472594
 11
337.25807508954591
 21
16.459321791472348
  0
LINE
  8
_0-1_
  6
CENTER1
 62
  152
 10
335.55807508954609
 20
13.450736813302456
 11
335.55807508954609
 21
73.562266865397532
  0
LINE
  8
_0-0_
  6
CONTINUOUS
 62
    7
 10
338.55807508954609
 20
71.209877291472367
 11
338.55807508954609
 21
70.209877291472822
  0
LINE
  8
_0-0_
  6
CONTINUOUS
 62
    7
 10
338.55807508954609
 20
71.209877291472367
 11
352.92694861983733
 21
71.209877291472367
  0
LINE
  8
_0-0_
  6
CONTINUOUS
 62
    7
 10
351.56417355762738
 20
70.209877291472822
 11
331.55807508954609
 21
70.209877291472822
  0
LINE
  8
_0-0_
  6
CONTINUOUS
 62
    7
 10
331.55807508954609
 20
70.209877291472822
 11
331.55807508954609
 21
67.009877291472776
  0
LINE
  8
_0-0_
  6
CONTINUOUS
 62
    7
 10
331.55807508954609
 20
67.009877291472776
 11
352.68799506906095
 21
67.009877291472776
  0
LINE
  8
_0-1_
  6
CENTER1
 62
  152
 10
347.05807508954609
 20
72.209877291472594
 11
347.05807508954609
 21
15.209877291472594
  0
LINE
  8
ADD_LINE
  6
DOT
 62
  152
 10
347.05807508954609
 20
17.209877291472594
 11
346.35096830835943
 21
17.916984072658806
  0
LINE
  8
ADD_LINE
  6
DOT
 62
  152
 10
347.05807508954609
 20
17.209877291472594
 11
347.76518187073276
 21
17.916984072658806
  0
LINE
  8
_0-0_
  6
CONTINUOUS
 62
    7
 10
342.05807508954609
 20
5.9098780544120473
 11
342.75807489881123
 21
5.2098772914725942
  0
LINE
  8
_0-0_
  6
CONTINUOUS
 62
    7
 10
329.55807508954609
 20
10.209877291472594
 11
414.55807508954609
 21
10.209877291472594
  0
LINE
  8
_0-0_
  6
CONTINUOUS
 62
    7
 10
420.55807508954609
 20
10.209877291472367
 11
420.55807508954609
 21
158.20987729147237
  0
LINE
  8
_0-0_
  6
CONTINUOUS
 62
    7
 10
420.55807508954609
 20
158.20987729147237
 11
419.55807508954609
 21
159.20987729147237
  0
LINE
  8
_0-0_
  6
CONTINUOUS
 62
    7
 10
419.55807508954609
 20
159.20987729147237
 11
236.55807508954609
 21
159.20987729147237
  0
LINE
  8
_0-0_
  6
CONTINUOUS
 62
    7
 10
236.55807508954609
 20
159.20987729147237
 11
235.55807508954609
 21
158.20987729147237
  0
LINE
  8
_0-0_
  6
CONTINUOUS
 62
    7
 10
235.55807508954609
 20
158.20987729147237
 11
235.55807508954609
 21
10.209877291472367
  0
LINE
  8
_0-0_
  6
CONTINUOUS
 62
    7
 10
235.55807508954609
 20
10.209877291472367
 11
236.55807508954609
 21
9.2098772914723668
  0
LINE
  8
_0-0_
  6
CONTINUOUS
 62
    7
 10
236.55807508954609
 20
9.2098772914723668
 11
419.55807508954609
 21
9.2098772914723668
  0
LINE
  8
_0-0_
  6
CONTINUOUS
 62
    7
 10
419.55807508954609
 20
9.2098772914723668
 11
420.55807508954609
 21
10.209877291472367
  0
LINE
  8
_0-0_
  6
CONTINUOUS
 62
    7
 10
419.55807508954609
 20
15.209877291472594
 11
419.55807508954609
 21
72.209877291472594
  0
LINE
  8
_0-0_
  6
CONTINUOUS
 62
    7
 10
414.55807508954609
 20
77.209877291472594
 11
329.55807508954609
 21
77.209877291472594
  0
LINE
  8
_0-1_
  6
CENTER1
 62
  152
 10
329.04241112386268
 20
66.209877291472594
 11
415.34685247385283
 21
66.209877291472594
  0
LINE
  8
_0-0_
  6
CONTINUOUS
 62
    7
 10
411.55807508954609
 20
64.477826514990966
 11
411.55807508954609
 21
67.941928067954223
  0
LINE
  8
_0-0_
  6
CONTINUOUS
 62
    7
 10
411.55807508954609
 20
67.941928067954223
 11
408.55807508954609
 21
69.673978844435851
  0
LINE
  8
_0-0_
  6
CONTINUOUS
 62
    7
 10
408.55807508954609
 20
69.673978844435851
 11
405.55807508954609
 21
67.941928067954223
  0
LINE
  8
_0-0_
  6
CONTINUOUS
 62
    7
 10
405.55807508954609
 20
67.941928067954223
 11
405.55807508954609
 21
64.477826514990966
  0
LINE
  8
_0-0_
  6
CONTINUOUS
 62
    7
 10
405.55807508954609
 20
64.477826514990966
 11
408.55807508954609
 21
62.745775738509337
  0
LINE
  8
_0-0_
  6
CONTINUOUS
 62
    7
 10
408.55807508954609
 20
62.745775738509337
 11
411.55807508954609
 21
64.477826514990966
  0
LINE
  8
_0-1_
  6
CENTER1
 62
  152
 10
408.55807508954609
 20
72.059478614095269
 11
408.55807508954609
 21
15.454454481705625
  0
LINE
  8
_0-0_
  6
CONTINUOUS
 62
    7
 10
408.55807508954609
 20
17.745775738509337
 11
405.55807508954609
 21
19.477826514990966
  0
LINE
  8
_0-0_
  6
CONTINUOUS
 62
    7
 10
405.55807508954609
 20
19.477826514990966
 11
405.55807508954609
 21
22.941928067954223
  0
LINE
  8
_0-0_
  6
CONTINUOUS
 62
    7
 10
405.55807508954609
 20
22.941928067954223
 11
408.55807508954609
 21
24.673978844435851
  0
LINE
  8
_0-0_
  6
CONTINUOUS
 62
    7
 10
408.55807508954609
 20
24.673978844435851
 11
411.55807508954609
 21
22.941928067954223
  0
LINE
  8
_0-0_
  6
CONTINUOUS
 62
    7
 10
411.55807508954609
 20
22.941928067954223
 11
411.55807508954609
 21
19.477826514990966
  0
LINE
  8
_0-0_
  6
CONTINUOUS
 62
    7
 10
411.55807508954609
 20
19.477826514990966
 11
408.55807508954609
 21
17.745775738509337
  0
LINE
  8
_0-1_
  6
CENTER1
 62
  152
 10
414.25000487678341
 20
21.209877291472594
 11
329.04241112386268
 21
21.209877291472594
  0
LINE
  8
_0-1_
  6
CENTER1
 62
  152
 10
314.55807508954609
 20
43.709877291472594
 11
414.25000487678341
 21
43.709877291472594
  0
LINE
  8
_0-1_
  6
CENTER1
 62
  152
 10
399.55807508954609
 20
79.47433513417559
 11
399.55807508954609
 21
93.562597425571312
  0
LINE
  8
_0-1_
  6
CENTER1
 62
  152
 10
406.71271764462659
 20
87.209877291472367
 11
340.61292568759023
 21
87.209877291472367
  0
LINE
  8
_0-1_
  6
CENTER1
 62
  152
 10
347.55807508954609
 20
93.562597425571312
 11
347.55807508954609
 21
79.47433513417559
  0
LINE
  8
_0-1_
  6
CENTER1
 62
  152
 10
350.55807508954609
 20
131.37610438073261
 11
350.55807508954609
 21
146.61519034834987
  0
LINE
  8
_0-0_
  6
CONTINUOUS
 62
    7
 10
350.55807508954609
 20
142.0966287048177
 11
348.05807508954609
 21
140.65325299814504
  0
LINE
  8
_0-0_
  6
CONTINUOUS
 62
    7
 10
348.05807508954609
 20
140.65325299814504
 11
348.05807508954609
 21
137.7665015847997
  0
LINE
  8
_0-0_
  6
CONTINUOUS
 62
    7
 10
348.05807508954609
 20
137.7665015847997
 11
350.55807508954609
 21
136.32312587812703
  0
LINE
  8
_0-0_
  6
CONTINUOUS
 62
    7
 10
350.55807508954609
 20
136.32312587812703
 11
353.05807508954609
 21
137.7665015847997
  0
LINE
  8
_0-0_
  6
CONTINUOUS
 62
    7
 10
353.05807508954609
 20
137.7665015847997
 11
353.05807508954609
 21
140.65325299814504
  0
LINE
  8
_0-0_
  6
CONTINUOUS
 62
    7
 10
353.05807508954609
 20
140.65325299814504
 11
350.55807508954609
 21
142.0966287048177
  0
LINE
  8
_0-1_
  6
CENTER1
 62
  152
 10
338.88125177024637
 20
139.20987729147237
 11
417.3840421523692
 21
139.20987729147237
  0
LINE
  8
_0-0_
  6
CONTINUOUS
 62
    7
 10
413.05807508954609
 20
137.7665015847997
 11
413.05807508954609
 21
140.65325299814504
  0
LINE
  8
_0-0_
  6
CONTINUOUS
 62
    7
 10
413.05807508954609
 20
140.65325299814504
 11
410.55807508954609
 21
142.0966287048177
  0
LINE
  8
_0-0_
  6
CONTINUOUS
 62
    7
 10
410.55807508954609
 20
142.0966287048177
 11
408.05807508954609
 21
140.65325299814504
  0
LINE
  8
_0-0_
  6
CONTINUOUS
 62
    7
 10
408.05807508954609
 20
140.65325299814504
 11
408.05807508954609
 21
137.7665015847997
  0
LINE
  8
_0-0_
  6
CONTINUOUS
 62
    7
 10
408.05807508954609
 20
137.7665015847997
 11
410.55807508954609
 21
136.32312587812703
  0
LINE
  8
_0-0_
  6
CONTINUOUS
 62
    7
 10
410.55807508954609
 20
136.32312587812703
 11
413.05807508954609
 21
137.7665015847997
  0
LINE
  8
_0-1_
  6
CENTER1
 62
  152
 10
410.55807508954609
 20
131.37610438073261
 11
410.55807508954609
 21
146.93148291618127
  0
LINE
  8
_0-1_
  6
CENTER1
 62
  152
 10
570.727342489546
 20
146.93148291618127
 11
570.727342489546
 21
131.37610438073261
  0
LINE
  8
_0-0_
  6
CONTINUOUS
 62
    7
 10
570.727342489546
 20
136.32312587812703
 11
573.227342489546
 21
137.7665015847997
  0
LINE
  8
_0-0_
  6
CONTINUOUS
 62
    7
 10
573.227342489546
 20
137.7665015847997
 11
573.227342489546
 21
140.65325299814504
  0
LINE
  8
_0-0_
  6
CONTINUOUS
 62
    7
 10
573.227342489546
 20
140.65325299814504
 11
570.727342489546
 21
142.0966287048177
  0
LINE
  8
_0-0_
  6
CONTINUOUS
 62
    7
 10
570.727342489546
 20
142.0966287048177
 11
568.227342489546
 21
140.65325299814504
  0
LINE
  8
_0-0_
  6
CONTINUOUS
 62
    7
 10
568.227342489546
 20
140.65325299814504
 11
568.227342489546
 21
137.7665015847997
  0
LINE
  8
_0-0_
  6
CONTINUOUS
 62
    7
 10
568.227342489546
 20
137.7665015847997
 11
570.727342489546
 21
136.32312587812703
  0
LINE
  8
_0-1_
  6
CENTER1
 62
  152
 10
563.90137542672289
 20
139.20987729147237
 11
642.40416580884573
 21
139.20987729147237
  0
LINE
  8
_0-0_
  6
CONTINUOUS
 62
    7
 10
633.227342489546
 20
137.7665015847997
 11
630.727342489546
 21
136.32312587812703
  0
LINE
  8
_0-0_
  6
CONTINUOUS
 62
    7
 10
630.727342489546
 20
136.32312587812703
 11
628.227342489546
 21
137.7665015847997
  0
LINE
  8
_0-0_
  6
CONTINUOUS
 62
    7
 10
628.227342489546
 20
137.7665015847997
 11
628.227342489546
 21
140.65325299814504
  0
LINE
  8
_0-0_
  6
CONTINUOUS
 62
    7
 10
628.227342489546
 20
140.65325299814504
 11
630.727342489546
 21
142.0966287048177
  0
LINE
  8
_0-0_
  6
CONTINUOUS
 62
    7
 10
630.727342489546
 20
142.0966287048177
 11
633.227342489546
 21
140.65325299814504
  0
LINE
  8
_0-0_
  6
CONTINUOUS
 62
    7
 10
633.227342489546
 20
140.65325299814504
 11
633.227342489546
 21
137.7665015847997
  0
LINE
  8
_0-1_
  6
CENTER1
 62
  152
 10
630.727342489546
 20
131.37610438073261
 11
630.727342489546
 21
146.61519034834987
  0
LINE
  8
_0-1_
  6
CENTER1
 62
  152
 10
633.727342489546
 20
93.562597425571312
 11
633.727342489546
 21
79.47433513417559
  0
LINE
  8
_0-1_
  6
CENTER1
 62
  152
 10
634.227342489546
 20
72.209877291472594
 11
634.227342489546
 21
15.209877291472594
  0
LINE
  8
ADD_LINE
  6
DOT
 62
  152
 10
634.227342489546
 20
17.209877291472594
 11
634.93444927073267
 21
17.916984072658806
  0
LINE
  8
ADD_LINE
  6
DOT
 62
  152
 10
634.227342489546
 20
17.209877291472594
 11
633.52023570835934
 21
17.916984072658806
  0
LINE
  8
_0-0_
  6
CONTINUOUS
 62
    7
 10
629.72124402146562
 20
17.209877291472594
 11
649.727342489546
 21
17.209877291472594
  0
LINE
  8
_0-0_
  6
CONTINUOUS
 62
    7
 10
649.727342489546
 20
17.209877291472594
 11
649.727342489546
 21
20.409877291472867
  0
LINE
  8
_0-0_
  6
CONTINUOUS
 62
    7
 10
649.727342489546
 20
20.409877291472867
 11
628.59742251003206
 21
20.409877291472867
  0
LINE
  8
_0-0_
  6
CONTINUOUS
 62
    7
 10
629.32734248954637
 20
16.459321791472348
 11
629.32734248954637
 21
11.604770291472732
  0
LINE
  8
_0-0_
  6
CONTINUOUS
 62
    7
 10
629.227342489546
 20
9.2098772914725942
 11
629.227342489546
 21
5.9098780544120473
  0
LINE
  8
_0-0_
  6
CONTINUOUS
 62
    7
 10
629.227342489546
 20
5.9098780544120473
 11
639.227342489546
 21
5.9098780544120473
  0
LINE
  8
_0-0_
  6
CONTINUOUS
 62
    7
 10
639.227342489546
 20
5.9098780544120473
 11
639.227342489546
 21
9.2098772914725942
  0
LINE
  8
_0-0_
  6
CONTINUOUS
 62
    7
 10
638.52734268028087
 20
9.2098772914725942
 11
638.52734268028087
 21
5.2098772914725942
  0
LINE
  8
_0-0_
  6
CONTINUOUS
 62
    7
 10
638.52734268028087
 20
5.2098772914725942
 11
629.92734229881114
 21
5.2098772914725942
  0
LINE
  8
_0-0_
  6
CONTINUOUS
 62
    7
 10
629.92734229881114
 20
5.2098772914725942
 11
629.227342489546
 21
5.9098780544120473
  0
LINE
  8
_0-0_
  6
CONTINUOUS
 62
    7
 10
629.92734229881114
 20
5.2098772914725942
 11
629.92734229881114
 21
9.2098772914725942
  0
LINE
  8
_0-0_
  6
CONTINUOUS
 62
    7
 10
625.977342489546
 20
9.9598772914725942
 11
625.977342489546
 21
10.709877291472594
  0
LINE
  8
_0-0_
  6
CONTINUOUS
 62
    7
 10
625.977342489546
 20
10.709877291472594
 11
624.42734248954582
 21
11.604770291472732
  0
LINE
  8
_0-0_
  6
CONTINUOUS
 62
    7
 10
624.42734248954582
 20
11.604770291472732
 11
624.42734248954582
 21
13.856736753163887
  0
LINE
  8
_0-1_
  6
CENTER1
 62
  152
 10
609.227342489546
 20
15.209877291472594
 11
609.227342489546
 21
72.209877291472594
  0
LINE
  8
_0-0_
  6
CONTINUOUS
 62
    7
 10
614.727342489546
 20
65.309877291472503
 11
653.727342489546
 21
65.309877291472503
  0
LINE
  8
_0-0_
  6
CONTINUOUS
 62
    7
 10
653.727342489546
 20
65.309877291472503
 11
655.227342489546
 21
63.709877291472594
  0
LINE
  8
_0-0_
  6
CONTINUOUS
 62
    7
 10
656.727342489546
 20
63.709877291472594
 11
656.727342489546
 21
72.209877291472594
  0
LINE
  8
_0-0_
  6
CONTINUOUS
 62
    7
 10
649.727342489546
 20
70.209877291472822
 11
649.727342489546
 21
67.009877291472776
  0
LINE
  8
_0-0_
  6
CONTINUOUS
 62
    7
 10
649.727342489546
 20
67.009877291472776
 11
628.59742251003115
 21
67.009877291472776
  0
LINE
  8
_0-0_
  6
CONTINUOUS
 62
    7
 10
629.72124402146471
 20
70.209877291472822
 11
649.727342489546
 21
70.209877291472822
  0
LINE
  8
_0-1_
  6
CENTER1
 62
  152
 10
652.24300645522942
 20
66.209877291472594
 11
565.93856510523926
 21
66.209877291472594
  0
LINE
  8
_0-0_
  6
CONTINUOUS
 62
    7
 10
569.727342489546
 20
64.477826514990966
 11
569.727342489546
 21
67.941928067954223
  0
LINE
  8
_0-0_
  6
CONTINUOUS
 62
    7
 10
569.727342489546
 20
67.941928067954223
 11
572.727342489546
 21
69.673978844435851
  0
LINE
  8
_0-0_
  6
CONTINUOUS
 62
    7
 10
572.727342489546
 20
69.673978844435851
 11
575.727342489546
 21
67.941928067954223
  0
LINE
  8
_0-0_
  6
CONTINUOUS
 62
    7
 10
575.727342489546
 20
67.941928067954223
 11
575.727342489546
 21
64.477826514990966
  0
LINE
  8
_0-0_
  6
CONTINUOUS
 62
    7
 10
575.727342489546
 20
64.477826514990966
 11
572.727342489546
 21
62.745775738509337
  0
LINE
  8
_0-0_
  6
CONTINUOUS
 62
    7
 10
572.727342489546
 20
62.745775738509337
 11
569.727342489546
 21
64.477826514990966
  0
LINE
  8
_0-1_
  6
CENTER1
 62
  152
 10
572.727342489546
 20
72.059478614095269
 11
572.727342489546
 21
15.454454481705625
  0
LINE
  8
_0-0_
  6
CONTINUOUS
 62
    7
 10
572.727342489546
 20
17.745775738509337
 11
575.727342489546
 21
19.477826514990966
  0
LINE
  8
_0-0_
  6
CONTINUOUS
 62
    7
 10
575.727342489546
 20
19.477826514990966
 11
575.727342489546
 21
22.941928067954223
  0
LINE
  8
_0-0_
  6
CONTINUOUS
 62
    7
 10
575.727342489546
 20
22.941928067954223
 11
572.727342489546
 21
24.673978844435851
  0
LINE
  8
_0-0_
  6
CONTINUOUS
 62
    7
 10
572.727342489546
 20
24.673978844435851
 11
569.727342489546
 21
22.941928067954223
  0
LINE
  8
_0-0_
  6
CONTINUOUS
 62
    7
 10
569.727342489546
 20
22.941928067954223
 11
569.727342489546
 21
19.477826514990966
  0
LINE
  8
_0-0_
  6
CONTINUOUS
 62
    7
 10
569.727342489546
 20
19.477826514990966
 11
572.727342489546
 21
17.745775738509337
  0
LINE
  8
_0-1_
  6
CENTER1
 62
  152
 10
567.03541270230869
 20
21.209877291472594
 11
652.24300645522942
 21
21.209877291472594
  0
LINE
  8
_0-0_
  6
CONTINUOUS
 62
    7
 10
653.727342489546
 20
22.109877291472912
 11
655.227342489546
 21
23.709877291472822
  0
LINE
  8
_0-0_
  6
CONTINUOUS
 62
    7
 10
656.727342489546
 20
23.709877291472822
 11
656.727342489546
 21
15.209877291472594
  0
LINE
  8
_0-0_
  6
CONTINUOUS
 62
    7
 10
653.727342489546
 20
22.109877291472912
 11
614.727342489546
 21
22.109877291472912
  0
LINE
  8
_0-0_
  6
CONTINUOUS
 62
    7
 10
614.727342489546
 20
22.109877291472912
 11
613.227342489546
 21
23.709877291472822
  0
LINE
  8
_0-0_
  6
CONTINUOUS
 62
    7
 10
604.727342489546
 20
23.709877291472822
 11
663.727342489546
 21
23.709877291472822
  0
LINE
  8
_0-0_
  6
CONTINUOUS
 62
    7
 10
666.727342489546
 20
26.709877291472594
 11
666.727342489546
 21
60.709877291472594
  0
LINE
  8
_0-0_
  6
CONTINUOUS
 62
    7
 10
663.727342489546
 20
63.709877291472594
 11
604.727342489546
 21
63.709877291472594
  0
LINE
  8
_0-0_
  6
CONTINUOUS
 62
    7
 10
601.727342489546
 20
60.709877291472594
 11
601.727342489546
 21
26.709877291472822
  0
LINE
  8
_0-0_
  6
CONTINUOUS
 62
    7
 10
639.12734248954655
 20
16.459321791472348
 11
639.12734248954655
 21
11.604770291472732
  0
LINE
  8
_0-0_
  6
CONTINUOUS
 62
    7
 10
642.477342489546
 20
10.709877291472594
 11
644.02734248954619
 21
11.604770291472732
  0
LINE
  8
_0-0_
  6
CONTINUOUS
 62
    7
 10
644.02734248954619
 20
11.604770291472732
 11
644.02734248954619
 21
16.459321791472348
  0
LINE
  8
_0-0_
  6
CONTINUOUS
 62
    7
 10
644.02734248954619
 20
16.459321791472348
 11
642.727342489546
 21
17.209877291472594
  0
LINE
  8
_0-0_
  6
CONTINUOUS
 62
    7
 10
642.477342489546
 20
10.709877291472594
 11
642.477342489546
 21
9.9598772914725942
  0
LINE
  8
_0-1_
  6
CENTER1
 62
  152
 10
645.727342489546
 20
13.450736813302456
 11
645.727342489546
 21
73.562266865397532
  0
LINE
  8
_0-0_
  6
CONTINUOUS
 62
    7
 10
642.727342489546
 20
71.209877291472367
 11
642.727342489546
 21
70.209877291472822
  0
LINE
  8
_0-0_
  6
CONTINUOUS
 62
    7
 10
642.727342489546
 20
71.209877291472367
 11
628.35846895925476
 21
71.209877291472367
  0
LINE
  8
_0-0_
  6
CONTINUOUS
 62
    7
 10
614.727342489546
 20
65.309877291472503
 11
613.227342489546
 21
63.709877291472594
  0
LINE
  8
_0-1_
  6
CENTER1
 62
  152
 10
581.727342489546
 20
79.47433513417559
 11
581.727342489546
 21
93.562597425571312
  0
LINE
  8
_0-1_
  6
CENTER1
 62
  152
 10
574.5726999344655
 20
87.209877291472367
 11
640.67249189150186
 21
87.209877291472367
  0
LINE
  8
_0-0_
  6
CONTINUOUS
 62
    7
 10
651.727342489546
 20
77.209877291472594
 11
566.727342489546
 21
77.209877291472594
  0
LINE
  8
_0-0_
  6
CONTINUOUS
 62
    7
 10
561.727342489546
 20
72.209877291472594
 11
561.727342489546
 21
15.209877291472594
  0
LINE
  8
_0-0_
  6
CONTINUOUS
 62
    7
 10
560.727342489546
 20
10.209877291472367
 11
560.727342489546
 21
158.20987729147237
  0
LINE
  8
_0-0_
  6
CONTINUOUS
 62
    7
 10
560.727342489546
 20
158.20987729147237
 11
561.727342489546
 21
159.20987729147237
  0
LINE
  8
_0-0_
  6
CONTINUOUS
 62
    7
 10
561.727342489546
 20
159.20987729147237
 11
744.727342489546
 21
159.20987729147237
  0
LINE
  8
_0-0_
  6
CONTINUOUS
 62
    7
 10
744.727342489546
 20
159.20987729147237
 11
745.727342489546
 21
158.20987729147237
  0
LINE
  8
_0-0_
  6
CONTINUOUS
 62
    7
 10
745.727342489546
 20
158.20987729147237
 11
745.727342489546
 21
10.209877291472367
  0
LINE
  8
_0-0_
  6
CONTINUOUS
 62
    7
 10
745.727342489546
 20
10.209877291472367
 11
744.727342489546
 21
9.2098772914723668
  0
LINE
  8
_0-0_
  6
CONTINUOUS
 62
    7
 10
744.727342489546
 20
9.2098772914723668
 11
561.727342489546
 21
9.2098772914723668
  0
LINE
  8
_0-0_
  6
CONTINUOUS
 62
    7
 10
561.727342489546
 20
9.2098772914723668
 11
560.727342489546
 21
10.209877291472367
  0
LINE
  8
_0-0_
  6
CONTINUOUS
 62
    7
 10
566.727342489546
 20
10.209877291472594
 11
651.727342489546
 21
10.209877291472594
  0
LINE
  8
_0-0_
  6
CONTINUOUS
 62
    7
 10
639.227342489546
 20
5.9098780544120473
 11
638.52734268028087
 21
5.2098772914725942
  0
LINE
  8
_0-1_
  6
CENTER1
 62
  152
 10
666.727342489546
 20
43.709877291472594
 11
567.03541270230869
 21
43.709877291472594
  0
LINE
  8
_0-1_
  6
CENTER1
 62
  152
 10
717.89356957880625
 20
19.209877291472367
 11
734.56969236024941
 21
19.209877291472367
  0
LINE
  8
_0-0_
  6
CONTINUOUS
 62
    7
 10
728.227342489546
 20
20.653252998145035
 11
725.727342489546
 21
22.096628704817704
  0
LINE
  8
_0-0_
  6
CONTINUOUS
 62
    7
 10
725.727342489546
 20
22.096628704817704
 11
723.227342489546
 21
20.653252998145035
  0
LINE
  8
_0-0_
  6
CONTINUOUS
 62
    7
 10
723.227342489546
 20
20.653252998145035
 11
723.227342489546
 21
17.766501584799698
  0
LINE
  8
_0-0_
  6
CONTINUOUS
 62
    7
 10
723.227342489546
 20
17.766501584799698
 11
725.727342489546
 21
16.32312587812703
  0
LINE
  8
_0-0_
  6
CONTINUOUS
 62
    7
 10
725.727342489546
 20
16.32312587812703
 11
728.227342489546
 21
17.766501584799698
  0
LINE
  8
_0-0_
  6
CONTINUOUS
 62
    7
 10
728.227342489546
 20
17.766501584799698
 11
728.227342489546
 21
20.653252998145035
  0
LINE
  8
_0-1_
  6
CENTER1
 62
  152
 10
725.727342489546
 20
12.421908741301422
 11
725.727342489546
 21
86.181182171935006
  0
LINE
  8
_0-0_
  6
CONTINUOUS
 62
    7
 10
725.727342489546
 20
82.096628704817704
 11
728.227342489546
 21
80.653252998145035
  0
LINE
  8
_0-0_
  6
CONTINUOUS
 62
    7
 10
728.227342489546
 20
80.653252998145035
 11
728.227342489546
 21
77.766501584799698
  0
LINE
  8
_0-0_
  6
CONTINUOUS
 62
    7
 10
728.227342489546
 20
77.766501584799698
 11
725.727342489546
 21
76.32312587812703
  0
LINE
  8
_0-0_
  6
CONTINUOUS
 62
    7
 10
725.727342489546
 20
76.32312587812703
 11
723.227342489546
 21
77.766501584799698
  0
LINE
  8
_0-0_
  6
CONTINUOUS
 62
    7
 10
723.227342489546
 20
77.766501584799698
 11
723.227342489546
 21
80.653252998145035
  0
LINE
  8
_0-0_
  6
CONTINUOUS
 62
    7
 10
723.227342489546
 20
80.653252998145035
 11
725.727342489546
 21
82.096628704817704
  0
LINE
  8
_0-1_
  6
CENTER1
 62
  152
 10
717.89356957880625
 20
79.209877291472367
 11
734.67892217202768
 21
79.209877291472367
  0
LINE
  8
_0-1_
  6
CENTER1
 62
  152
 10
694.727342489546
 20
94.989865416749126
 11
694.727342489546
 21
122.57495242024538
  0
LINE
  8
_0-1_
  6
CENTER1
 62
  152
 10
707.77653509201753
 20
108.20987729147237
 11
681.35048535757539
 21
108.20987729147237
  0
LINE
  8
_0-1_
  6
PHANTOM1
 62
  152
 10
705.727342489546
 20
354.10502037595506
 11
554.52824832857334
 21
354.10502037595506
  0
LINE
  8
_0-1_
  6
PHANTOM1
 62
  152
 10
555.67713171154639
 20
358.39271153318185
 11
542.34454205265627
 21
308.6348095297368
  0
LINE
  8
_0-1_
  6
PHANTOM1
 62
  152
 10
543.8102806313284
 20
314.10502037595484
 11
745.727342489546
 21
314.10502037595484
  0
LINE
  8
_0-1_
  6
PHANTOM1
 62
  152
 10
745.727342489546
 20
314.10502037595484
 11
745.727342489546
 21
416.9480705355507
  0
LINE
  8
_0-1_
  6
PHANTOM1
 62
  152
 10
751.26046837277454
 20
418.43066714758152
 11
700.36654120943354
 21
404.79368046451589
  0
LINE
  8
_0-1_
  6
PHANTOM1
 62
  152
 10
705.727342489546
 20
406.23010283830581
 11
705.727342489546
 21
314.10502037595484
  0
LINE
  8
_0-0_
  6
CONTINUOUS
 62
    7
 10
720.72734248954612
 20
291.26502022336695
 11
720.72734248954612
 21
298.16502037833902
  0
LINE
  8
_0-0_
  6
CONTINUOUS
 62
    7
 10
719.28734243232566
 20
298.16502037833902
 11
732.16734254676658
 21
298.16502037833902
  0
LINE
  8
_0-0_
  6
CONTINUOUS
 62
    7
 10
732.16734254676658
 20
298.16502037833902
 11
732.16734254676658
 21
299.10502037595484
  0
LINE
  8
_0-0_
  6
CONTINUOUS
 62
    7
 10
730.72734248954612
 20
298.16502037833902
 11
730.72734248954612
 21
291.26502022336695
  0
LINE
  8
_0-0_
  6
CONTINUOUS
 62
    7
 10
730.72734248954612
 20
291.26502022336695
 11
730.12734258491355
 21
290.66502079557154
  0
LINE
  8
_0-0_
  6
CONTINUOUS
 62
    7
 10
730.12734258491355
 20
290.66502079557154
 11
721.32734239417869
 21
290.66502079557154
  0
LINE
  8
_0-0_
  6
CONTINUOUS
 62
    7
 10
721.32734239417869
 20
290.66502079557154
 11
720.72734248954612
 21
291.26502022336695
  0
LINE
  8
_0-0_
  6
CONTINUOUS
 62
    7
 10
720.72734248954612
 20
291.26502022336695
 11
730.72734248954612
 21
291.26502022336695
  0
LINE
  8
_0-0_
  6
CONTINUOUS
 62
    7
 10
730.10234248954612
 20
291.26502022336695
 11
730.10234248954612
 21
296.66502031873438
  0
LINE
  8
_0-0_
  6
CONTINUOUS
 62
    7
 10
730.72734248954612
 20
296.66502031873438
 11
720.72734248954612
 21
296.66502031873438
  0
LINE
  8
_0-0_
  6
CONTINUOUS
 62
    7
 10
719.28734243232566
 20
298.16502037833902
 11
719.28734243232566
 21
299.10502037595484
  0
LINE
  8
ADD_LINE
  6
DOT
 62
  152
 10
725.72734248954612
 20
299.10502037595484
 11
726.43444927073278
 21
299.8121271571415
  0
LINE
  8
ADD_LINE
  6
DOT
 62
  152
 10
725.72734248954612
 20
299.10502037595484
 11
725.02023570835945
 21
299.8121271571415
  0
LINE
  8
_0-0_
  6
CONTINUOUS
 62
    7
 10
726.16035518366652
 20
298.16502037833902
 11
725.29432979542571
 21
296.66502031873438
  0
LINE
  8
_0-0_
  6
CONTINUOUS
 62
    7
 10
727.60234248954612
 20
296.66502031873438
 11
727.60234248954612
 21
291.26502022336695
  0
LINE
  8
_0-0_
  6
CONTINUOUS
 62
    7
 10
728.22734248954612
 20
291.26502022336695
 11
728.22734248954612
 21
296.66502031873438
  0
LINE
  8
_0-0_
  6
CONTINUOUS
 62
    7
 10
728.85234248954612
 20
296.66502031873438
 11
728.85234248954612
 21
291.26502022336695
  0
LINE
  8
_0-0_
  6
CONTINUOUS
 62
    7
 10
729.47734248954612
 20
291.26502022336695
 11
729.47734248954612
 21
296.66502031873438
  0
LINE
  8
_0-1_
  6
CENTER1
 62
  152
 10
725.72734248954612
 20
290.66502079557154
 11
725.72734248954612
 21
314.10502037595484
  0
LINE
  8
_0-0_
  6
CONTINUOUS
 62
    7
 10
744.727342489546
 20
314.10502037595484
 11
744.727342489546
 21
299.10502037595484
  0
LINE
  8
_0-0_
  6
CONTINUOUS
 62
    7
 10
745.727342489546
 20
299.10502037595484
 11
560.727342489546
 21
299.10502037595484
  0
LINE
  8
_0-0_
  6
CONTINUOUS
 62
    7
 10
560.727342489546
 20
299.10502037595484
 11
560.727342489546
 21
314.10502037595484
  0
LINE
  8
_0-0_
  6
CONTINUOUS
 62
    7
 10
560.727342489546
 20
314.10502037595484
 11
745.727342489546
 21
314.10502037595484
  0
LINE
  8
_0-0_
  6
CONTINUOUS
 62
    7
 10
745.727342489546
 20
314.10502037595484
 11
745.727342489546
 21
299.10502037595484
  0
LINE
  8
_0-0_
  6
CONTINUOUS
 62
    7
 10
801.480539388691
 20
299.10502037595484
 11
801.480539388691
 21
314.10502037595484
  0
LINE
  8
_0-0_
  6
CONTINUOUS
 62
    7
 10
801.480539388691
 20
314.10502037595484
 11
951.480539388691
 21
314.10502037595484
  0
LINE
  8
_0-0_
  6
CONTINUOUS
 62
    7
 10
951.480539388691
 20
314.10502037595484
 11
951.480539388691
 21
299.10502037595484
  0
LINE
  8
_0-0_
  6
CONTINUOUS
 62
    7
 10
951.480539388691
 20
299.10502037595484
 11
801.480539388691
 21
299.10502037595484
  0
LINE
  8
_0-0_
  6
CONTINUOUS
 62
    7
 10
802.480539388691
 20
299.10502037595484
 11
802.480539388691
 21
314.10502037595484
  0
LINE
  8
_0-1_
  6
PHANTOM1
 62
  152
 10
801.480539388691
 20
314.10502037595484
 11
801.480539388691
 21
406.23010283830581
  0
LINE
  8
_0-1_
  6
PHANTOM1
 62
  152
 10
795.78817247543304
 20
404.70483772087664
 11
846.98503968141301
 21
418.42299694372241
  0
LINE
  8
_0-1_
  6
PHANTOM1
 62
  152
 10
841.480539388691
 20
416.9480705355507
 11
841.480539388691
 21
314.10502037595484
  0
LINE
  8
_0-1_
  6
PHANTOM1
 62
  152
 10
841.480539388691
 20
314.10502037595484
 11
965.27113278748141
 21
314.10502037595484
  0
LINE
  8
_0-1_
  6
PHANTOM1
 62
  152
 10
963.80539420880928
 20
308.6348095297368
 11
977.13798386769929
 21
358.39271153318185
  0
LINE
  8
_0-1_
  6
PHANTOM1
 62
  152
 10
975.98910048472624
 20
354.10502037595484
 11
841.480539388691
 21
354.10502037595484
  0
LINE
  8
_0-0_
  6
CONTINUOUS
 62
    7
 10
890.480539388691
 20
222.10502037595484
 11
890.480539388691
 21
262.06912199109206
  0
LINE
  8
_0-0_
  6
CONTINUOUS
 62
    7
 10
890.74848858112193
 20
263.06912199109206
 11
893.41259019625988
 21
267.68348134503753
  0
LINE
  8
_0-0_
  6
CONTINUOUS
 62
    7
 10
893.68053938869082
 20
268.68348134503753
 11
893.68053938869082
 21
270.10502037595484
  0
LINE
  8
_0-0_
  6
CONTINUOUS
 62
    7
 10
895.68053938869082
 20
270.60484343081293
 11
895.68053938869082
 21
266.60502037595484
  0
LINE
  8
_0-0_
  6
CONTINUOUS
 62
    7
 10
895.41259019625988
 20
265.60502037595484
 11
893.94848858112266
 21
263.06912199109206
  0
LINE
  8
_0-0_
  6
CONTINUOUS
 62
    7
 10
893.68053938869082
 20
262.06912199109206
 11
893.68053938869082
 21
222.10502037595484
  0
LINE
  8
_0-0_
  6
CONTINUOUS
 62
    7
 10
893.68053938869082
 20
222.10502037595484
 11
890.480539388691
 21
222.10502037595484
  0
LINE
  8
_0-0_
  6
CONTINUOUS
 62
    7
 10
890.480539388691
 20
222.10502037595484
 11
885.47702109904196
 21
228.7845375870163
  0
LINE
  8
_0-0_
  6
CONTINUOUS
 62
    7
 10
889.480539388691
 20
229.10502037682522
 11
889.480539388691
 21
246.10502037595484
  0
LINE
  8
_0-0_
  6
CONTINUOUS
 62
    7
 10
889.480539388691
 20
246.10502037595484
 11
890.480539388691
 21
246.10502037595484
  0
LINE
  8
_0-0_
  6
CONTINUOUS
 62
    7
 10
893.68053938869082
 20
247.60502037595484
 11
895.38053938869155
 21
247.60502037595484
  0
LINE
  8
_0-0_
  6
CONTINUOUS
 62
    7
 10
895.38053938869155
 20
257.10502037595484
 11
896.980539388691
 21
258.60502037595484
  0
LINE
  8
_0-0_
  6
CONTINUOUS
 62
    7
 10
895.38053938869155
 20
257.10502037595484
 11
895.38053938869155
 21
218.10502037595484
  0
LINE
  8
_0-0_
  6
CONTINUOUS
 62
    7
 10
895.38053938869155
 20
218.10502037595484
 11
896.980539388691
 21
216.60502037595484
  0
LINE
  8
_0-0_
  6
CONTINUOUS
 62
    7
 10
896.980539388691
 20
208.10502037595484
 11
896.980539388691
 21
267.10502037595484
  0
LINE
  8
_0-0_
  6
CONTINUOUS
 62
    7
 10
899.980539388691
 20
270.10502037595484
 11
933.980539388691
 21
270.10502037595484
  0
LINE
  8
_0-0_
  6
CONTINUOUS
 62
    7
 10
938.28053938869118
 20
270.60484343081293
 11
938.28053938869118
 21
266.60502037595484
  0
LINE
  8
_0-0_
  6
CONTINUOUS
 62
    7
 10
938.54848858112211
 20
265.60502037595484
 11
940.01259019625934
 21
263.06912199109206
  0
LINE
  8
_0-0_
  6
CONTINUOUS
 62
    7
 10
940.28053938869118
 20
262.06912199109206
 11
940.28053938869118
 21
222.10502037595484
  0
LINE
  8
_0-0_
  6
CONTINUOUS
 62
    7
 10
940.28053938869118
 20
222.10502037595484
 11
943.480539388691
 21
222.10502037595484
  0
LINE
  8
_0-0_
  6
CONTINUOUS
 62
    7
 10
943.480539388691
 20
222.10502037595484
 11
943.480539388691
 21
262.06912199109206
  0
LINE
  8
_0-0_
  6
CONTINUOUS
 62
    7
 10
943.21259019626007
 20
263.06912199109206
 11
940.28053938869118
 21
268.14758296017476
  0
LINE
  8
_0-0_
  6
CONTINUOUS
 62
    7
 10
940.28053938869118
 20
268.14758296017476
 11
940.28053938869118
 21
268.5476657518509
  0
LINE
  8
_0-0_
  6
CONTINUOUS
 62
    7
 10
936.980539388691
 20
267.10502037595484
 11
936.980539388691
 21
208.10502037595484
  0
LINE
  8
_0-0_
  6
CONTINUOUS
 62
    7
 10
933.980539388691
 20
205.10502037595461
 11
899.980539388691
 21
205.10502037595461
  0
LINE
  8
_0-1_
  6
CENTER1
 62
  152
 10
916.980539388691
 20
205.10502037595461
 11
916.980539388691
 21
299.10502037595484
  0
LINE
  8
_0-0_
  6
CONTINUOUS
 62
    7
 10
894.980539388691
 20
295.10502037595484
 11
893.76500214502255
 21
295.01049083914074
  0
LINE
  8
_0-0_
  6
CONTINUOUS
 62
    7
 10
893.76500214502255
 20
295.01049083914074
 11
892.58639838541137
 21
294.72977446084025
  0
LINE
  8
_0-0_
  6
CONTINUOUS
 62
    7
 10
892.58639838541137
 20
294.72977446084025
 11
891.480539388691
 21
294.27140066615874
  0
LINE
  8
_0-0_
  6
CONTINUOUS
 62
    7
 10
891.480539388691
 20
294.27140066615874
 11
890.4810261208853
 21
293.64929691089918
  0
LINE
  8
_0-0_
  6
CONTINUOUS
 62
    7
 10
890.4810261208853
 20
293.64929691089918
 11
889.6182282868582
 21
292.88236550286553
  0
LINE
  8
_0-0_
  6
CONTINUOUS
 62
    7
 10
889.6182282868582
 20
292.88236550286553
 11
888.91836156219995
 21
291.99390926480487
  0
LINE
  8
_0-0_
  6
CONTINUOUS
 62
    7
 10
888.91836156219995
 20
291.99390926480487
 11
888.40269104318975
 21
291.01092348993006
  0
LINE
  8
_0-0_
  6
CONTINUOUS
 62
    7
 10
888.40269104318975
 20
291.01092348993006
 11
888.27233545619174
 21
290.6605759314549
  0
LINE
  8
_0-0_
  6
CONTINUOUS
 62
    7
 10
888.2723354561914
 20
290.6605759314541
 11
945.6887433211906
 21
290.6605759314541
  0
LINE
  8
_0-0_
  6
CONTINUOUS
 62
    7
 10
945.68874332117343
 20
290.66057593145416
 11
945.71782468938261
 21
289.8706152753673
  0
LINE
  8
_0-0_
  6
CONTINUOUS
 62
    7
 10
945.71782468938261
 20
289.8706152753673
 11
945.90078637816407
 21
289.0971447203172
  0
LINE
  8
_0-0_
  6
CONTINUOUS
 62
    7
 10
945.90078637816407
 20
289.0971447203172
 11
945.980539388691
 21
288.88279815365416
  0
LINE
  8
_0-0_
  6
CONTINUOUS
 62
    7
 10
945.980539388691
 20
288.8827981536549
 11
887.980539388691
 21
288.8827981536549
  0
LINE
  8
_0-0_
  6
CONTINUOUS
 62
    7
 10
887.980539388691
 20
288.8827981536549
 11
887.980539388691
 21
287.10502037585479
  0
LINE
  8
_0-0_
  6
CONTINUOUS
 62
    7
 10
887.980539388691
 20
287.10502037585479
 11
945.980539388691
 21
287.10502037585479
  0
LINE
  8
_0-0_
  6
CONTINUOUS
 62
    7
 10
945.980539388691
 20
287.10502037585479
 11
945.980539388691
 21
288.8827981536549
  0
LINE
  8
_0-0_
  6
CONTINUOUS
 62
    7
 10
945.68874332119026
 20
290.6605759314549
 11
945.23953427486947
 21
291.66900517086401
  0
LINE
  8
_0-0_
  6
CONTINUOUS
 62
    7
 10
945.23953427486947
 20
291.66900517086401
 11
944.60014883613633
 21
292.59277691994401
  0
LINE
  8
_0-0_
  6
CONTINUOUS
 62
    7
 10
944.60014883613633
 20
292.59277691994401
 11
943.79001440800209
 21
293.4038228415501
  0
LINE
  8
_0-0_
  6
CONTINUOUS
 62
    7
 10
943.79001440800209
 20
293.4038228415501
 11
942.83374651511792
 21
294.07749971576345
  0
LINE
  8
_0-0_
  6
CONTINUOUS
 62
    7
 10
942.83374651511792
 20
294.07749971576345
 11
941.76040087351407
 21
294.59333821165791
  0
LINE
  8
_0-0_
  6
CONTINUOUS
 62
    7
 10
941.76040087351407
 20
294.59333821165791
 11
940.60259054737173
 21
294.93566483756263
  0
LINE
  8
_0-0_
  6
CONTINUOUS
 62
    7
 10
940.60259054737173
 20
294.93566483756263
 11
939.3954950175704
 21
295.09407817217516
  0
LINE
  8
_0-0_
  6
CONTINUOUS
 62
    7
 10
939.3954950175704
 20
295.09407817217516
 11
938.980539388691
 21
295.10502037595484
  0
LINE
  8
_0-0_
  6
CONTINUOUS
 62
    7
 10
950.480539388691
 20
295.10502037595484
 11
950.480539388691
 21
314.10502037595484
  0
LINE
  8
_0-0_
  6
CONTINUOUS
 62
    7
 10
950.480539388691
 20
295.10502037595484
 11
883.480539388691
 21
295.10502037595484
  0
LINE
  8
_0-0_
  6
CONTINUOUS
 62
    7
 10
883.480539388691
 20
295.10502037595484
 11
883.480539388691
 21
299.10502037595484
  0
LINE
  8
_0-0_
  6
CONTINUOUS
 62
    7
 10
888.27233545620857
 20
290.66057593145416
 11
888.27986683961285
 21
290.43490970127777
  0
LINE
  8
_0-0_
  6
CONTINUOUS
 62
    7
 10
888.27986683961285
 20
290.43490970127777
 11
888.20658620693234
 21
289.64721492362679
  0
LINE
  8
_0-0_
  6
CONTINUOUS
 62
    7
 10
888.20658620693234
 20
289.64721492362679
 11
887.980539388691
 21
288.88279815365416
  0
LINE
  8
_0-0_
  6
CONTINUOUS
 62
    7
 10
889.480539388691
 20
285.10502037595484
 11
944.480539388691
 21
285.10502037595484
  0
LINE
  8
_0-0_
  6
CONTINUOUS
 62
    7
 10
950.480539388691
 20
279.10502037595484
 11
950.480539388691
 21
245.85502037595484
  0
LINE
  8
_0-0_
  6
CONTINUOUS
 62
    7
 10
950.730539388691
 20
245.85502037595484
 11
949.980539388691
 21
245.85502037595484
  0
LINE
  8
_0-0_
  6
CONTINUOUS
 62
    7
 10
949.980539388691
 20
245.85502037595484
 11
949.08564638869132
 21
247.40502037595502
  0
LINE
  8
_0-0_
  6
CONTINUOUS
 62
    7
 10
949.08564638869132
 20
247.40502037595502
 11
944.2310948886917
 21
247.40502037595502
  0
LINE
  8
_0-0_
  6
CONTINUOUS
 62
    7
 10
944.2310948886917
 20
247.40502037595502
 11
943.480539388691
 21
246.10502037595484
  0
LINE
  8
_0-0_
  6
CONTINUOUS
 62
    7
 10
944.2310948886917
 20
242.50502037595538
 11
949.08564638869132
 21
242.50502037595538
  0
LINE
  8
_0-0_
  6
CONTINUOUS
 62
    7
 10
951.480539388691
 20
242.60502037595484
 11
954.78053862575155
 21
242.60502037595484
  0
LINE
  8
_0-0_
  6
CONTINUOUS
 62
    7
 10
954.78053862575155
 20
242.60502037595484
 11
954.78053862575155
 21
232.60502037595484
  0
LINE
  8
_0-0_
  6
CONTINUOUS
 62
    7
 10
954.78053862575155
 20
232.60502037595484
 11
951.480539388691
 21
232.60502037595484
  0
LINE
  8
_0-0_
  6
CONTINUOUS
 62
    7
 10
951.480539388691
 20
233.30502018521997
 11
955.480539388691
 21
233.30502018521997
  0
LINE
  8
_0-0_
  6
CONTINUOUS
 62
    7
 10
955.480539388691
 20
233.30502018521997
 11
954.78053862575155
 21
232.60502037595484
  0
LINE
  8
_0-0_
  6
CONTINUOUS
 62
    7
 10
955.480539388691
 20
233.30502018521997
 11
955.480539388691
 21
241.9050205666897
  0
LINE
  8
_0-0_
  6
CONTINUOUS
 62
    7
 10
955.480539388691
 20
241.9050205666897
 11
951.480539388691
 21
241.9050205666897
  0
LINE
  8
_0-0_
  6
CONTINUOUS
 62
    7
 10
951.480539388691
 20
245.10502037595484
 11
951.480539388691
 21
230.10502037595484
  0
LINE
  8
_0-0_
  6
CONTINUOUS
 62
    7
 10
950.730539388691
 20
229.35502037595484
 11
949.980539388691
 21
229.35502037595484
  0
LINE
  8
_0-0_
  6
CONTINUOUS
 62
    7
 10
949.980539388691
 20
229.35502037595484
 11
949.08564638869132
 21
227.80502037595465
  0
LINE
  8
_0-0_
  6
CONTINUOUS
 62
    7
 10
949.08564638869132
 20
227.80502037595465
 11
944.2310948886917
 21
227.80502037595465
  0
LINE
  8
_0-0_
  6
CONTINUOUS
 62
    7
 10
944.2310948886917
 20
227.80502037595465
 11
943.480539388691
 21
229.10502037595484
  0
LINE
  8
_0-0_
  6
CONTINUOUS
 62
    7
 10
944.2310948886917
 20
232.7050203759552
 11
949.08564638869132
 21
232.7050203759552
  0
LINE
  8
_0-0_
  6
CONTINUOUS
 62
    7
 10
947.75031718097955
 20
227.80502037595465
 11
943.480539388691
 21
222.10502037595484
  0
LINE
  8
_0-0_
  6
CONTINUOUS
 62
    7
 10
940.28053938869118
 20
227.60502037595484
 11
938.58053938869045
 21
227.60502037595484
  0
LINE
  8
_0-0_
  6
CONTINUOUS
 62
    7
 10
938.58053938869045
 20
218.10502037595484
 11
938.58053938869045
 21
257.10502037595484
  0
LINE
  8
_0-0_
  6
CONTINUOUS
 62
    7
 10
938.58053938869045
 20
257.10502037595484
 11
936.980539388691
 21
258.60502037595484
  0
LINE
  8
_0-0_
  6
CONTINUOUS
 62
    7
 10
938.58053938869045
 20
247.60502037595484
 11
940.28053938869118
 21
247.60502037595484
  0
LINE
  8
ADD_LINE
  6
DOT
 62
  152
 10
942.77343260750524
 20
238.3121271571415
 11
943.480539388691
 21
237.60502037595484
  0
LINE
  8
ADD_LINE
  6
DOT
 62
  152
 10
943.480539388691
 20
237.60502037595484
 11
942.77343260750524
 21
236.89791359476817
  0
LINE
  8
_0-1_
  6
CENTER1
 62
  152
 10
955.480539388691
 20
237.60502037595484
 11
885.480539388691
 21
237.60502037595484
  0
LINE
  8
_0-0_
  6
CONTINUOUS
 62
    7
 10
883.480539388691
 20
234.77984366654596
 11
883.480539388691
 21
279.10502037595484
  0
LINE
  8
_0-0_
  6
CONTINUOUS
 62
    7
 10
889.480539388691
 20
229.10502037682522
 11
890.480539388691
 21
229.10502037682522
  0
LINE
  8
_0-0_
  6
CONTINUOUS
 62
    7
 10
893.68053938869082
 20
227.60502037595484
 11
895.38053938869155
 21
227.60502037595484
  0
LINE
  8
_0-0_
  6
CONTINUOUS
 62
    7
 10
936.980539388691
 20
216.60502037595484
 11
938.58053938869045
 21
218.10502037595484
  0
LINE
  8
_0-0_
  6
CONTINUOUS
 62
    7
 10
954.78053862575155
 20
242.60502037595484
 11
955.480539388691
 21
241.9050205666897
  0
LINE
  8
_0-1_
  6
CENTER1
 62
  152
 10
666.727342489546
 20
237.60502037595484
 11
601.727342489546
 21
237.60502037595484
  0
LINE
  8
_0-1_
  6
CENTER1
 62
  152
 10
609.227342489546
 20
231.44976896499406
 11
609.227342489546
 21
304.34653370850424
  0
LINE
  8
_0-0_
  6
CONTINUOUS
 62
    7
 10
624.28734243232566
 20
299.10502037595484
 11
624.28734243232566
 21
298.16502037833902
  0
LINE
  8
_0-0_
  6
CONTINUOUS
 62
    7
 10
624.28734243232566
 20
298.16502037833902
 11
637.16734254676658
 21
298.16502037833902
  0
LINE
  8
_0-0_
  6
CONTINUOUS
 62
    7
 10
637.16734254676658
 20
298.16502037833902
 11
637.16734254676658
 21
299.10502037595484
  0
LINE
  8
_0-0_
  6
CONTINUOUS
 62
    7
 10
635.72734248954612
 20
298.16502037833902
 11
635.72734248954612
 21
291.26502022336695
  0
LINE
  8
_0-0_
  6
CONTINUOUS
 62
    7
 10
635.72734248954612
 20
291.26502022336695
 11
635.12734258491355
 21
290.66502079557154
  0
LINE
  8
_0-0_
  6
CONTINUOUS
 62
    7
 10
635.12734258491355
 20
290.66502079557154
 11
626.32734239417869
 21
290.66502079557154
  0
LINE
  8
_0-0_
  6
CONTINUOUS
 62
    7
 10
626.32734239417869
 20
290.66502079557154
 11
625.72734248954612
 21
291.26502022336695
  0
LINE
  8
_0-0_
  6
CONTINUOUS
 62
    7
 10
625.72734248954612
 20
291.26502022336695
 11
625.72734248954612
 21
298.16502037833902
  0
LINE
  8
_0-0_
  6
CONTINUOUS
 62
    7
 10
625.72734248954612
 20
296.66502031873438
 11
635.72734248954612
 21
296.66502031873438
  0
LINE
  8
_0-0_
  6
CONTINUOUS
 62
    7
 10
635.10234248954612
 20
296.66502031873438
 11
635.10234248954612
 21
291.26502022336695
  0
LINE
  8
_0-0_
  6
CONTINUOUS
 62
    7
 10
635.72734248954612
 20
291.26502022336695
 11
625.72734248954612
 21
291.26502022336695
  0
LINE
  8
_0-0_
  6
CONTINUOUS
 62
    7
 10
625.72734248954612
 20
295.10502037595484
 11
575.72734248954612
 21
295.10502037595484
  0
LINE
  8
_0-0_
  6
CONTINUOUS
 62
    7
 10
575.72734248954612
 20
296.66502031873438
 11
565.72734248954612
 21
296.66502031873438
  0
LINE
  8
_0-0_
  6
CONTINUOUS
 62
    7
 10
565.72734248954612
 20
298.16502037833902
 11
565.72734248954612
 21
291.26502022336695
  0
LINE
  8
_0-0_
  6
CONTINUOUS
 62
    7
 10
565.72734248954612
 20
291.26502022336695
 11
566.32734239417869
 21
290.66502079557154
  0
LINE
  8
_0-0_
  6
CONTINUOUS
 62
    7
 10
566.32734239417869
 20
290.66502079557154
 11
575.12734258491355
 21
290.66502079557154
  0
LINE
  8
_0-0_
  6
CONTINUOUS
 62
    7
 10
575.12734258491355
 20
290.66502079557154
 11
575.72734248954612
 21
291.26502022336695
  0
LINE
  8
_0-0_
  6
CONTINUOUS
 62
    7
 10
575.72734248954612
 20
291.26502022336695
 11
575.72734248954612
 21
298.16502037833902
  0
LINE
  8
_0-0_
  6
CONTINUOUS
 62
    7
 10
577.16734254676658
 20
298.16502037833902
 11
577.16734254676658
 21
299.10502037595484
  0
LINE
  8
_0-0_
  6
CONTINUOUS
 62
    7
 10
577.16734254676658
 20
298.16502037833902
 11
564.28734243232566
 21
298.16502037833902
  0
LINE
  8
_0-0_
  6
CONTINUOUS
 62
    7
 10
564.28734243232566
 20
298.16502037833902
 11
564.28734243232566
 21
299.10502037595484
  0
LINE
  8
_0-0_
  6
CONTINUOUS
 62
    7
 10
565.72734248954612
 20
295.10502037595484
 11
561.727342489546
 21
295.10502037595484
  0
LINE
  8
_0-0_
  6
CONTINUOUS
 62
    7
 10
561.727342489546
 20
295.10502037595484
 11
561.727342489546
 21
314.10502037595484
  0
LINE
  8
_0-1_
  6
CENTER1
 62
  152
 10
570.72734248954612
 20
314.10502037595484
 11
570.72734248954612
 21
290.66502079557154
  0
LINE
  8
_0-0_
  6
CONTINUOUS
 62
    7
 10
572.60234248954612
 20
291.26502022336695
 11
572.60234248954612
 21
296.66502031873438
  0
LINE
  8
_0-0_
  6
CONTINUOUS
 62
    7
 10
573.22734248954612
 20
296.66502031873438
 11
573.22734248954612
 21
291.26502022336695
  0
LINE
  8
_0-0_
  6
CONTINUOUS
 62
    7
 10
573.85234248954612
 20
291.26502022336695
 11
573.85234248954612
 21
296.66502031873438
  0
LINE
  8
_0-0_
  6
CONTINUOUS
 62
    7
 10
574.47734248954612
 20
296.66502031873438
 11
574.47734248954612
 21
291.26502022336695
  0
LINE
  8
_0-0_
  6
CONTINUOUS
 62
    7
 10
575.10234248954612
 20
291.26502022336695
 11
575.10234248954612
 21
296.66502031873438
  0
LINE
  8
_0-0_
  6
CONTINUOUS
 62
    7
 10
570.29432979542571
 20
296.66502031873438
 11
571.16035518366652
 21
298.16502037833902
  0
LINE
  8
ADD_LINE
  6
DOT
 62
  152
 10
570.72734248954612
 20
299.10502037595484
 11
571.43444927073278
 21
299.8121271571415
  0
LINE
  8
ADD_LINE
  6
DOT
 62
  152
 10
570.72734248954612
 20
299.10502037595484
 11
570.02023570835945
 21
299.8121271571415
  0
LINE
  8
_0-0_
  6
CONTINUOUS
 62
    7
 10
565.72734248954612
 20
291.26502022336695
 11
575.72734248954612
 21
291.26502022336695
  0
LINE
  8
_0-0_
  6
CONTINUOUS
 62
    7
 10
580.64949414404475
 20
291.01092348993006
 11
581.16516466305495
 21
291.99390926480487
  0
LINE
  8
_0-0_
  6
CONTINUOUS
 62
    7
 10
581.16516466305495
 20
291.99390926480487
 11
581.8650313877132
 21
292.88236550286553
  0
LINE
  8
_0-0_
  6
CONTINUOUS
 62
    7
 10
581.8650313877132
 20
292.88236550286553
 11
582.72782922174031
 21
293.64929691089918
  0
LINE
  8
_0-0_
  6
CONTINUOUS
 62
    7
 10
582.72782922174031
 20
293.64929691089918
 11
583.727342489546
 21
294.27140066615874
  0
LINE
  8
_0-0_
  6
CONTINUOUS
 62
    7
 10
583.727342489546
 20
294.27140066615874
 11
584.83320148626638
 21
294.72977446084025
  0
LINE
  8
_0-0_
  6
CONTINUOUS
 62
    7
 10
584.83320148626638
 20
294.72977446084025
 11
586.01180524587755
 21
295.01049083914074
  0
LINE
  8
_0-0_
  6
CONTINUOUS
 62
    7
 10
586.01180524587755
 20
295.01049083914074
 11
587.227342489546
 21
295.10502037595484
  0
LINE
  8
_0-0_
  6
CONTINUOUS
 62
    7
 10
580.64949414404475
 20
291.01092348993006
 11
580.51913855704674
 21
290.6605759314549
  0
LINE
  8
_0-0_
  6
CONTINUOUS
 62
    7
 10
580.5191385570464
 20
290.6605759314541
 11
637.9355464220456
 21
290.6605759314541
  0
LINE
  8
_0-0_
  6
CONTINUOUS
 62
    7
 10
637.93554642202844
 20
290.66057593145416
 11
637.96462779023761
 21
289.8706152753673
  0
LINE
  8
_0-0_
  6
CONTINUOUS
 62
    7
 10
637.96462779023761
 20
289.8706152753673
 11
638.14758947901908
 21
289.0971447203172
  0
LINE
  8
_0-0_
  6
CONTINUOUS
 62
    7
 10
638.14758947901908
 20
289.0971447203172
 11
638.227342489546
 21
288.88279815365416
  0
LINE
  8
_0-0_
  6
CONTINUOUS
 62
    7
 10
638.227342489546
 20
288.8827981536549
 11
580.227342489546
 21
288.8827981536549
  0
LINE
  8
_0-0_
  6
CONTINUOUS
 62
    7
 10
580.227342489546
 20
288.8827981536549
 11
580.227342489546
 21
287.10502037585479
  0
LINE
  8
_0-0_
  6
CONTINUOUS
 62
    7
 10
580.227342489546
 20
287.10502037585479
 11
638.227342489546
 21
287.10502037585479
  0
LINE
  8
_0-0_
  6
CONTINUOUS
 62
    7
 10
638.227342489546
 20
287.10502037585479
 11
638.227342489546
 21
288.8827981536549
  0
LINE
  8
_0-0_
  6
CONTINUOUS
 62
    7
 10
637.93554642204526
 20
290.6605759314549
 11
637.48633737572447
 21
291.66900517086401
  0
LINE
  8
_0-0_
  6
CONTINUOUS
 62
    7
 10
637.48633737572447
 20
291.66900517086401
 11
635.72734248954612
 21
294.21036705399877
  0
LINE
  8
_0-0_
  6
CONTINUOUS
 62
    7
 10
636.43444927073267
 20
295.10502037595484
 11
656.727342489546
 21
295.10502037595484
  0
LINE
  8
_0-0_
  6
CONTINUOUS
 62
    7
 10
656.727342489546
 20
295.10502037595484
 11
656.727342489546
 21
299.10502037595484
  0
LINE
  8
_0-0_
  6
CONTINUOUS
 62
    7
 10
634.47734248954612
 20
296.66502031873438
 11
634.47734248954612
 21
291.26502022336695
  0
LINE
  8
_0-0_
  6
CONTINUOUS
 62
    7
 10
633.85234248954612
 20
291.26502022336695
 11
633.85234248954612
 21
296.66502031873438
  0
LINE
  8
_0-0_
  6
CONTINUOUS
 62
    7
 10
633.22734248954612
 20
296.66502031873438
 11
633.22734248954612
 21
291.26502022336695
  0
LINE
  8
_0-0_
  6
CONTINUOUS
 62
    7
 10
632.60234248954612
 20
291.26502022336695
 11
632.60234248954612
 21
296.66502031873438
  0
LINE
  8
_0-0_
  6
CONTINUOUS
 62
    7
 10
630.29432979542571
 20
296.66502031873438
 11
631.16035518366652
 21
298.16502037833902
  0
LINE
  8
ADD_LINE
  6
DOT
 62
  152
 10
630.72734248954612
 20
299.10502037595484
 11
631.43444927073278
 21
299.8121271571415
  0
LINE
  8
ADD_LINE
  6
DOT
 62
  152
 10
630.72734248954612
 20
299.10502037595484
 11
630.02023570835945
 21
299.8121271571415
  0
LINE
  8
_0-1_
  6
CENTER1
 62
  152
 10
630.72734248954612
 20
290.66502079557154
 11
630.72734248954612
 21
314.10502037595484
  0
LINE
  8
_0-0_
  6
CONTINUOUS
 62
    7
 10
636.43444927073267
 20
293.00574369866888
 11
636.84695193699133
 21
292.59277691994401
  0
LINE
  8
_0-0_
  6
CONTINUOUS
 62
    7
 10
636.727342489546
 20
285.10502037595484
 11
581.727342489546
 21
285.10502037595484
  0
LINE
  8
_0-0_
  6
CONTINUOUS
 62
    7
 10
580.227342489546
 20
288.88279815365416
 11
580.45338930778735
 21
289.64721492362679
  0
LINE
  8
_0-0_
  6
CONTINUOUS
 62
    7
 10
580.45338930778735
 20
289.64721492362679
 11
580.52666994046785
 21
290.43490970127777
  0
LINE
  8
_0-0_
  6
CONTINUOUS
 62
    7
 10
580.52666994046785
 20
290.43490970127777
 11
580.51913855706357
 21
290.66057593145416
  0
LINE
  8
_0-0_
  6
CONTINUOUS
 62
    7
 10
580.26826785684477
 20
275.10502037595484
 11
575.727342489546
 21
279.10502037595484
  0
LINE
  8
_0-0_
  6
CONTINUOUS
 62
    7
 10
628.32822977515696
 20
267.75440332315407
 11
621.22404022671105
 21
230.65474679238446
  0
LINE
  8
_0-1_
  6
CENTER1
 62
  152
 10
634.227342489546
 20
205.10502037595461
 11
634.227342489546
 21
270.10502037595484
  0
LINE
  8
_0-0_
  6
CONTINUOUS
 62
    7
 10
636.46425510039751
 20
272.06107999453502
 11
642.727342489546
 21
273.10502037595484
  0
LINE
  8
_0-0_
  6
CONTINUOUS
 62
    7
 10
642.727342489546
 20
273.10502037595484
 11
642.727342489546
 21
279.10502037595484
  0
LINE
  8
_0-0_
  6
CONTINUOUS
 62
    7
 10
368.05807508954609
 20
23.709877291472822
 11
366.55807508954609
 21
22.109877291472912
  0
LINE
  8
_0-1_
  6
CENTER1
 62
  152
 10
263.39184800028585
 20
19.209877291472367
 11
246.71572521884269
 21
19.209877291472367
  0
LINE
  8
_0-0_
  6
CONTINUOUS
 62
    7
 10
253.05807508954609
 20
20.653252998145035
 11
255.55807508954609
 21
22.096628704817704
  0
LINE
  8
_0-0_
  6
CONTINUOUS
 62
    7
 10
255.55807508954609
 20
22.096628704817704
 11
258.05807508954609
 21
20.653252998145035
  0
LINE
  8
_0-0_
  6
CONTINUOUS
 62
    7
 10
258.05807508954609
 20
20.653252998145035
 11
258.05807508954609
 21
17.766501584799698
  0
LINE
  8
_0-0_
  6
CONTINUOUS
 62
    7
 10
258.05807508954609
 20
17.766501584799698
 11
255.55807508954609
 21
16.32312587812703
  0
LINE
  8
_0-0_
  6
CONTINUOUS
 62
    7
 10
255.55807508954609
 20
16.32312587812703
 11
253.05807508954609
 21
17.766501584799698
  0
LINE
  8
_0-0_
  6
CONTINUOUS
 62
    7
 10
253.05807508954609
 20
17.766501584799698
 11
253.05807508954609
 21
20.653252998145035
  0
LINE
  8
_0-1_
  6
CENTER1
 62
  152
 10
255.55807508954609
 20
12.421908741301422
 11
255.55807508954609
 21
86.181182171935006
  0
LINE
  8
_0-0_
  6
CONTINUOUS
 62
    7
 10
255.55807508954609
 20
82.096628704817704
 11
258.05807508954609
 21
80.653252998145035
  0
LINE
  8
_0-0_
  6
CONTINUOUS
 62
    7
 10
258.05807508954609
 20
80.653252998145035
 11
258.05807508954609
 21
77.766501584799698
  0
LINE
  8
_0-0_
  6
CONTINUOUS
 62
    7
 10
258.05807508954609
 20
77.766501584799698
 11
255.55807508954609
 21
76.32312587812703
  0
LINE
  8
_0-0_
  6
CONTINUOUS
 62
    7
 10
255.55807508954609
 20
76.32312587812703
 11
253.05807508954609
 21
77.766501584799698
  0
LINE
  8
_0-0_
  6
CONTINUOUS
 62
    7
 10
253.05807508954609
 20
77.766501584799698
 11
253.05807508954609
 21
80.653252998145035
  0
LINE
  8
_0-0_
  6
CONTINUOUS
 62
    7
 10
253.05807508954609
 20
80.653252998145035
 11
255.55807508954609
 21
82.096628704817704
  0
LINE
  8
_0-1_
  6
CENTER1
 62
  152
 10
263.39184800028585
 20
79.209877291472367
 11
246.60649540706441
 21
79.209877291472367
  0
TEXT
  8
_0-1_
 62
    7
 10
322.63929040735877
 20
175.1622864651774
 40
10
 41
1
 50
0
  1
L
  0
TEXT
  8
_0-1_
 62
    7
 10
648.65111695137978
 20
176.26741130091983
 40
10
 41
1
 50
0
  1
R
  0
CIRCLE
  8
_0-0_
  6
CONTINUOUS
 62
    7
 10
347.55807508954609
 20
87.209877291472367
 40
3.4500000476837158
  0
CIRCLE
  8
_0-0_
  6
CONTINUOUS
 62
    7
 10
399.55807508954609
 20
87.209877291472367
 40
3.4500000476837158
  0
CIRCLE
  8
_0-0_
  6
CONTINUOUS
 62
    7
 10
350.55807508954609
 20
139.20987729147237
 40
5
  0
CIRCLE
  8
_0-0_
  6
CONTINUOUS
 62
    7
 10
410.55807508954609
 20
139.20987729147237
 40
5
  0
CIRCLE
  8
_0-0_
  6
CONTINUOUS
 62
    7
 10
255.55807508954609
 20
19.209877291472367
 40
5
  0
CIRCLE
  8
_0-0_
  6
CONTINUOUS
 62
    7
 10
255.55807508954609
 20
79.209877291472367
 40
5
  0
CIRCLE
  8
_0-0_
  6
CONTINUOUS
 62
    7
 10
408.55807508954609
 20
66.209877291472594
 40
6.5
  0
CIRCLE
  8
_0-0_
  6
CONTINUOUS
 62
    7
 10
408.55807508954609
 20
21.209877291472594
 40
6.5
  0
CIRCLE
  8
_0-0_
  6
CONTINUOUS
 62
    7
 10
399.55807508954609
 20
87.209877291472367
 40
4
  0
CIRCLE
  8
_0-0_
  6
CONTINUOUS
 62
    7
 10
347.55807508954609
 20
87.209877291472367
 40
4
  0
ARC
  8
_0-0_
  6
CONTINUOUS
 62
    7
 10
372.05807508954609
 20
43.709877291472594
 40
24
 50
244.15806723683113
 51
115.84193276316761
  0
ARC
  8
_0-0_
  6
CONTINUOUS
 62
    7
 10
317.55807508954609
 20
60.709877291472594
 40
3
 50
90
 51
180
  0
ARC
  8
_0-0_
  6
CONTINUOUS
 62
    7
 10
317.55807508954609
 20
26.709877291472594
 40
3
 50
180
 51
270
  0
ARC
  8
_0-0_
  6
CONTINUOUS
 62
    7
 10
414.55807508954609
 20
15.209877291472594
 40
5
 50
270
 51
0
  0
ARC
  8
_0-0_
  6
CONTINUOUS
 62
    7
 10
329.55807508954609
 20
15.209877291472594
 40
5
 50
180
 51
270
  0
ARC
  8
_0-0_
  6
CONTINUOUS
 62
    7
 10
414.55807508954609
 20
72.209877291472594
 40
5
 50
0
 51
90
  0
ARC
  8
_0-0_
  6
CONTINUOUS
 62
    7
 10
329.55807508954609
 20
72.209877291472594
 40
5
 50
90
 51
180
  0
ARC
  8
_0-0_
  6
CONTINUOUS
 62
    7
 10
339.55807508954609
 20
9.9598772914725942
 40
0.75
 50
180
 51
270
  0
ARC
  8
_0-0_
  6
CONTINUOUS
 62
    7
 10
339.27272108954554
 20
15.688240791472253
 40
5
 50
264.66785499999975
 51
305.24477999999999
  0
ARC
  8
_0-0_
  6
CONTINUOUS
 62
    7
 10
346.34806008954553
 20
20.684639291472195
 40
10
 50
245.22862399999991
 51
274.07151099999959
  0
ARC
  8
_0-0_
  6
CONTINUOUS
 62
    7
 10
354.84342908954574
 20
15.688240791472253
 40
5
 50
234.75521999999967
 51
275.33214499999991
  0
ARC
  8
_0-0_
  6
CONTINUOUS
 62
    7
 10
354.55807508954609
 20
9.9598772914725942
 40
0.75
 50
270
 51
0
  0
ARC
  8
_0-0_
  6
CONTINUOUS
 62
    7
 10
347.76809008954575
 20
20.684639291472195
 40
10
 50
265.92848900000001
 51
294.77137599999969
  0
ARC
  8
_0-0_
  6
CONTINUOUS
 62
    7
 10
346.07491658954592
 20
7.2583247914724325
 40
10
 50
95.64220432140786
 51
113.05933400000004
  0
ARC
  8
_0-0_
  6
CONTINUOUS
 62
    7
 10
348.04123358954627
 20
7.2583247914724325
 40
10
 50
66.94066600000005
 51
84.357795678592126
  0
ARC
  8
_0-0_
  6
CONTINUOUS
 62
    7
 10
339.40908808954561
 20
12.282831791472518
 40
5
 50
56.646882999999548
 51
80.200404461750779
  0
ARC
  8
_0-0_
  6
CONTINUOUS
 62
    7
 10
376.55807508954609
 20
26.709877291472822
 40
3
 50
270
 51
0
  0
ARC
  8
_0-0_
  6
CONTINUOUS
 62
    7
 10
376.55807508954609
 20
60.709877291472594
 40
3
 50
0
 51
89.999999999999986
  0
ARC
  8
_0-0_
  6
CONTINUOUS
 62
    7
 10
335.55807508954609
 20
21.209877291472594
 40
5.5
 50
226.6582417727777
 51
234.90319877241521
  0
ARC
  8
_0-0_
  6
CONTINUOUS
 62
    7
 10
372.05807508954609
 20
43.709877291472594
 40
12
 50
308.68218745348946
 51
51.317812546510538
  0
ARC
  8
_0-0_
  6
CONTINUOUS
 62
    7
 10
372.05807508954609
 20
43.709877291472594
 40
21
 50
257.67230522904612
 51
102.32769477095341
  0
ARC
  8
_0-0_
  6
CONTINUOUS
 62
    7
 10
372.05807508954609
 20
43.709877291472594
 40
33.5
 50
232.2832549072167
 51
127.71674509278245
  0
ARC
  8
_0-0_
  6
CONTINUOUS
 62
    7
 10
372.05807508954609
 20
43.709877291472594
 40
30.300000000000001
 50
230.26210384845885
 51
129.73789615153993
  0
ARC
  8
_0-0_
  6
CONTINUOUS
 62
    7
 10
347.05807508954609
 20
64.178627293323643
 40
11.031249998148837
 50
47.1999801306903
 51
140.40224730257353
  0
ARC
  8
_0-0_
  6
CONTINUOUS
 62
    7
 10
354.70706208954567
 20
12.282831791472518
 40
5
 50
118.86442265392623
 51
123.35311700000041
  0
CIRCLE
  8
_0-0_
  6
CONTINUOUS
 62
    7
 10
633.727342489546
 20
87.209877291472367
 40
3.4500000476837158
  0
CIRCLE
  8
_0-0_
  6
CONTINUOUS
 62
    7
 10
581.727342489546
 20
87.209877291472367
 40
3.4500000476837158
  0
CIRCLE
  8
_0-0_
  6
CONTINUOUS
 62
    7
 10
630.727342489546
 20
139.20987729147237
 40
5
  0
CIRCLE
  8
_0-0_
  6
CONTINUOUS
 62
    7
 10
570.727342489546
 20
139.20987729147237
 40
5
  0
CIRCLE
  8
_0-0_
  6
CONTINUOUS
 62
    7
 10
725.727342489546
 20
19.209877291472367
 40
5
  0
CIRCLE
  8
_0-0_
  6
CONTINUOUS
 62
    7
 10
725.727342489546
 20
79.209877291472367
 40
5
  0
CIRCLE
  8
_0-0_
  6
CONTINUOUS
 62
    7
 10
572.727342489546
 20
66.209877291472594
 40
6.5
  0
CIRCLE
  8
_0-0_
  6
CONTINUOUS
 62
    7
 10
572.727342489546
 20
21.209877291472594
 40
6.5
  0
CIRCLE
  8
_0-0_
  6
CONTINUOUS
 62
    7
 10
581.727342489546
 20
87.209877291472367
 40
4
  0
CIRCLE
  8
_0-0_
  6
CONTINUOUS
 62
    7
 10
633.727342489546
 20
87.209877291472367
 40
4
  0
ARC
  8
_0-0_
  6
CONTINUOUS
 62
    7
 10
609.227342489546
 20
43.709877291472594
 40
24
 50
64.158067236832366
 51
295.84193276316887
  0
ARC
  8
_0-0_
  6
CONTINUOUS
 62
    7
 10
663.727342489546
 20
60.709877291472594
 40
3
 50
0.0000000000000127
 51
90.000000000000014
  0
ARC
  8
_0-0_
  6
CONTINUOUS
 62
    7
 10
663.727342489546
 20
26.709877291472594
 40
3
 50
270
 51
0
  0
ARC
  8
_0-0_
  6
CONTINUOUS
 62
    7
 10
566.727342489546
 20
15.209877291472594
 40
5
 50
180
 51
270
  0
ARC
  8
_0-0_
  6
CONTINUOUS
 62
    7
 10
651.727342489546
 20
15.209877291472594
 40
5
 50
270
 51
0
  0
ARC
  8
_0-0_
  6
CONTINUOUS
 62
    7
 10
566.727342489546
 20
72.209877291472594
 40
5
 50
90
 51
180
  0
ARC
  8
_0-0_
  6
CONTINUOUS
 62
    7
 10
651.727342489546
 20
72.209877291472594
 40
5
 50
0
 51
90
  0
ARC
  8
_0-0_
  6
CONTINUOUS
 62
    7
 10
641.727342489546
 20
9.9598772914725942
 40
0.75
 50
270
 51
0
  0
ARC
  8
_0-0_
  6
CONTINUOUS
 62
    7
 10
642.01269648954656
 20
15.688240791472253
 40
5
 50
234.75522000000004
 51
275.3321450000002
  0
ARC
  8
_0-0_
  6
CONTINUOUS
 62
    7
 10
634.93735748954657
 20
20.684639291472195
 40
10
 50
265.92848900000041
 51
294.77137600000009
  0
ARC
  8
_0-0_
  6
CONTINUOUS
 62
    7
 10
626.44198848954636
 20
15.688240791472253
 40
5
 50
264.66785500000015
 51
305.24478000000033
  0
ARC
  8
_0-0_
  6
CONTINUOUS
 62
    7
 10
626.727342489546
 20
9.9598772914725942
 40
0.75
 50
180
 51
270
  0
ARC
  8
_0-0_
  6
CONTINUOUS
 62
    7
 10
633.51732748954635
 20
20.684639291472195
 40
10
 50
245.22862400000025
 51
274.07151099999993
  0
ARC
  8
_0-0_
  6
CONTINUOUS
 62
    7
 10
635.21050098954618
 20
7.2583247914724325
 40
10
 50
66.940666000000007
 51
84.357795678592154
  0
ARC
  8
_0-0_
  6
CONTINUOUS
 62
    7
 10
633.24418398954583
 20
7.2583247914724325
 40
10
 50
95.64220432140786
 51
113.05933399999995
  0
ARC
  8
_0-0_
  6
CONTINUOUS
 62
    7
 10
641.87632948954649
 20
12.282831791472518
 40
5
 50
99.799595538249221
 51
123.35311700000045
  0
ARC
  8
_0-0_
  6
CONTINUOUS
 62
    7
 10
604.727342489546
 20
26.709877291472822
 40
3
 50
180
 51
270
  0
ARC
  8
_0-0_
  6
CONTINUOUS
 62
    7
 10
604.727342489546
 20
60.709877291472594
 40
3
 50
90.000000000000028
 51
180
  0
ARC
  8
_0-0_
  6
CONTINUOUS
 62
    7
 10
645.727342489546
 20
21.209877291472594
 40
5.5
 50
305.09680122758482
 51
313.34175822722233
  0
ARC
  8
_0-0_
  6
CONTINUOUS
 62
    7
 10
609.227342489546
 20
43.709877291472594
 40
12
 50
128.68218745348949
 51
231.31781254651054
  0
ARC
  8
_0-0_
  6
CONTINUOUS
 62
    7
 10
609.227342489546
 20
43.709877291472594
 40
21
 50
77.672305229046586
 51
282.32769477095388
  0
ARC
  8
_0-0_
  6
CONTINUOUS
 62
    7
 10
609.227342489546
 20
43.709877291472594
 40
33.5
 50
52.283254907217575
 51
307.71674509278324
  0
ARC
  8
_0-0_
  6
CONTINUOUS
 62
    7
 10
609.227342489546
 20
43.709877291472594
 40
30.300000000000001
 50
50.262103848460029
 51
309.73789615154118
  0
ARC
  8
_0-0_
  6
CONTINUOUS
 62
    7
 10
634.227342489546
 20
64.178627293323643
 40
11.031249998148837
 50
39.597752697426507
 51
132.80001986930975
  0
ARC
  8
_0-0_
  6
CONTINUOUS
 62
    7
 10
626.57835548954642
 20
12.282831791472518
 40
5
 50
56.646882999999598
 51
61.135577346073767
  0
ARC
  8
_0-0_
  6
CONTINUOUS
 62
    7
 10
88.804878190401155
 20
262.06912199109206
 40
2
 50
0
 51
29.999999999999915
  0
ARC
  8
_0-0_
  6
CONTINUOUS
 62
    7
 10
85.604878190401337
 20
262.06912199109206
 40
2
 50
0
 51
30.000000000001442
  0
ARC
  8
_0-0_
  6
CONTINUOUS
 62
    7
 10
87.604878190401337
 20
266.60502037595484
 40
2
 50
180
 51
210.00000000000082
  0
ARC
  8
_0-0_
  6
CONTINUOUS
 62
    7
 10
89.604878190401337
 20
268.68348134503753
 40
2
 50
180
 51
209.99999999999986
  0
ARC
  8
_0-0_
  6
CONTINUOUS
 62
    7
 10
41.004878190400973
 20
266.60502037595484
 40
2
 50
329.99999999999994
 51
0
  0
ARC
  8
_0-0_
  6
CONTINUOUS
 62
    7
 10
43.004878190400973
 20
262.06912199109206
 40
2
 50
150.00000000000009
 51
180
  0
ARC
  8
_0-0_
  6
CONTINUOUS
 62
    7
 10
39.804878190401155
 20
262.06912199109206
 40
2
 50
149.99999999999977
 51
180
  0
ARC
  8
_0-0_
  6
CONTINUOUS
 62
    7
 10
43.004878190400973
 20
268.5476657518509
 40
2
 50
103.69273104115079
 51
180
  0
ARC
  8
_0-0_
  6
CONTINUOUS
 62
    7
 10
64.304878190401155
 20
181.12335371494783
 40
91.981666661191412
 50
75.326452380014757
 51
103.69273104114845
  0
ARC
  8
_0-0_
  6
CONTINUOUS
 62
    7
 10
87.804878190401155
 20
234.77984366654596
 40
10
 50
323.16371269154922
 51
0.0000000000000318
  0
ARC
  8
_0-0_
  6
CONTINUOUS
 62
    7
 10
91.804878190401155
 20
279.10502037595484
 40
6
 50
0
 51
90
  0
ARC
  8
_0-0_
  6
CONTINUOUS
 62
    7
 10
36.804878190401155
 20
279.10502037595484
 40
6
 50
90
 51
180
  0
ARC
  8
_0-0_
  6
CONTINUOUS
 62
    7
 10
89.304878190401155
 20
287.10502037585479
 40
1.9999999998999982
 50
270
 51
0
  0
ARC
  8
_0-0_
  6
CONTINUOUS
 62
    7
 10
39.304878190401155
 20
287.10502037585479
 40
1.9999999998999982
 50
180
 51
270
  0
ARC
  8
_0-0_
  6
CONTINUOUS
 62
    7
 10
30.554878190401155
 20
245.10502037595484
 40
0.75
 50
90
 51
180
  0
ARC
  8
_0-0_
  6
CONTINUOUS
 62
    7
 10
36.283241690400587
 20
245.39037437595539
 40
5
 50
174.66785499999978
 51
215.24477999999991
  0
ARC
  8
_0-0_
  6
CONTINUOUS
 62
    7
 10
41.279640190400983
 20
238.3150353759554
 40
10
 50
155.22862399999991
 51
184.07151099999959
  0
ARC
  8
_0-0_
  6
CONTINUOUS
 62
    7
 10
36.283241690400587
 20
229.81966637595519
 40
5
 50
144.75521999999964
 51
185.33214499999977
  0
ARC
  8
_0-0_
  6
CONTINUOUS
 62
    7
 10
30.554878190401155
 20
230.10502037595484
 40
0.75
 50
180
 51
270
  0
ARC
  8
_0-0_
  6
CONTINUOUS
 62
    7
 10
41.279640190400983
 20
236.89500537595518
 40
10
 50
175.92848900000004
 51
204.77137599999966
  0
ARC
  8
_0-0_
  6
CONTINUOUS
 62
    7
 10
27.853325690400538
 20
238.58817887595501
 40
10
 50
5.6422043214078608
 51
23.059334000000003
  0
ARC
  8
_0-0_
  6
CONTINUOUS
 62
    7
 10
27.853325690400538
 20
236.62186187595466
 40
10
 50
336.94066600000002
 51
354.35779567859214
  0
ARC
  8
_0-0_
  6
CONTINUOUS
 62
    7
 10
32.877832690400624
 20
229.95603337595526
 40
5
 50
9.7995955382493722
 51
33.353117000000431
  0
ARC
  8
_0-0_
  6
CONTINUOUS
 62
    7
 10
32.877832690400624
 20
245.25400737595533
 40
5
 50
326.64688299999955
 51
350.20040446175079
  0
ARC
  8
_0-0_
  6
CONTINUOUS
 62
    7
 10
84.773628192251977
 20
237.60502037595484
 40
11.031249998148837
 50
309.59775270452445
 51
50.402247302573535
  0
ARC
  8
_0-0_
  6
CONTINUOUS
 62
    7
 10
47.304878190401155
 20
208.10502037595484
 40
3
 50
180
 51
270
  0
ARC
  8
_0-0_
  6
CONTINUOUS
 62
    7
 10
81.304878190401155
 20
208.10502037595484
 40
3
 50
270
 51
0
  0
ARC
  8
_0-0_
  6
CONTINUOUS
 62
    7
 10
81.304878190401155
 20
267.10502037595484
 40
3
 50
0
 51
90
  0
ARC
  8
_0-0_
  6
CONTINUOUS
 62
    7
 10
47.304878190401155
 20
267.10502037595484
 40
3
 50
90
 51
180
  0
ARC
  8
_0-0_
  6
CONTINUOUS
 62
    7
 10
347.05807508954609
 20
237.60502037595484
 40
32.499999999999986
 50
87.698542921362574
 51
358.81215746833811
  0
ARC
  8
_0-0_
  6
CONTINUOUS
 62
    7
 10
347.05807508954609
 20
237.60502037595484
 40
15
 50
122.51361463000015
 51
280.14554443389676
  0
ARC
  8
_0-0_
  6
CONTINUOUS
 62
    7
 10
343.83468352423921
 20
266.14273062394091
 40
6
 50
344.13883118963372
 51
80.536854608056856
  0
ARC
  8
_0-0_
  6
CONTINUOUS
 62
    7
 10
325.5580750914433
 20
271.33557032820931
 40
24.999999999999943
 50
302.51361463000001
 51
344.13883118963389
  0
ARC
  8
_0-0_
  6
CONTINUOUS
 62
    7
 10
344.55807508954609
 20
279.10502037595484
 40
6
 50
90
 51
180
  0
ARC
  8
_0-0_
  6
CONTINUOUS
 62
    7
 10
338.55807508954609
 20
285.10502037595484
 40
63.254533465779254
 50
280.14554443389653
 51
350.90386635813945
  0
ARC
  8
_0-0_
  6
CONTINUOUS
 62
    7
 10
397.05807508954609
 20
287.10502037585479
 40
1.9999999998999982
 50
270
 51
0
  0
ARC
  8
_0-0_
  6
CONTINUOUS
 62
    7
 10
347.05807508954609
 20
287.10502037585479
 40
1.9999999998999982
 50
180
 51
270
  0
ARC
  8
_0-0_
  6
CONTINUOUS
 62
    7
 10
399.55807508954609
 20
279.10502037595484
 40
6
 50
0
 51
90
  0
CIRCLE
  8
_0-0_
  6
CONTINUOUS
 62
    7
 10
347.05807508954609
 20
237.60502037595484
 40
8.5
  0
ARC
  8
_0-0_
  6
CONTINUOUS
 62
    7
 10
347.05807508954609
 20
237.60502037595484
 40
26.499999999999986
 50
84.846905317308256
 51
347.84722568943033
  0
ARC
  8
_0-0_
  6
CONTINUOUS
 62
    7
 10
347.05807508954609
 20
237.60502037595484
 40
24.999999999999986
 50
85.643716984156185
 51
344.41035184164332
  0
ARC
  8
_0-0_
  6
CONTINUOUS
 62
    7
 10
347.05807508954609
 20
237.60502037595484
 40
20.999999999999986
 50
89.956682792545706
 51
332.72158301459029
  0
ARC
  8
_0-0_
  6
CONTINUOUS
 62
    7
 10
892.480539388691
 20
262.06912199109206
 40
2
 50
150.00000000000009
 51
180
  0
ARC
  8
_0-0_
  6
CONTINUOUS
 62
    7
 10
895.68053938869082
 20
262.06912199109206
 40
2
 50
149.99999999999855
 51
180
  0
ARC
  8
_0-0_
  6
CONTINUOUS
 62
    7
 10
893.68053938869082
 20
266.60502037595484
 40
2
 50
329.99999999999915
 51
0.000000000000019
  0
ARC
  8
_0-0_
  6
CONTINUOUS
 62
    7
 10
891.68053938869082
 20
268.68348134503753
 40
2
 50
330.00000000000011
 51
0
  0
ARC
  8
_0-0_
  6
CONTINUOUS
 62
    7
 10
940.28053938869118
 20
266.60502037595484
 40
2
 50
180
 51
210.00000000000006
  0
ARC
  8
_0-0_
  6
CONTINUOUS
 62
    7
 10
938.28053938869118
 20
262.06912199109206
 40
2
 50
0
 51
29.999999999999915
  0
ARC
  8
_0-0_
  6
CONTINUOUS
 62
    7
 10
941.480539388691
 20
262.06912199109206
 40
2
 50
0
 51
30.00000000000022
  0
ARC
  8
_0-0_
  6
CONTINUOUS
 62
    7
 10
938.28053938869118
 20
268.5476657518509
 40
2
 50
0
 51
76.307268958849207
  0
ARC
  8
_0-0_
  6
CONTINUOUS
 62
    7
 10
916.980539388691
 20
181.12335371494783
 40
91.981666661191412
 50
76.307268958851552
 51
104.67354761998524
  0
ARC
  8
_0-0_
  6
CONTINUOUS
 62
    7
 10
893.480539388691
 20
234.77984366654596
 40
10
 50
180
 51
216.83628730845086
  0
ARC
  8
_0-0_
  6
CONTINUOUS
 62
    7
 10
889.480539388691
 20
279.10502037595484
 40
6
 50
90
 51
180
  0
ARC
  8
_0-0_
  6
CONTINUOUS
 62
    7
 10
944.480539388691
 20
279.10502037595484
 40
6
 50
0
 51
90
  0
ARC
  8
_0-0_
  6
CONTINUOUS
 62
    7
 10
891.980539388691
 20
287.10502037585479
 40
1.9999999998999982
 50
180
 51
270
  0
ARC
  8
_0-0_
  6
CONTINUOUS
 62
    7
 10
941.980539388691
 20
287.10502037585479
 40
1.9999999998999982
 50
270
 51
0
  0
ARC
  8
_0-0_
  6
CONTINUOUS
 62
    7
 10
950.730539388691
 20
245.10502037595484
 40
0.75
 50
0
 51
90
  0
ARC
  8
_0-0_
  6
CONTINUOUS
 62
    7
 10
945.00217588869157
 20
245.39037437595539
 40
5
 50
324.75522000000001
 51
5.3321450000002173
  0
ARC
  8
_0-0_
  6
CONTINUOUS
 62
    7
 10
940.00577738869117
 20
238.3150353759554
 40
10
 50
355.92848900000041
 51
24.771376000000082
  0
ARC
  8
_0-0_
  6
CONTINUOUS
 62
    7
 10
945.00217588869157
 20
229.81966637595519
 40
5
 50
354.66785500000015
 51
35.244780000000354
  0
ARC
  8
_0-0_
  6
CONTINUOUS
 62
    7
 10
950.730539388691
 20
230.10502037595484
 40
0.75
 50
270
 51
0
  0
ARC
  8
_0-0_
  6
CONTINUOUS
 62
    7
 10
940.00577738869117
 20
236.89500537595518
 40
10
 50
335.22862400000025
 51
4.071510999999945
  0
ARC
  8
_0-0_
  6
CONTINUOUS
 62
    7
 10
953.43209188869162
 20
238.58817887595501
 40
10
 50
156.94066599999999
 51
174.35779567859217
  0
ARC
  8
_0-0_
  6
CONTINUOUS
 62
    7
 10
953.43209188869162
 20
236.62186187595466
 40
10
 50
185.64220432140786
 51
203.05933399999995
  0
ARC
  8
_0-0_
  6
CONTINUOUS
 62
    7
 10
948.40758488869153
 20
229.95603337595526
 40
5
 50
146.6468829999996
 51
170.20040446175059
  0
ARC
  8
_0-0_
  6
CONTINUOUS
 62
    7
 10
948.40758488869153
 20
245.25400737595533
 40
5
 50
189.79959553824918
 51
213.3531170000004
  0
ARC
  8
_0-0_
  6
CONTINUOUS
 62
    7
 10
896.51178938684018
 20
237.60502037595484
 40
11.031249998148837
 50
129.59775269742644
 51
230.40224729547555
  0
ARC
  8
_0-0_
  6
CONTINUOUS
 62
    7
 10
933.980539388691
 20
208.10502037595484
 40
3
 50
270
 51
0
  0
ARC
  8
_0-0_
  6
CONTINUOUS
 62
    7
 10
899.980539388691
 20
208.10502037595484
 40
3
 50
180
 51
270
  0
ARC
  8
_0-0_
  6
CONTINUOUS
 62
    7
 10
899.980539388691
 20
267.10502037595484
 40
3
 50
90
 51
180
  0
ARC
  8
_0-0_
  6
CONTINUOUS
 62
    7
 10
933.980539388691
 20
267.10502037595484
 40
3
 50
0
 51
90
  0
ARC
  8
_0-0_
  6
CONTINUOUS
 62
    7
 10
634.227342489546
 20
237.60502037595484
 40
32.499999999999986
 50
181.18784253166186
 51
92.301457078637455
  0
ARC
  8
_0-0_
  6
CONTINUOUS
 62
    7
 10
634.227342489546
 20
237.60502037595484
 40
15
 50
259.85445556610318
 51
57.486385369999823
  0
ARC
  8
_0-0_
  6
CONTINUOUS
 62
    7
 10
637.45073405485289
 20
266.14273062394091
 40
6
 50
99.463145391943172
 51
195.86116881036628
  0
ARC
  8
_0-0_
  6
CONTINUOUS
 62
    7
 10
655.7273424876488
 20
271.33557032820931
 40
24.999999999999943
 50
195.86116881036611
 51
237.48638536999999
  0
ARC
  8
_0-0_
  6
CONTINUOUS
 62
    7
 10
636.727342489546
 20
279.10502037595484
 40
6
 50
0
 51
90
  0
ARC
  8
_0-0_
  6
CONTINUOUS
 62
    7
 10
642.727342489546
 20
285.10502037595484
 40
63.254533465779254
 50
189.09613364186058
 51
259.85445556610347
  0
ARC
  8
_0-0_
  6
CONTINUOUS
 62
    7
 10
584.227342489546
 20
287.10502037585479
 40
1.9999999998999982
 50
180
 51
270
  0
ARC
  8
_0-0_
  6
CONTINUOUS
 62
    7
 10
634.227342489546
 20
287.10502037585479
 40
1.9999999998999982
 50
270
 51
0
  0
ARC
  8
_0-0_
  6
CONTINUOUS
 62
    7
 10
581.727342489546
 20
279.10502037595484
 40
6
 50
90
 51
180
  0
CIRCLE
  8
_0-0_
  6
CONTINUOUS
 62
    7
 10
634.227342489546
 20
237.60502037595484
 40
8.5
  0
ARC
  8
_0-0_
  6
CONTINUOUS
 62
    7
 10
634.227342489546
 20
237.60502037595484
 40
26.499999999999986
 50
192.15277431056961
 51
95.153094682691744
  0
ARC
  8
_0-0_
  6
CONTINUOUS
 62
    7
 10
634.227342489546
 20
237.60502037595484
 40
24.999999999999986
 50
195.58964815835668
 51
94.356283015843786
  0
ARC
  8
_0-0_
  6
CONTINUOUS
 62
    7
 10
634.227342489546
 20
237.60502037595484
 40
20.999999999999986
 50
207.27841698540968
 51
90.04331720745428
  0
ARC
  8
_0-1_
  6
CENTER1
 62
  152
 10
372.05807508954609
 20
43.709877291472594
 40
59.960403601043033
 50
102.03079844281828
 51
163.52957156039136
  0
ARC
  8
_0-1_
  6
CENTER1
 62
  152
 10
609.227342489546
 20
43.709877291472594
 40
59.960403601043033
 50
16.470428439608639
 51
77.969201557181734
  0
CIRCLE
  8
_0-0_
  6
CONTINUOUS
 62
    7
 10
694.727342489546
 20
108.20987729147237
 40
23.050000000000001
  0
CIRCLE
  8
_0-0_
  6
CONTINUOUS
 62
    7
 10
694.727342489546
 20
108.20987729147237
 40
25
  0
CIRCLE
  8
_0-0_
  6
CONTINUOUS
 62
    7
 10
694.727342489546
 20
108.20987729147237
 40
5
  0
CIRCLE
  8
_0-0_
  6
CONTINUOUS
 62
    7
 10
694.727342489546
 20
108.20987729147237
 40
10
  0
CIRCLE
  8
_0-0_
  6
CONTINUOUS
 62
    7
 10
286.55807508954609
 20
108.20987729147237
 40
23.050000000000001
  0
CIRCLE
  8
_0-0_
  6
CONTINUOUS
 62
    7
 10
286.55807508954609
 20
108.20987729147237
 40
25
  0
CIRCLE
  8
_0-0_
  6
CONTINUOUS
 62
    7
 10
286.55807508954609
 20
108.20987729147237
 40
5
  0
CIRCLE
  8
_0-0_
  6
CONTINUOUS
 62
    7
 10
286.55807508954609
 20
108.20987729147237
 40
10
  0
CIRCLE
  8
_0-0_
  6
CONTINUOUS
 62
    7
 10
570.727342489546
 20
139.20987729147237
 40
6.4400000569999998
  0
CIRCLE
  8
_0-0_
  6
CONTINUOUS
 62
    7
 10
630.727342489546
 20
139.20987729147237
 40
6.4400000569999998
  0
CIRCLE
  8
_0-0_
  6
CONTINUOUS
 62
    7
 10
725.727342489546
 20
79.209877291472367
 40
6.4400000569999998
  0
CIRCLE
  8
_0-0_
  6
CONTINUOUS
 62
    7
 10
725.727342489546
 20
19.209877291472367
 40
6.4400000569999998
  0
CIRCLE
  8
_0-0_
  6
CONTINUOUS
 62
    7
 10
410.55807508954609
 20
139.20987729147237
 40
6.4400000569999998
  0
CIRCLE
  8
_0-0_
  6
CONTINUOUS
 62
    7
 10
255.55807508954609
 20
79.209877291472367
 40
6.4400000569999998
  0
CIRCLE
  8
_0-0_
  6
CONTINUOUS
 62
    7
 10
255.55807508954609
 20
19.209877291472367
 40
6.4400000569999998
  0
CIRCLE
  8
_0-0_
  6
CONTINUOUS
 62
    7
 10
350.55807508954609
 20
139.20987729147237
 40
6.4400000569999998
  0
TEXT
  8
_0-f_
 62
    7
 10
0.27441048336334
 20
0.3235024350124717
 40
4.2999999999999998
 41
0.744186046511628
 50
0
  1
AIFFB-M16
  0
LINE
  8
_0-8_
  6
CONTINUOUS
 62
  152
 10
153.80487819040115
 20
207.90502037595508
 11
103.80487819040115
 21
207.90502037595508
  0
LINE
  8
_0-8_
  6
CONTINUOUS
 62
    7
 10
103.55487819040138
 20
200.10502037595506
 11
103.55487819040138
 21
197.10502037595495
  0
LINE
  8
_0-8_
  6
CONTINUOUS
 62
    7
 10
103.55487819040138
 20
197.10502037595495
 11
154.05487819040093
 21
197.10502037595495
  0
LINE
  8
_0-8_
  6
CONTINUOUS
 62
    7
 10
154.05487819040093
 20
197.10502037595495
 11
154.05487819040093
 21
200.10502037595506
  0
LINE
  8
_0-8_
  6
CONTINUOUS
 62
    7
 10
154.05487819040093
 20
200.10502037595506
 11
103.55487819040138
 21
200.10502037595506
  0
LINE
  8
_0-8_
  6
CONTINUOUS
 62
    7
 10
105.50487819040131
 20
197.10502037595495
 11
105.50487819040131
 21
194.10502037595484
  0
LINE
  8
_0-8_
  6
CONTINUOUS
 62
    7
 10
105.50487819040131
 20
194.10502037595484
 11
152.10487819040156
 21
194.10502037595484
  0
LINE
  8
_0-8_
  6
CONTINUOUS
 62
    7
 10
152.10487819040156
 20
194.10502037595484
 11
152.10487819040156
 21
197.10502037595495
  0
LINE
  8
_0-8_
  6
CONTINUOUS
 62
    7
 10
116.10317226822974
 20
221.10502037595484
 11
141.50658411257257
 21
221.10502037595484
  0
LINE
  8
_0-8_
  6
CONTINUOUS
 62
    7
 10
122.45402522931545
 20
221.10502037595484
 11
122.45402522931545
 21
213.30502037595494
  0
LINE
  8
_0-8_
  6
CONTINUOUS
 62
    7
 10
116.10317226822974
 20
213.30502037595494
 11
116.10317226822974
 21
221.10502037595484
  0
LINE
  8
_0-8_
  6
CONTINUOUS
 62
    7
 10
141.50658411257257
 20
221.10502037595484
 11
141.50658411257257
 21
213.30502037595494
  0
LINE
  8
_0-8_
  6
CONTINUOUS
 62
    7
 10
135.15573114931544
 20
213.30502037595494
 11
135.15573114931544
 21
221.10502037595484
  0
LINE
  8
_0-8_
  6
CONTINUOUS
 62
    7
 10
146.80487819040127
 20
211.30502037595505
 11
146.80487819040127
 21
210.90502037595485
  0
LINE
  8
_0-8_
  6
CONTINUOUS
 62
    7
 10
146.80487819040127
 20
211.30502037595505
 11
110.80487819040104
 21
211.30502037595505
  0
LINE
  8
_0-8_
  6
CONTINUOUS
 62
    7
 10
110.80487819040104
 20
211.30502037595505
 11
110.80487819040104
 21
210.90502037595485
  0
LINE
  8
_0-8_
  6
CONTINUOUS
 62
    7
 10
106.80487819040127
 20
210.90502037595485
 11
150.80487819010602
 21
210.90502037595485
  0
LINE
  8
_0-8_
  6
CONTINUOUS
 62
    7
 10
103.80487819040115
 20
207.90502037595508
 11
103.80487819040115
 21
200.10502037595506
  0
LINE
  8
_0-8_
  6
CONTINUOUS
 62
    7
 10
153.80487819040115
 20
200.10502037595506
 11
153.80487819040115
 21
207.90502037595508
  0
ARC
  8
_0-8_
  6
CONTINUOUS
 62
    7
 10
106.80487819040127
 20
207.90502037595508
 40
2.9999999999999858
 50
89.999999999999829
 51
180.0000000000002
  0
ARC
  8
_0-8_
  6
CONTINUOUS
 62
    7
 10
150.80487819040104
 20
207.90502037595508
 40
2.9999999999999933
 50
359.99999999999977
 51
90.000000000000199
  0
LINE
  8
_0-8_
  6
CONTINUOUS
 62
    7
 10
116.10317226823031
 20
213.30502037595494
 11
116.15141413161427
 21
212.95772402062113
  0
LINE
  8
_0-8_
  6
CONTINUOUS
 62
    7
 10
116.15141413161427
 20
212.95772402062113
 11
116.29467391715889
 21
212.62098008930366
  0
LINE
  8
_0-8_
  6
CONTINUOUS
 62
    7
 10
116.29467391715889
 20
212.62098008930366
 11
116.52859874877322
 21
212.305020375955
  0
LINE
  8
_0-8_
  6
CONTINUOUS
 62
    7
 10
116.52859874877322
 20
212.305020375955
 11
116.84608093882036
 21
212.01944515658192
  0
LINE
  8
_0-8_
  6
CONTINUOUS
 62
    7
 10
116.84608093882036
 20
212.01944515658192
 11
117.23747395160956
 21
211.77293148971705
  0
LINE
  8
_0-8_
  6
CONTINUOUS
 62
    7
 10
117.23747395160956
 20
211.77293148971705
 11
117.69088550850154
 21
211.57296956838616
  0
LINE
  8
_0-8_
  6
CONTINUOUS
 62
    7
 10
117.69088550850154
 20
211.57296956838616
 11
118.19253892877759
 21
211.42563513438324
  0
LINE
  8
_0-8_
  6
CONTINUOUS
 62
    7
 10
118.19253892877759
 20
211.42563513438324
 11
118.7271917271114
 21
211.33540486993064
  0
LINE
  8
_0-8_
  6
CONTINUOUS
 62
    7
 10
118.7271917271114
 20
211.33540486993064
 11
119.27859874877288
 21
211.30502037595505
  0
LINE
  8
_0-8_
  6
CONTINUOUS
 62
    7
 10
119.27859874877288
 20
211.30502037595505
 11
119.83000577043435
 21
211.33540486993064
  0
LINE
  8
_0-8_
  6
CONTINUOUS
 62
    7
 10
119.83000577043435
 20
211.33540486993064
 11
120.36465856876816
 21
211.42563513438324
  0
LINE
  8
_0-8_
  6
CONTINUOUS
 62
    7
 10
120.36465856876816
 20
211.42563513438324
 11
120.86631198904411
 21
211.57296956838616
  0
LINE
  8
_0-8_
  6
CONTINUOUS
 62
    7
 10
120.86631198904411
 20
211.57296956838616
 11
121.3197235459362
 21
211.77293148971705
  0
LINE
  8
_0-8_
  6
CONTINUOUS
 62
    7
 10
121.3197235459362
 20
211.77293148971705
 11
121.71111655872539
 21
212.01944515658192
  0
LINE
  8
_0-8_
  6
CONTINUOUS
 62
    7
 10
121.71111655872539
 20
212.01944515658192
 11
122.02859874877254
 21
212.305020375955
  0
LINE
  8
_0-8_
  6
CONTINUOUS
 62
    7
 10
122.02859874877254
 20
212.305020375955
 11
122.26252358038687
 21
212.62098008930366
  0
LINE
  8
_0-8_
  6
CONTINUOUS
 62
    7
 10
122.26252358038687
 20
212.62098008930366
 11
122.40578336593148
 21
212.95772402062113
  0
LINE
  8
_0-8_
  6
CONTINUOUS
 62
    7
 10
122.40578336593148
 20
212.95772402062113
 11
122.45402522931545
 21
213.30502037595494
  0
LINE
  8
_0-8_
  6
CONTINUOUS
 62
    7
 10
122.45402522931545
 20
213.30502037595494
 11
122.45402522931545
 21
213.30502051958376
  0
LINE
  8
_0-8_
  6
CONTINUOUS
 62
    7
 10
122.45402522931545
 20
213.30502051958376
 11
122.550508876869
 21
212.9577241620679
  0
LINE
  8
_0-8_
  6
CONTINUOUS
 62
    7
 10
122.550508876869
 20
212.9577241620679
 11
122.83702837111764
 21
212.62098022427057
  0
LINE
  8
_0-8_
  6
CONTINUOUS
 62
    7
 10
122.83702837111764
 20
212.62098022427057
 11
123.3048779622145
 21
212.30502050034119
  0
LINE
  8
_0-8_
  6
CONTINUOUS
 62
    7
 10
123.3048779622145
 20
212.30502050034119
 11
123.93984227707745
 21
212.01944526660799
  0
LINE
  8
_0-8_
  6
CONTINUOUS
 62
    7
 10
123.93984227707745
 20
212.01944526660799
 11
124.72262824630673
 21
211.77293158203992
  0
LINE
  8
_0-8_
  6
CONTINUOUS
 62
    7
 10
124.72262824630673
 20
211.77293158203992
 11
125.62945131433617
 21
211.5729696402006
  0
LINE
  8
_0-8_
  6
CONTINUOUS
 62
    7
 10
125.62945131433617
 20
211.5729696402006
 11
126.6327581211184
 21
211.42563518350715
  0
LINE
  8
_0-8_
  6
CONTINUOUS
 62
    7
 10
126.6327581211184
 20
211.42563518350715
 11
127.70206369702692
 21
211.33540489487154
  0
LINE
  8
_0-8_
  6
CONTINUOUS
 62
    7
 10
127.70206369702692
 20
211.33540489487154
 11
128.80487773323262
 21
211.30502037595505
  0
LINE
  8
_0-8_
  6
CONTINUOUS
 62
    7
 10
128.80487773323262
 20
211.30502037595505
 11
129.90769178329617
 21
211.33540484498974
  0
LINE
  8
_0-8_
  6
CONTINUOUS
 62
    7
 10
129.90769178329617
 20
211.33540484498974
 11
130.97699740035728
 21
211.42563508525927
  0
LINE
  8
_0-8_
  6
CONTINUOUS
 62
    7
 10
130.97699740035728
 20
211.42563508525927
 11
131.98030427433616
 21
211.57296949657177
  0
LINE
  8
_0-8_
  6
CONTINUOUS
 62
    7
 10
131.98030427433616
 20
211.57296949657177
 11
132.88712743356484
 21
211.77293139739425
  0
LINE
  8
_0-8_
  6
CONTINUOUS
 62
    7
 10
132.88712743356484
 20
211.77293139739425
 11
133.66991351522483
 21
212.01944504655586
  0
LINE
  8
_0-8_
  6
CONTINUOUS
 62
    7
 10
133.66991351522483
 20
212.01944504655586
 11
134.30487796033367
 21
212.30502025156881
  0
LINE
  8
_0-8_
  6
CONTINUOUS
 62
    7
 10
134.30487796033367
 20
212.30502025156881
 11
134.77272769553429
 21
212.62097995433669
  0
LINE
  8
_0-8_
  6
CONTINUOUS
 62
    7
 10
134.77272769553429
 20
212.62097995433669
 11
135.059247343366
 21
212.9577238791743
  0
LINE
  8
_0-8_
  6
CONTINUOUS
 62
    7
 10
135.059247343366
 20
212.9577238791743
 11
135.15573114931544
 21
213.30502023232611
  0
LINE
  8
_0-8_
  6
CONTINUOUS
 62
    7
 10
135.15573114931544
 20
213.30502023232611
 11
135.15573114931544
 21
213.30502037595494
  0
LINE
  8
_0-8_
  6
CONTINUOUS
 62
    7
 10
135.15573115148686
 20
213.30502051958376
 11
135.20397297527188
 21
212.9577241620679
  0
LINE
  8
_0-8_
  6
CONTINUOUS
 62
    7
 10
135.20397297527188
 20
212.9577241620679
 11
135.3472327224207
 21
212.62098022427057
  0
LINE
  8
_0-8_
  6
CONTINUOUS
 62
    7
 10
135.3472327224207
 20
212.62098022427057
 11
135.58115751800904
 21
212.30502050034119
  0
LINE
  8
_0-8_
  6
CONTINUOUS
 62
    7
 10
135.58115751800904
 20
212.30502050034119
 11
135.89863967549479
 21
212.01944526660799
  0
LINE
  8
_0-8_
  6
CONTINUOUS
 62
    7
 10
135.89863967549479
 20
212.01944526660799
 11
136.29003266017628
 21
211.77293158203992
  0
LINE
  8
_0-8_
  6
CONTINUOUS
 62
    7
 10
136.29003266017628
 20
211.77293158203992
 11
136.74344419426848
 21
211.5729696402006
  0
LINE
  8
_0-8_
  6
CONTINUOUS
 62
    7
 10
136.74344419426848
 20
211.5729696402006
 11
137.24509759774537
 21
211.42563518350715
  0
LINE
  8
_0-8_
  6
CONTINUOUS
 62
    7
 10
137.24509759774537
 20
211.42563518350715
 11
137.77975038579098
 21
211.33540489487154
  0
LINE
  8
_0-8_
  6
CONTINUOUS
 62
    7
 10
137.77975038579098
 20
211.33540489487154
 11
138.33115740398807
 21
211.30502037595505
  0
LINE
  8
_0-8_
  6
CONTINUOUS
 62
    7
 10
138.33115740398807
 20
211.30502037595505
 11
138.88256442911404
 21
211.33540484498974
  0
LINE
  8
_0-8_
  6
CONTINUOUS
 62
    7
 10
138.88256442911404
 20
211.33540484498974
 11
139.41721723773594
 21
211.42563508525927
  0
LINE
  8
_0-8_
  6
CONTINUOUS
 62
    7
 10
139.41721723773594
 20
211.42563508525927
 11
139.91887067481105
 21
211.57296949657177
  0
LINE
  8
_0-8_
  6
CONTINUOUS
 62
    7
 10
139.91887067481105
 20
211.57296949657177
 11
140.37228225450292
 21
211.77293139739425
  0
LINE
  8
_0-8_
  6
CONTINUOUS
 62
    7
 10
140.37228225450292
 20
211.77293139739425
 11
140.76367529539971
 21
212.01944504655586
  0
LINE
  8
_0-8_
  6
CONTINUOUS
 62
    7
 10
140.76367529539971
 20
212.01944504655586
 11
141.08115751800835
 21
212.30502025156881
  0
LINE
  8
_0-8_
  6
CONTINUOUS
 62
    7
 10
141.08115751800835
 20
212.30502025156881
 11
141.31508238564868
 21
212.62097995433669
  0
LINE
  8
_0-8_
  6
CONTINUOUS
 62
    7
 10
141.31508238564868
 20
212.62097995433669
 11
141.45834220958909
 21
212.9577238791743
  0
LINE
  8
_0-8_
  6
CONTINUOUS
 62
    7
 10
141.45834220958909
 20
212.9577238791743
 11
141.506584112572
 21
213.30502023232611
  0
LINE
  8
_0-8_
  6
CONTINUOUS
 62
    7
 10
141.506584112572
 20
213.30502023232611
 11
141.506584112572
 21
213.30502037595494
  0
LINE
  8
_0-8_
  6
CONTINUOUS
 62
  152
 10
311.55807508954609
 20
207.90502037595508
 11
261.55807508954609
 21
207.90502037595508
  0
LINE
  8
_0-8_
  6
CONTINUOUS
 62
    7
 10
261.30807508954632
 20
200.10502037595506
 11
261.30807508954632
 21
197.10502037595495
  0
LINE
  8
_0-8_
  6
CONTINUOUS
 62
    7
 10
261.30807508954632
 20
197.10502037595495
 11
311.80807508954587
 21
197.10502037595495
  0
LINE
  8
_0-8_
  6
CONTINUOUS
 62
    7
 10
311.80807508954587
 20
197.10502037595495
 11
311.80807508954587
 21
200.10502037595506
  0
LINE
  8
_0-8_
  6
CONTINUOUS
 62
    7
 10
311.80807508954587
 20
200.10502037595506
 11
261.30807508954632
 21
200.10502037595506
  0
LINE
  8
_0-8_
  6
CONTINUOUS
 62
    7
 10
263.25807508954625
 20
197.10502037595495
 11
263.25807508954625
 21
194.10502037595484
  0
LINE
  8
_0-8_
  6
CONTINUOUS
 62
    7
 10
263.25807508954625
 20
194.10502037595484
 11
309.8580750895465
 21
194.10502037595484
  0
LINE
  8
_0-8_
  6
CONTINUOUS
 62
    7
 10
309.8580750895465
 20
194.10502037595484
 11
309.8580750895465
 21
197.10502037595495
  0
LINE
  8
_0-8_
  6
CONTINUOUS
 62
    7
 10
273.85636916737468
 20
221.10502037595484
 11
299.25978101171751
 21
221.10502037595484
  0
LINE
  8
_0-8_
  6
CONTINUOUS
 62
    7
 10
280.20722212846039
 20
221.10502037595484
 11
280.20722212846039
 21
213.30502037595494
  0
LINE
  8
_0-8_
  6
CONTINUOUS
 62
    7
 10
273.85636916737468
 20
213.30502037595494
 11
273.85636916737468
 21
221.10502037595484
  0
LINE
  8
_0-8_
  6
CONTINUOUS
 62
    7
 10
299.25978101171751
 20
221.10502037595484
 11
299.25978101171751
 21
213.30502037595494
  0
LINE
  8
_0-8_
  6
CONTINUOUS
 62
    7
 10
292.90892804846038
 20
213.30502037595494
 11
292.90892804846038
 21
221.10502037595484
  0
LINE
  8
_0-8_
  6
CONTINUOUS
 62
    7
 10
304.55807508954621
 20
211.30502037595505
 11
304.55807508954621
 21
210.90502037595485
  0
LINE
  8
_0-8_
  6
CONTINUOUS
 62
    7
 10
304.55807508954621
 20
211.30502037595505
 11
268.55807508954598
 21
211.30502037595505
  0
LINE
  8
_0-8_
  6
CONTINUOUS
 62
    7
 10
268.55807508954598
 20
211.30502037595505
 11
268.55807508954598
 21
210.90502037595485
  0
LINE
  8
_0-8_
  6
CONTINUOUS
 62
    7
 10
264.55807508954621
 20
210.90502037595485
 11
308.55807508925096
 21
210.90502037595485
  0
LINE
  8
_0-8_
  6
CONTINUOUS
 62
    7
 10
261.55807508954609
 20
207.90502037595508
 11
261.55807508954609
 21
200.10502037595506
  0
LINE
  8
_0-8_
  6
CONTINUOUS
 62
    7
 10
311.55807508954609
 20
200.10502037595506
 11
311.55807508954609
 21
207.90502037595508
  0
ARC
  8
_0-8_
  6
CONTINUOUS
 62
    7
 10
264.55807508954621
 20
207.90502037595508
 40
2.9999999999999858
 50
89.999999999999829
 51
180.0000000000002
  0
ARC
  8
_0-8_
  6
CONTINUOUS
 62
    7
 10
308.55807508954598
 20
207.90502037595508
 40
2.9999999999999933
 50
359.99999999999977
 51
90.000000000000199
  0
LINE
  8
_0-8_
  6
CONTINUOUS
 62
    7
 10
273.85636916737525
 20
213.30502037595494
 11
273.90461103075921
 21
212.95772402062113
  0
LINE
  8
_0-8_
  6
CONTINUOUS
 62
    7
 10
273.90461103075921
 20
212.95772402062113
 11
274.04787081630383
 21
212.62098008930366
  0
LINE
  8
_0-8_
  6
CONTINUOUS
 62
    7
 10
274.04787081630383
 20
212.62098008930366
 11
274.28179564791816
 21
212.305020375955
  0
LINE
  8
_0-8_
  6
CONTINUOUS
 62
    7
 10
274.28179564791816
 20
212.305020375955
 11
274.5992778379653
 21
212.01944515658192
  0
LINE
  8
_0-8_
  6
CONTINUOUS
 62
    7
 10
274.5992778379653
 20
212.01944515658192
 11
274.9906708507545
 21
211.77293148971705
  0
LINE
  8
_0-8_
  6
CONTINUOUS
 62
    7
 10
274.9906708507545
 20
211.77293148971705
 11
275.44408240764648
 21
211.57296956838616
  0
LINE
  8
_0-8_
  6
CONTINUOUS
 62
    7
 10
275.44408240764648
 20
211.57296956838616
 11
275.94573582792253
 21
211.42563513438324
  0
LINE
  8
_0-8_
  6
CONTINUOUS
 62
    7
 10
275.94573582792253
 20
211.42563513438324
 11
276.48038862625634
 21
211.33540486993064
  0
LINE
  8
_0-8_
  6
CONTINUOUS
 62
    7
 10
276.48038862625634
 20
211.33540486993064
 11
277.03179564791782
 21
211.30502037595505
  0
LINE
  8
_0-8_
  6
CONTINUOUS
 62
    7
 10
277.03179564791782
 20
211.30502037595505
 11
277.58320266957929
 21
211.33540486993064
  0
LINE
  8
_0-8_
  6
CONTINUOUS
 62
    7
 10
277.58320266957929
 20
211.33540486993064
 11
278.1178554679131
 21
211.42563513438324
  0
LINE
  8
_0-8_
  6
CONTINUOUS
 62
    7
 10
278.1178554679131
 20
211.42563513438324
 11
278.61950888818905
 21
211.57296956838616
  0
LINE
  8
_0-8_
  6
CONTINUOUS
 62
    7
 10
278.61950888818905
 20
211.57296956838616
 11
279.07292044508114
 21
211.77293148971705
  0
LINE
  8
_0-8_
  6
CONTINUOUS
 62
    7
 10
279.07292044508114
 20
211.77293148971705
 11
279.46431345787033
 21
212.01944515658192
  0
LINE
  8
_0-8_
  6
CONTINUOUS
 62
    7
 10
279.46431345787033
 20
212.01944515658192
 11
279.78179564791748
 21
212.305020375955
  0
LINE
  8
_0-8_
  6
CONTINUOUS
 62
    7
 10
279.78179564791748
 20
212.305020375955
 11
280.01572047953181
 21
212.62098008930366
  0
LINE
  8
_0-8_
  6
CONTINUOUS
 62
    7
 10
280.01572047953181
 20
212.62098008930366
 11
280.15898026507642
 21
212.95772402062113
  0
LINE
  8
_0-8_
  6
CONTINUOUS
 62
    7
 10
280.15898026507642
 20
212.95772402062113
 11
280.20722212846039
 21
213.30502037595494
  0
LINE
  8
_0-8_
  6
CONTINUOUS
 62
    7
 10
280.20722212846039
 20
213.30502037595494
 11
280.20722212846039
 21
213.30502051958376
  0
LINE
  8
_0-8_
  6
CONTINUOUS
 62
    7
 10
280.20722212846039
 20
213.30502051958376
 11
280.30370577601394
 21
212.9577241620679
  0
LINE
  8
_0-8_
  6
CONTINUOUS
 62
    7
 10
280.30370577601394
 20
212.9577241620679
 11
280.59022527026258
 21
212.62098022427057
  0
LINE
  8
_0-8_
  6
CONTINUOUS
 62
    7
 10
280.59022527026258
 20
212.62098022427057
 11
281.05807486135944
 21
212.30502050034119
  0
LINE
  8
_0-8_
  6
CONTINUOUS
 62
    7
 10
281.05807486135944
 20
212.30502050034119
 11
281.69303917622238
 21
212.01944526660799
  0
LINE
  8
_0-8_
  6
CONTINUOUS
 62
    7
 10
281.69303917622238
 20
212.01944526660799
 11
282.47582514545167
 21
211.77293158203992
  0
LINE
  8
_0-8_
  6
CONTINUOUS
 62
    7
 10
282.47582514545167
 20
211.77293158203992
 11
283.3826482134811
 21
211.5729696402006
  0
LINE
  8
_0-8_
  6
CONTINUOUS
 62
    7
 10
283.3826482134811
 20
211.5729696402006
 11
284.38595502026334
 21
211.42563518350715
  0
LINE
  8
_0-8_
  6
CONTINUOUS
 62
    7
 10
284.38595502026334
 20
211.42563518350715
 11
285.45526059617185
 21
211.33540489487154
  0
LINE
  8
_0-8_
  6
CONTINUOUS
 62
    7
 10
285.45526059617185
 20
211.33540489487154
 11
286.55807463237755
 21
211.30502037595505
  0
LINE
  8
_0-8_
  6
CONTINUOUS
 62
    7
 10
286.55807463237755
 20
211.30502037595505
 11
287.66088868244111
 21
211.33540484498974
  0
LINE
  8
_0-8_
  6
CONTINUOUS
 62
    7
 10
287.66088868244111
 20
211.33540484498974
 11
288.73019429950222
 21
211.42563508525927
  0
LINE
  8
_0-8_
  6
CONTINUOUS
 62
    7
 10
288.73019429950222
 20
211.42563508525927
 11
289.7335011734811
 21
211.57296949657177
  0
LINE
  8
_0-8_
  6
CONTINUOUS
 62
    7
 10
289.7335011734811
 20
211.57296949657177
 11
290.64032433270978
 21
211.77293139739425
  0
LINE
  8
_0-8_
  6
CONTINUOUS
 62
    7
 10
290.64032433270978
 20
211.77293139739425
 11
291.42311041436977
 21
212.01944504655586
  0
LINE
  8
_0-8_
  6
CONTINUOUS
 62
    7
 10
291.42311041436977
 20
212.01944504655586
 11
292.05807485947861
 21
212.30502025156881
  0
LINE
  8
_0-8_
  6
CONTINUOUS
 62
    7
 10
292.05807485947861
 20
212.30502025156881
 11
292.52592459467922
 21
212.62097995433669
  0
LINE
  8
_0-8_
  6
CONTINUOUS
 62
    7
 10
292.52592459467922
 20
212.62097995433669
 11
292.81244424251094
 21
212.9577238791743
  0
LINE
  8
_0-8_
  6
CONTINUOUS
 62
    7
 10
292.81244424251094
 20
212.9577238791743
 11
292.90892804846038
 21
213.30502023232611
  0
LINE
  8
_0-8_
  6
CONTINUOUS
 62
    7
 10
292.90892804846038
 20
213.30502023232611
 11
292.90892804846038
 21
213.30502037595494
  0
LINE
  8
_0-8_
  6
CONTINUOUS
 62
    7
 10
292.9089280506318
 20
213.30502051958376
 11
292.95716987441682
 21
212.9577241620679
  0
LINE
  8
_0-8_
  6
CONTINUOUS
 62
    7
 10
292.95716987441682
 20
212.9577241620679
 11
293.10042962156564
 21
212.62098022427057
  0
LINE
  8
_0-8_
  6
CONTINUOUS
 62
    7
 10
293.10042962156564
 20
212.62098022427057
 11
293.33435441715397
 21
212.30502050034119
  0
LINE
  8
_0-8_
  6
CONTINUOUS
 62
    7
 10
293.33435441715397
 20
212.30502050034119
 11
293.65183657463973
 21
212.01944526660799
  0
LINE
  8
_0-8_
  6
CONTINUOUS
 62
    7
 10
293.65183657463973
 20
212.01944526660799
 11
294.04322955932122
 21
211.77293158203992
  0
LINE
  8
_0-8_
  6
CONTINUOUS
 62
    7
 10
294.04322955932122
 20
211.77293158203992
 11
294.49664109341342
 21
211.5729696402006
  0
LINE
  8
_0-8_
  6
CONTINUOUS
 62
    7
 10
294.49664109341342
 20
211.5729696402006
 11
294.99829449689031
 21
211.42563518350715
  0
LINE
  8
_0-8_
  6
CONTINUOUS
 62
    7
 10
294.99829449689031
 20
211.42563518350715
 11
295.53294728493591
 21
211.33540489487154
  0
LINE
  8
_0-8_
  6
CONTINUOUS
 62
    7
 10
295.53294728493591
 20
211.33540489487154
 11
296.08435430313301
 21
211.30502037595505
  0
LINE
  8
_0-8_
  6
CONTINUOUS
 62
    7
 10
296.08435430313301
 20
211.30502037595505
 11
296.63576132825898
 21
211.33540484498974
  0
LINE
  8
_0-8_
  6
CONTINUOUS
 62
    7
 10
296.63576132825898
 20
211.33540484498974
 11
297.17041413688088
 21
211.42563508525927
  0
LINE
  8
_0-8_
  6
CONTINUOUS
 62
    7
 10
297.17041413688088
 20
211.42563508525927
 11
297.67206757395599
 21
211.57296949657177
  0
LINE
  8
_0-8_
  6
CONTINUOUS
 62
    7
 10
297.67206757395599
 20
211.57296949657177
 11
298.12547915364786
 21
211.77293139739425
  0
LINE
  8
_0-8_
  6
CONTINUOUS
 62
    7
 10
298.12547915364786
 20
211.77293139739425
 11
298.51687219454465
 21
212.01944504655586
  0
LINE
  8
_0-8_
  6
CONTINUOUS
 62
    7
 10
298.51687219454465
 20
212.01944504655586
 11
298.83435441715329
 21
212.30502025156881
  0
LINE
  8
_0-8_
  6
CONTINUOUS
 62
    7
 10
298.83435441715329
 20
212.30502025156881
 11
299.06827928479362
 21
212.62097995433669
  0
LINE
  8
_0-8_
  6
CONTINUOUS
 62
    7
 10
299.06827928479362
 20
212.62097995433669
 11
299.21153910873403
 21
212.9577238791743
  0
LINE
  8
_0-8_
  6
CONTINUOUS
 62
    7
 10
299.21153910873403
 20
212.9577238791743
 11
299.25978101171694
 21
213.30502023232611
  0
LINE
  8
_0-8_
  6
CONTINUOUS
 62
    7
 10
299.25978101171694
 20
213.30502023232611
 11
299.25978101171694
 21
213.30502037595494
  0
LINE
  8
_0-8_
  6
CONTINUOUS
 62
  152
 10
719.727342489546
 20
207.90502037595508
 11
669.727342489546
 21
207.90502037595508
  0
LINE
  8
_0-8_
  6
CONTINUOUS
 62
    7
 10
669.47734248954623
 20
200.10502037595506
 11
669.47734248954623
 21
197.10502037595495
  0
LINE
  8
_0-8_
  6
CONTINUOUS
 62
    7
 10
669.47734248954623
 20
197.10502037595495
 11
719.97734248954578
 21
197.10502037595495
  0
LINE
  8
_0-8_
  6
CONTINUOUS
 62
    7
 10
719.97734248954578
 20
197.10502037595495
 11
719.97734248954578
 21
200.10502037595506
  0
LINE
  8
_0-8_
  6
CONTINUOUS
 62
    7
 10
719.97734248954578
 20
200.10502037595506
 11
669.47734248954623
 21
200.10502037595506
  0
LINE
  8
_0-8_
  6
CONTINUOUS
 62
    7
 10
671.42734248954616
 20
197.10502037595495
 11
671.42734248954616
 21
194.10502037595484
  0
LINE
  8
_0-8_
  6
CONTINUOUS
 62
    7
 10
671.42734248954616
 20
194.10502037595484
 11
718.02734248954641
 21
194.10502037595484
  0
LINE
  8
_0-8_
  6
CONTINUOUS
 62
    7
 10
718.02734248954641
 20
194.10502037595484
 11
718.02734248954641
 21
197.10502037595495
  0
LINE
  8
_0-8_
  6
CONTINUOUS
 62
    7
 10
682.02563656737459
 20
221.10502037595484
 11
707.42904841171742
 21
221.10502037595484
  0
LINE
  8
_0-8_
  6
CONTINUOUS
 62
    7
 10
688.3764895284603
 20
221.10502037595484
 11
688.3764895284603
 21
213.30502037595494
  0
LINE
  8
_0-8_
  6
CONTINUOUS
 62
    7
 10
682.02563656737459
 20
213.30502037595494
 11
682.02563656737459
 21
221.10502037595484
  0
LINE
  8
_0-8_
  6
CONTINUOUS
 62
    7
 10
707.42904841171742
 20
221.10502037595484
 11
707.42904841171742
 21
213.30502037595494
  0
LINE
  8
_0-8_
  6
CONTINUOUS
 62
    7
 10
701.07819544846029
 20
213.30502037595494
 11
701.07819544846029
 21
221.10502037595484
  0
LINE
  8
_0-8_
  6
CONTINUOUS
 62
    7
 10
712.72734248954612
 20
211.30502037595505
 11
712.72734248954612
 21
210.90502037595485
  0
LINE
  8
_0-8_
  6
CONTINUOUS
 62
    7
 10
712.72734248954612
 20
211.30502037595505
 11
676.72734248954589
 21
211.30502037595505
  0
LINE
  8
_0-8_
  6
CONTINUOUS
 62
    7
 10
676.72734248954589
 20
211.30502037595505
 11
676.72734248954589
 21
210.90502037595485
  0
LINE
  8
_0-8_
  6
CONTINUOUS
 62
    7
 10
672.72734248954612
 20
210.90502037595485
 11
716.72734248925087
 21
210.90502037595485
  0
LINE
  8
_0-8_
  6
CONTINUOUS
 62
    7
 10
669.727342489546
 20
207.90502037595508
 11
669.727342489546
 21
200.10502037595506
  0
LINE
  8
_0-8_
  6
CONTINUOUS
 62
    7
 10
719.727342489546
 20
200.10502037595506
 11
719.727342489546
 21
207.90502037595508
  0
ARC
  8
_0-8_
  6
CONTINUOUS
 62
    7
 10
672.72734248954612
 20
207.90502037595508
 40
2.9999999999999858
 50
89.999999999999829
 51
180.0000000000002
  0
ARC
  8
_0-8_
  6
CONTINUOUS
 62
    7
 10
716.72734248954589
 20
207.90502037595508
 40
2.9999999999999933
 50
359.99999999999977
 51
90.000000000000199
  0
LINE
  8
_0-8_
  6
CONTINUOUS
 62
    7
 10
682.02563656737516
 20
213.30502037595494
 11
682.07387843075912
 21
212.95772402062113
  0
LINE
  8
_0-8_
  6
CONTINUOUS
 62
    7
 10
682.07387843075912
 20
212.95772402062113
 11
682.21713821630374
 21
212.62098008930366
  0
LINE
  8
_0-8_
  6
CONTINUOUS
 62
    7
 10
682.21713821630374
 20
212.62098008930366
 11
682.45106304791807
 21
212.305020375955
  0
LINE
  8
_0-8_
  6
CONTINUOUS
 62
    7
 10
682.45106304791807
 20
212.305020375955
 11
682.76854523796521
 21
212.01944515658192
  0
LINE
  8
_0-8_
  6
CONTINUOUS
 62
    7
 10
682.76854523796521
 20
212.01944515658192
 11
683.15993825075441
 21
211.77293148971705
  0
LINE
  8
_0-8_
  6
CONTINUOUS
 62
    7
 10
683.15993825075441
 20
211.77293148971705
 11
683.61334980764639
 21
211.57296956838616
  0
LINE
  8
_0-8_
  6
CONTINUOUS
 62
    7
 10
683.61334980764639
 20
211.57296956838616
 11
684.11500322792244
 21
211.42563513438324
  0
LINE
  8
_0-8_
  6
CONTINUOUS
 62
    7
 10
684.11500322792244
 20
211.42563513438324
 11
684.64965602625625
 21
211.33540486993064
  0
LINE
  8
_0-8_
  6
CONTINUOUS
 62
    7
 10
684.64965602625625
 20
211.33540486993064
 11
685.20106304791773
 21
211.30502037595505
  0
LINE
  8
_0-8_
  6
CONTINUOUS
 62
    7
 10
685.20106304791773
 20
211.30502037595505
 11
685.7524700695792
 21
211.33540486993064
  0
LINE
  8
_0-8_
  6
CONTINUOUS
 62
    7
 10
685.7524700695792
 20
211.33540486993064
 11
686.28712286791301
 21
211.42563513438324
  0
LINE
  8
_0-8_
  6
CONTINUOUS
 62
    7
 10
686.28712286791301
 20
211.42563513438324
 11
686.78877628818896
 21
211.57296956838616
  0
LINE
  8
_0-8_
  6
CONTINUOUS
 62
    7
 10
686.78877628818896
 20
211.57296956838616
 11
687.24218784508105
 21
211.77293148971705
  0
LINE
  8
_0-8_
  6
CONTINUOUS
 62
    7
 10
687.24218784508105
 20
211.77293148971705
 11
687.63358085787024
 21
212.01944515658192
  0
LINE
  8
_0-8_
  6
CONTINUOUS
 62
    7
 10
687.63358085787024
 20
212.01944515658192
 11
687.95106304791739
 21
212.305020375955
  0
LINE
  8
_0-8_
  6
CONTINUOUS
 62
    7
 10
687.95106304791739
 20
212.305020375955
 11
688.18498787953172
 21
212.62098008930366
  0
LINE
  8
_0-8_
  6
CONTINUOUS
 62
    7
 10
688.18498787953172
 20
212.62098008930366
 11
688.32824766507633
 21
212.95772402062113
  0
LINE
  8
_0-8_
  6
CONTINUOUS
 62
    7
 10
688.32824766507633
 20
212.95772402062113
 11
688.3764895284603
 21
213.30502037595494
  0
LINE
  8
_0-8_
  6
CONTINUOUS
 62
    7
 10
688.3764895284603
 20
213.30502037595494
 11
688.3764895284603
 21
213.30502051958376
  0
LINE
  8
_0-8_
  6
CONTINUOUS
 62
    7
 10
688.3764895284603
 20
213.30502051958376
 11
688.47297317601385
 21
212.9577241620679
  0
LINE
  8
_0-8_
  6
CONTINUOUS
 62
    7
 10
688.47297317601385
 20
212.9577241620679
 11
688.75949267026249
 21
212.62098022427057
  0
LINE
  8
_0-8_
  6
CONTINUOUS
 62
    7
 10
688.75949267026249
 20
212.62098022427057
 11
689.22734226135935
 21
212.30502050034119
  0
LINE
  8
_0-8_
  6
CONTINUOUS
 62
    7
 10
689.22734226135935
 20
212.30502050034119
 11
689.8623065762223
 21
212.01944526660799
  0
LINE
  8
_0-8_
  6
CONTINUOUS
 62
    7
 10
689.8623065762223
 20
212.01944526660799
 11
690.64509254545158
 21
211.77293158203992
  0
LINE
  8
_0-8_
  6
CONTINUOUS
 62
    7
 10
690.64509254545158
 20
211.77293158203992
 11
691.55191561348101
 21
211.5729696402006
  0
LINE
  8
_0-8_
  6
CONTINUOUS
 62
    7
 10
691.55191561348101
 20
211.5729696402006
 11
692.55522242026325
 21
211.42563518350715
  0
LINE
  8
_0-8_
  6
CONTINUOUS
 62
    7
 10
692.55522242026325
 20
211.42563518350715
 11
693.62452799617176
 21
211.33540489487154
  0
LINE
  8
_0-8_
  6
CONTINUOUS
 62
    7
 10
693.62452799617176
 20
211.33540489487154
 11
694.72734203237746
 21
211.30502037595505
  0
LINE
  8
_0-8_
  6
CONTINUOUS
 62
    7
 10
694.72734203237746
 20
211.30502037595505
 11
695.83015608244102
 21
211.33540484498974
  0
LINE
  8
_0-8_
  6
CONTINUOUS
 62
    7
 10
695.83015608244102
 20
211.33540484498974
 11
696.89946169950213
 21
211.42563508525927
  0
LINE
  8
_0-8_
  6
CONTINUOUS
 62
    7
 10
696.89946169950213
 20
211.42563508525927
 11
697.90276857348101
 21
211.57296949657177
  0
LINE
  8
_0-8_
  6
CONTINUOUS
 62
    7
 10
697.90276857348101
 20
211.57296949657177
 11
698.80959173270969
 21
211.77293139739425
  0
LINE
  8
_0-8_
  6
CONTINUOUS
 62
    7
 10
698.80959173270969
 20
211.77293139739425
 11
699.59237781436968
 21
212.01944504655586
  0
LINE
  8
_0-8_
  6
CONTINUOUS
 62
    7
 10
699.59237781436968
 20
212.01944504655586
 11
700.22734225947852
 21
212.30502025156881
  0
LINE
  8
_0-8_
  6
CONTINUOUS
 62
    7
 10
700.22734225947852
 20
212.30502025156881
 11
700.69519199467913
 21
212.62097995433669
  0
LINE
  8
_0-8_
  6
CONTINUOUS
 62
    7
 10
700.69519199467913
 20
212.62097995433669
 11
700.98171164251085
 21
212.9577238791743
  0
LINE
  8
_0-8_
  6
CONTINUOUS
 62
    7
 10
700.98171164251085
 20
212.9577238791743
 11
701.07819544846029
 21
213.30502023232611
  0
LINE
  8
_0-8_
  6
CONTINUOUS
 62
    7
 10
701.07819544846029
 20
213.30502023232611
 11
701.07819544846029
 21
213.30502037595494
  0
LINE
  8
_0-8_
  6
CONTINUOUS
 62
    7
 10
701.07819545063171
 20
213.30502051958376
 11
701.12643727441673
 21
212.9577241620679
  0
LINE
  8
_0-8_
  6
CONTINUOUS
 62
    7
 10
701.12643727441673
 20
212.9577241620679
 11
701.26969702156555
 21
212.62098022427057
  0
LINE
  8
_0-8_
  6
CONTINUOUS
 62
    7
 10
701.26969702156555
 20
212.62098022427057
 11
701.50362181715388
 21
212.30502050034119
  0
LINE
  8
_0-8_
  6
CONTINUOUS
 62
    7
 10
701.50362181715388
 20
212.30502050034119
 11
701.82110397463964
 21
212.01944526660799
  0
LINE
  8
_0-8_
  6
CONTINUOUS
 62
    7
 10
701.82110397463964
 20
212.01944526660799
 11
702.21249695932113
 21
211.77293158203992
  0
LINE
  8
_0-8_
  6
CONTINUOUS
 62
    7
 10
702.21249695932113
 20
211.77293158203992
 11
702.66590849341333
 21
211.5729696402006
  0
LINE
  8
_0-8_
  6
CONTINUOUS
 62
    7
 10
702.66590849341333
 20
211.5729696402006
 11
703.16756189689022
 21
211.42563518350715
  0
LINE
  8
_0-8_
  6
CONTINUOUS
 62
    7
 10
703.16756189689022
 20
211.42563518350715
 11
703.70221468493583
 21
211.33540489487154
  0
LINE
  8
_0-8_
  6
CONTINUOUS
 62
    7
 10
703.70221468493583
 20
211.33540489487154
 11
704.25362170313292
 21
211.30502037595505
  0
LINE
  8
_0-8_
  6
CONTINUOUS
 62
    7
 10
704.25362170313292
 20
211.30502037595505
 11
704.80502872825889
 21
211.33540484498974
  0
LINE
  8
_0-8_
  6
CONTINUOUS
 62
    7
 10
704.80502872825889
 20
211.33540484498974
 11
705.33968153688079
 21
211.42563508525927
  0
LINE
  8
_0-8_
  6
CONTINUOUS
 62
    7
 10
705.33968153688079
 20
211.42563508525927
 11
705.8413349739559
 21
211.57296949657177
  0
LINE
  8
_0-8_
  6
CONTINUOUS
 62
    7
 10
705.8413349739559
 20
211.57296949657177
 11
706.29474655364777
 21
211.77293139739425
  0
LINE
  8
_0-8_
  6
CONTINUOUS
 62
    7
 10
706.29474655364777
 20
211.77293139739425
 11
706.68613959454456
 21
212.01944504655586
  0
LINE
  8
_0-8_
  6
CONTINUOUS
 62
    7
 10
706.68613959454456
 20
212.01944504655586
 11
707.0036218171532
 21
212.30502025156881
  0
LINE
  8
_0-8_
  6
CONTINUOUS
 62
    7
 10
707.0036218171532
 20
212.30502025156881
 11
707.23754668479353
 21
212.62097995433669
  0
LINE
  8
_0-8_
  6
CONTINUOUS
 62
    7
 10
707.23754668479353
 20
212.62097995433669
 11
707.38080650873394
 21
212.9577238791743
  0
LINE
  8
_0-8_
  6
CONTINUOUS
 62
    7
 10
707.38080650873394
 20
212.9577238791743
 11
707.42904841171685
 21
213.30502023232611
  0
LINE
  8
_0-8_
  6
CONTINUOUS
 62
    7
 10
707.42904841171685
 20
213.30502023232611
 11
707.42904841171685
 21
213.30502037595494
  0
LINE
  8
_0-8_
  6
CONTINUOUS
 62
  152
 10
877.480539388691
 20
207.90502037595508
 11
827.480539388691
 21
207.90502037595508
  0
LINE
  8
_0-8_
  6
CONTINUOUS
 62
    7
 10
827.23053938869123
 20
200.10502037595506
 11
827.23053938869123
 21
197.10502037595495
  0
LINE
  8
_0-8_
  6
CONTINUOUS
 62
    7
 10
827.23053938869123
 20
197.10502037595495
 11
877.73053938869077
 21
197.10502037595495
  0
LINE
  8
_0-8_
  6
CONTINUOUS
 62
    7
 10
877.73053938869077
 20
197.10502037595495
 11
877.73053938869077
 21
200.10502037595506
  0
LINE
  8
_0-8_
  6
CONTINUOUS
 62
    7
 10
877.73053938869077
 20
200.10502037595506
 11
827.23053938869123
 21
200.10502037595506
  0
LINE
  8
_0-8_
  6
CONTINUOUS
 62
    7
 10
829.18053938869116
 20
197.10502037595495
 11
829.18053938869116
 21
194.10502037595484
  0
LINE
  8
_0-8_
  6
CONTINUOUS
 62
    7
 10
829.18053938869116
 20
194.10502037595484
 11
875.78053938869141
 21
194.10502037595484
  0
LINE
  8
_0-8_
  6
CONTINUOUS
 62
    7
 10
875.78053938869141
 20
194.10502037595484
 11
875.78053938869141
 21
197.10502037595495
  0
LINE
  8
_0-8_
  6
CONTINUOUS
 62
    7
 10
839.77883346651959
 20
221.10502037595484
 11
865.18224531086241
 21
221.10502037595484
  0
LINE
  8
_0-8_
  6
CONTINUOUS
 62
    7
 10
846.12968642760529
 20
221.10502037595484
 11
846.12968642760529
 21
213.30502037595494
  0
LINE
  8
_0-8_
  6
CONTINUOUS
 62
    7
 10
839.77883346651959
 20
213.30502037595494
 11
839.77883346651959
 21
221.10502037595484
  0
LINE
  8
_0-8_
  6
CONTINUOUS
 62
    7
 10
865.18224531086241
 20
221.10502037595484
 11
865.18224531086241
 21
213.30502037595494
  0
LINE
  8
_0-8_
  6
CONTINUOUS
 62
    7
 10
858.83139234760529
 20
213.30502037595494
 11
858.83139234760529
 21
221.10502037595484
  0
LINE
  8
_0-8_
  6
CONTINUOUS
 62
    7
 10
870.48053938869111
 20
211.30502037595505
 11
870.48053938869111
 21
210.90502037595485
  0
LINE
  8
_0-8_
  6
CONTINUOUS
 62
    7
 10
870.48053938869111
 20
211.30502037595505
 11
834.48053938869089
 21
211.30502037595505
  0
LINE
  8
_0-8_
  6
CONTINUOUS
 62
    7
 10
834.48053938869089
 20
211.30502037595505
 11
834.48053938869089
 21
210.90502037595485
  0
LINE
  8
_0-8_
  6
CONTINUOUS
 62
    7
 10
830.48053938869111
 20
210.90502037595485
 11
874.48053938839587
 21
210.90502037595485
  0
LINE
  8
_0-8_
  6
CONTINUOUS
 62
    7
 10
827.480539388691
 20
207.90502037595508
 11
827.480539388691
 21
200.10502037595506
  0
LINE
  8
_0-8_
  6
CONTINUOUS
 62
    7
 10
877.480539388691
 20
200.10502037595506
 11
877.480539388691
 21
207.90502037595508
  0
ARC
  8
_0-8_
  6
CONTINUOUS
 62
    7
 10
830.48053938869111
 20
207.90502037595508
 40
2.9999999999999858
 50
89.999999999999829
 51
180.0000000000002
  0
ARC
  8
_0-8_
  6
CONTINUOUS
 62
    7
 10
874.48053938869089
 20
207.90502037595508
 40
2.9999999999999933
 50
359.99999999999977
 51
90.000000000000199
  0
LINE
  8
_0-8_
  6
CONTINUOUS
 62
    7
 10
839.77883346652015
 20
213.30502037595494
 11
839.82707532990412
 21
212.95772402062113
  0
LINE
  8
_0-8_
  6
CONTINUOUS
 62
    7
 10
839.82707532990412
 20
212.95772402062113
 11
839.97033511544873
 21
212.62098008930366
  0
LINE
  8
_0-8_
  6
CONTINUOUS
 62
    7
 10
839.97033511544873
 20
212.62098008930366
 11
840.20425994706306
 21
212.305020375955
  0
LINE
  8
_0-8_
  6
CONTINUOUS
 62
    7
 10
840.20425994706306
 20
212.305020375955
 11
840.52174213711021
 21
212.01944515658192
  0
LINE
  8
_0-8_
  6
CONTINUOUS
 62
    7
 10
840.52174213711021
 20
212.01944515658192
 11
840.9131351498994
 21
211.77293148971705
  0
LINE
  8
_0-8_
  6
CONTINUOUS
 62
    7
 10
840.9131351498994
 20
211.77293148971705
 11
841.36654670679138
 21
211.57296956838616
  0
LINE
  8
_0-8_
  6
CONTINUOUS
 62
    7
 10
841.36654670679138
 20
211.57296956838616
 11
841.86820012706744
 21
211.42563513438324
  0
LINE
  8
_0-8_
  6
CONTINUOUS
 62
    7
 10
841.86820012706744
 20
211.42563513438324
 11
842.40285292540125
 21
211.33540486993064
  0
LINE
  8
_0-8_
  6
CONTINUOUS
 62
    7
 10
842.40285292540125
 20
211.33540486993064
 11
842.95425994706272
 21
211.30502037595505
  0
LINE
  8
_0-8_
  6
CONTINUOUS
 62
    7
 10
842.95425994706272
 20
211.30502037595505
 11
843.5056669687242
 21
211.33540486993064
  0
LINE
  8
_0-8_
  6
CONTINUOUS
 62
    7
 10
843.5056669687242
 20
211.33540486993064
 11
844.04031976705801
 21
211.42563513438324
  0
LINE
  8
_0-8_
  6
CONTINUOUS
 62
    7
 10
844.04031976705801
 20
211.42563513438324
 11
844.54197318733395
 21
211.57296956838616
  0
LINE
  8
_0-8_
  6
CONTINUOUS
 62
    7
 10
844.54197318733395
 20
211.57296956838616
 11
844.99538474422604
 21
211.77293148971705
  0
LINE
  8
_0-8_
  6
CONTINUOUS
 62
    7
 10
844.99538474422604
 20
211.77293148971705
 11
845.38677775701524
 21
212.01944515658192
  0
LINE
  8
_0-8_
  6
CONTINUOUS
 62
    7
 10
845.38677775701524
 20
212.01944515658192
 11
845.70425994706238
 21
212.305020375955
  0
LINE
  8
_0-8_
  6
CONTINUOUS
 62
    7
 10
845.70425994706238
 20
212.305020375955
 11
845.93818477867671
 21
212.62098008930366
  0
LINE
  8
_0-8_
  6
CONTINUOUS
 62
    7
 10
845.93818477867671
 20
212.62098008930366
 11
846.08144456422133
 21
212.95772402062113
  0
LINE
  8
_0-8_
  6
CONTINUOUS
 62
    7
 10
846.08144456422133
 20
212.95772402062113
 11
846.12968642760529
 21
213.30502037595494
  0
LINE
  8
_0-8_
  6
CONTINUOUS
 62
    7
 10
846.12968642760529
 20
213.30502037595494
 11
846.12968642760529
 21
213.30502051958376
  0
LINE
  8
_0-8_
  6
CONTINUOUS
 62
    7
 10
846.12968642760529
 20
213.30502051958376
 11
846.22617007515885
 21
212.9577241620679
  0
LINE
  8
_0-8_
  6
CONTINUOUS
 62
    7
 10
846.22617007515885
 20
212.9577241620679
 11
846.51268956940748
 21
212.62098022427057
  0
LINE
  8
_0-8_
  6
CONTINUOUS
 62
    7
 10
846.51268956940748
 20
212.62098022427057
 11
846.98053916050435
 21
212.30502050034119
  0
LINE
  8
_0-8_
  6
CONTINUOUS
 62
    7
 10
846.98053916050435
 20
212.30502050034119
 11
847.61550347536729
 21
212.01944526660799
  0
LINE
  8
_0-8_
  6
CONTINUOUS
 62
    7
 10
847.61550347536729
 20
212.01944526660799
 11
848.39828944459657
 21
211.77293158203992
  0
LINE
  8
_0-8_
  6
CONTINUOUS
 62
    7
 10
848.39828944459657
 20
211.77293158203992
 11
849.30511251262601
 21
211.5729696402006
  0
LINE
  8
_0-8_
  6
CONTINUOUS
 62
    7
 10
849.30511251262601
 20
211.5729696402006
 11
850.30841931940824
 21
211.42563518350715
  0
LINE
  8
_0-8_
  6
CONTINUOUS
 62
    7
 10
850.30841931940824
 20
211.42563518350715
 11
851.37772489531676
 21
211.33540489487154
  0
LINE
  8
_0-8_
  6
CONTINUOUS
 62
    7
 10
851.37772489531676
 20
211.33540489487154
 11
852.48053893152246
 21
211.30502037595505
  0
LINE
  8
_0-8_
  6
CONTINUOUS
 62
    7
 10
852.48053893152246
 20
211.30502037595505
 11
853.58335298158602
 21
211.33540484498974
  0
LINE
  8
_0-8_
  6
CONTINUOUS
 62
    7
 10
853.58335298158602
 20
211.33540484498974
 11
854.65265859864712
 21
211.42563508525927
  0
LINE
  8
_0-8_
  6
CONTINUOUS
 62
    7
 10
854.65265859864712
 20
211.42563508525927
 11
855.65596547262601
 21
211.57296949657177
  0
LINE
  8
_0-8_
  6
CONTINUOUS
 62
    7
 10
855.65596547262601
 20
211.57296949657177
 11
856.56278863185469
 21
211.77293139739425
  0
LINE
  8
_0-8_
  6
CONTINUOUS
 62
    7
 10
856.56278863185469
 20
211.77293139739425
 11
857.34557471351468
 21
212.01944504655586
  0
LINE
  8
_0-8_
  6
CONTINUOUS
 62
    7
 10
857.34557471351468
 20
212.01944504655586
 11
857.98053915862351
 21
212.30502025156881
  0
LINE
  8
_0-8_
  6
CONTINUOUS
 62
    7
 10
857.98053915862351
 20
212.30502025156881
 11
858.44838889382413
 21
212.62097995433669
  0
LINE
  8
_0-8_
  6
CONTINUOUS
 62
    7
 10
858.44838889382413
 20
212.62097995433669
 11
858.73490854165584
 21
212.9577238791743
  0
LINE
  8
_0-8_
  6
CONTINUOUS
 62
    7
 10
858.73490854165584
 20
212.9577238791743
 11
858.83139234760529
 21
213.30502023232611
  0
LINE
  8
_0-8_
  6
CONTINUOUS
 62
    7
 10
858.83139234760529
 20
213.30502023232611
 11
858.83139234760529
 21
213.30502037595494
  0
LINE
  8
_0-8_
  6
CONTINUOUS
 62
    7
 10
858.83139234977671
 20
213.30502051958376
 11
858.87963417356173
 21
212.9577241620679
  0
LINE
  8
_0-8_
  6
CONTINUOUS
 62
    7
 10
858.87963417356173
 20
212.9577241620679
 11
859.02289392071054
 21
212.62098022427057
  0
LINE
  8
_0-8_
  6
CONTINUOUS
 62
    7
 10
859.02289392071054
 20
212.62098022427057
 11
859.25681871629888
 21
212.30502050034119
  0
LINE
  8
_0-8_
  6
CONTINUOUS
 62
    7
 10
859.25681871629888
 20
212.30502050034119
 11
859.57430087378464
 21
212.01944526660799
  0
LINE
  8
_0-8_
  6
CONTINUOUS
 62
    7
 10
859.57430087378464
 20
212.01944526660799
 11
859.96569385846612
 21
211.77293158203992
  0
LINE
  8
_0-8_
  6
CONTINUOUS
 62
    7
 10
859.96569385846612
 20
211.77293158203992
 11
860.41910539255832
 21
211.5729696402006
  0
LINE
  8
_0-8_
  6
CONTINUOUS
 62
    7
 10
860.41910539255832
 20
211.5729696402006
 11
860.92075879603522
 21
211.42563518350715
  0
LINE
  8
_0-8_
  6
CONTINUOUS
 62
    7
 10
860.92075879603522
 20
211.42563518350715
 11
861.45541158408082
 21
211.33540489487154
  0
LINE
  8
_0-8_
  6
CONTINUOUS
 62
    7
 10
861.45541158408082
 20
211.33540489487154
 11
862.00681860227792
 21
211.30502037595505
  0
LINE
  8
_0-8_
  6
CONTINUOUS
 62
    7
 10
862.00681860227792
 20
211.30502037595505
 11
862.55822562740389
 21
211.33540484498974
  0
LINE
  8
_0-8_
  6
CONTINUOUS
 62
    7
 10
862.55822562740389
 20
211.33540484498974
 11
863.09287843602579
 21
211.42563508525927
  0
LINE
  8
_0-8_
  6
CONTINUOUS
 62
    7
 10
863.09287843602579
 20
211.42563508525927
 11
863.59453187310089
 21
211.57296949657177
  0
LINE
  8
_0-8_
  6
CONTINUOUS
 62
    7
 10
863.59453187310089
 20
211.57296949657177
 11
864.04794345279277
 21
211.77293139739425
  0
LINE
  8
_0-8_
  6
CONTINUOUS
 62
    7
 10
864.04794345279277
 20
211.77293139739425
 11
864.43933649368955
 21
212.01944504655586
  0
LINE
  8
_0-8_
  6
CONTINUOUS
 62
    7
 10
864.43933649368955
 20
212.01944504655586
 11
864.7568187162982
 21
212.30502025156881
  0
LINE
  8
_0-8_
  6
CONTINUOUS
 62
    7
 10
864.7568187162982
 20
212.30502025156881
 11
864.99074358393852
 21
212.62097995433669
  0
LINE
  8
_0-8_
  6
CONTINUOUS
 62
    7
 10
864.99074358393852
 20
212.62097995433669
 11
865.13400340787894
 21
212.9577238791743
  0
LINE
  8
_0-8_
  6
CONTINUOUS
 62
    7
 10
865.13400340787894
 20
212.9577238791743
 11
865.18224531086184
 21
213.30502023232611
  0
LINE
  8
_0-8_
  6
CONTINUOUS
 62
    7
 10
865.18224531086184
 20
213.30502023232611
 11
865.18224531086184
 21
213.30502037595494
  0
LINE
  8
_0-8_
  6
CONTINUOUS
 62
    7
 10
115.52582199903998
 20
297.10502037595495
 11
115.52582199903998
 21
292.40502037595468
  0
LINE
  8
_0-8_
  6
CONTINUOUS
 62
    7
 10
118.84558604688027
 20
290.40502037595479
 11
138.76417033392204
 21
290.40502037595479
  0
LINE
  8
_0-8_
  6
CONTINUOUS
 62
    7
 10
135.44440628608174
 20
292.40502037595468
 11
135.44440628608174
 21
297.10502037595495
  0
LINE
  8
_0-8_
  6
CONTINUOUS
 62
    7
 10
138.76417033392204
 20
299.10502037595484
 11
118.84558604688027
 21
299.10502037595484
  0
LINE
  8
_0-8_
  6
CONTINUOUS
 62
    7
 10
122.16535009472057
 20
297.10502037595495
 11
122.16535009472057
 21
292.40502037595468
  0
LINE
  8
_0-8_
  6
CONTINUOUS
 62
    7
 10
142.08393438176233
 20
292.40502037595468
 11
142.08393438176233
 21
297.10502037595495
  0
LINE
  8
_0-8_
  6
CONTINUOUS
 62
    7
 10
115.52582199903998
 20
292.40502037595468
 11
115.57625667439595
 21
292.05772402062087
  0
LINE
  8
_0-8_
  6
CONTINUOUS
 62
    7
 10
115.57625667439595
 20
292.05772402062087
 11
115.72602826837442
 21
291.72098008930334
  0
LINE
  8
_0-8_
  6
CONTINUOUS
 62
    7
 10
115.72602826837442
 20
291.72098008930334
 11
115.97058604688027
 21
291.40502037595473
  0
LINE
  8
_0-8_
  6
CONTINUOUS
 62
    7
 10
115.97058604688027
 20
291.40502037595473
 11
116.30249924556608
 21
291.11944515658166
  0
LINE
  8
_0-8_
  6
CONTINUOUS
 62
    7
 10
116.30249924556608
 20
291.11944515658166
 11
116.71168284984572
 21
290.87293148971685
  0
LINE
  8
_0-8_
  6
CONTINUOUS
 62
    7
 10
116.71168284984572
 20
290.87293148971685
 11
117.18570402296007
 21
290.67296956838589
  0
LINE
  8
_0-8_
  6
CONTINUOUS
 62
    7
 10
117.18570402296007
 20
290.67296956838589
 11
117.71015987143051
 21
290.52563513438298
  0
LINE
  8
_0-8_
  6
CONTINUOUS
 62
    7
 10
117.71015987143051
 20
290.52563513438298
 11
118.26911506968861
 21
290.43540486993038
  0
LINE
  8
_0-8_
  6
CONTINUOUS
 62
    7
 10
118.26911506968861
 20
290.43540486993038
 11
118.84558604688027
 21
290.40502037595479
  0
LINE
  8
_0-8_
  6
CONTINUOUS
 62
    7
 10
118.84558604688027
 20
290.40502037595479
 11
119.42205702407193
 21
290.43540486993038
  0
LINE
  8
_0-8_
  6
CONTINUOUS
 62
    7
 10
119.42205702407193
 20
290.43540486993038
 11
119.98101222233004
 21
290.52563513438298
  0
LINE
  8
_0-8_
  6
CONTINUOUS
 62
    7
 10
119.98101222233004
 20
290.52563513438298
 11
120.50546807080036
 21
290.67296956838589
  0
LINE
  8
_0-8_
  6
CONTINUOUS
 62
    7
 10
120.50546807080036
 20
290.67296956838589
 11
120.97948924391483
 21
290.87293148971685
  0
LINE
  8
_0-8_
  6
CONTINUOUS
 62
    7
 10
120.97948924391483
 20
290.87293148971685
 11
121.38867284819446
 21
291.11944515658166
  0
LINE
  8
_0-8_
  6
CONTINUOUS
 62
    7
 10
121.38867284819446
 20
291.11944515658166
 11
121.72058604688027
 21
291.40502037595473
  0
LINE
  8
_0-8_
  6
CONTINUOUS
 62
    7
 10
121.72058604688027
 20
291.40502037595473
 11
121.96514382538612
 21
291.72098008930334
  0
LINE
  8
_0-8_
  6
CONTINUOUS
 62
    7
 10
121.96514382538612
 20
291.72098008930334
 11
122.11491541936459
 21
292.05772402062087
  0
LINE
  8
_0-8_
  6
CONTINUOUS
 62
    7
 10
122.11491541936459
 20
292.05772402062087
 11
122.16535009472057
 21
292.40502031170996
  0
LINE
  8
_0-8_
  6
CONTINUOUS
 62
    7
 10
122.16535009472057
 20
292.40502037595468
 11
122.26621944543251
 21
292.05772402062087
  0
LINE
  8
_0-8_
  6
CONTINUOUS
 62
    7
 10
122.26621944543251
 20
292.05772402062087
 11
122.56576263338934
 21
291.72098008930334
  0
LINE
  8
_0-8_
  6
CONTINUOUS
 62
    7
 10
122.56576263338934
 20
291.72098008930334
 11
123.05487819040127
 21
291.40502037595473
  0
LINE
  8
_0-8_
  6
CONTINUOUS
 62
    7
 10
123.05487819040127
 20
291.40502037595473
 11
123.71870458777266
 21
291.11944515658166
  0
LINE
  8
_0-8_
  6
CONTINUOUS
 62
    7
 10
123.71870458777266
 20
291.11944515658166
 11
124.53707179633204
 21
290.87293148971685
  0
LINE
  8
_0-8_
  6
CONTINUOUS
 62
    7
 10
124.53707179633204
 20
290.87293148971685
 11
125.48511414256086
 21
290.67296956838589
  0
LINE
  8
_0-8_
  6
CONTINUOUS
 62
    7
 10
125.48511414256086
 20
290.67296956838589
 11
126.53402583950162
 21
290.52563513438298
  0
LINE
  8
_0-8_
  6
CONTINUOUS
 62
    7
 10
126.53402583950162
 20
290.52563513438298
 11
127.65193623601783
 21
290.43540486993038
  0
LINE
  8
_0-8_
  6
CONTINUOUS
 62
    7
 10
127.65193623601783
 20
290.43540486993038
 11
128.80487819040115
 21
290.40502037595479
  0
LINE
  8
_0-8_
  6
CONTINUOUS
 62
    7
 10
128.80487819040115
 20
290.40502037595479
 11
129.95782014478448
 21
290.43540486993038
  0
LINE
  8
_0-8_
  6
CONTINUOUS
 62
    7
 10
129.95782014478448
 20
290.43540486993038
 11
131.07573054130069
 21
290.52563513438298
  0
LINE
  8
_0-8_
  6
CONTINUOUS
 62
    7
 10
131.07573054130069
 20
290.52563513438298
 11
132.12464223824145
 21
290.67296956838589
  0
LINE
  8
_0-8_
  6
CONTINUOUS
 62
    7
 10
132.12464223824145
 20
290.67296956838589
 11
133.07268458447027
 21
290.87293148971685
  0
LINE
  8
_0-8_
  6
CONTINUOUS
 62
    7
 10
133.07268458447027
 20
290.87293148971685
 11
133.89105179302965
 21
291.11944515658166
  0
LINE
  8
_0-8_
  6
CONTINUOUS
 62
    7
 10
133.89105179302965
 20
291.11944515658166
 11
134.55487819040104
 21
291.40502037595473
  0
LINE
  8
_0-8_
  6
CONTINUOUS
 62
    7
 10
134.55487819040104
 20
291.40502037595473
 11
135.04399374741297
 21
291.72098008930334
  0
LINE
  8
_0-8_
  6
CONTINUOUS
 62
    7
 10
135.04399374741297
 20
291.72098008930334
 11
135.3435369353698
 21
292.05772402062087
  0
LINE
  8
_0-8_
  6
CONTINUOUS
 62
    7
 10
135.3435369353698
 20
292.05772402062087
 11
135.44440628608174
 21
292.40502037595468
  0
LINE
  8
_0-8_
  6
CONTINUOUS
 62
    7
 10
135.44440628608174
 20
292.40502031170996
 11
135.49484097995537
 21
292.05772395735215
  0
LINE
  8
_0-8_
  6
CONTINUOUS
 62
    7
 10
135.49484097995537
 20
292.05772395735215
 11
135.64461259188874
 21
291.72098002893313
  0
LINE
  8
_0-8_
  6
CONTINUOUS
 62
    7
 10
135.64461259188874
 20
291.72098002893313
 11
135.88917038724139
 21
291.40502032031719
  0
LINE
  8
_0-8_
  6
CONTINUOUS
 62
    7
 10
135.88917038724139
 20
291.40502032031719
 11
136.22108360115385
 21
291.11944510736737
  0
LINE
  8
_0-8_
  6
CONTINUOUS
 62
    7
 10
136.22108360115385
 20
291.11944510736737
 11
136.63026721857739
 21
290.87293144842113
  0
LINE
  8
_0-8_
  6
CONTINUOUS
 62
    7
 10
136.63026721857739
 20
290.87293144842113
 11
137.10428840235363
 21
290.67296953626351
  0
LINE
  8
_0-8_
  6
CONTINUOUS
 62
    7
 10
137.10428840235363
 20
290.67296953626351
 11
137.62874425867983
 21
290.52563511240999
  0
LINE
  8
_0-8_
  6
CONTINUOUS
 62
    7
 10
137.62874425867983
 20
290.52563511240999
 11
138.18769946174893
 21
290.4354048587744
  0
LINE
  8
_0-8_
  6
CONTINUOUS
 62
    7
 10
138.18769946174893
 20
290.4354048587744
 11
138.76417044056063
 21
290.40502037595479
  0
LINE
  8
_0-8_
  6
CONTINUOUS
 62
    7
 10
138.76417044056063
 20
290.40502037595479
 11
139.34064141613226
 21
290.43540488108636
  0
LINE
  8
_0-8_
  6
CONTINUOUS
 62
    7
 10
139.34064141613226
 20
290.43540488108636
 11
139.89959660957936
 21
290.52563515635597
  0
LINE
  8
_0-8_
  6
CONTINUOUS
 62
    7
 10
139.89959660957936
 20
290.52563515635597
 11
140.42405245019393
 21
290.67296960050828
  0
LINE
  8
_0-8_
  6
CONTINUOUS
 62
    7
 10
140.42405245019393
 20
290.67296960050828
 11
140.8980736126465
 21
290.87293153101251
  0
LINE
  8
_0-8_
  6
CONTINUOUS
 62
    7
 10
140.8980736126465
 20
290.87293153101251
 11
141.30725720378223
 21
291.11944520579596
  0
LINE
  8
_0-8_
  6
CONTINUOUS
 62
    7
 10
141.30725720378223
 20
291.11944520579596
 11
141.63917038724128
 21
291.40502043159228
  0
LINE
  8
_0-8_
  6
CONTINUOUS
 62
    7
 10
141.63917038724128
 20
291.40502043159228
 11
141.88372814890045
 21
291.72098014967366
  0
LINE
  8
_0-8_
  6
CONTINUOUS
 62
    7
 10
141.88372814890045
 20
291.72098014967366
 11
142.0334997249239
 21
292.05772408388952
  0
LINE
  8
_0-8_
  6
CONTINUOUS
 62
    7
 10
142.0334997249239
 20
292.05772408388952
 11
142.08393438176233
 21
292.40502037595468
  0
LINE
  8
_0-8_
  6
CONTINUOUS
 62
    7
 10
135.44440628608174
 20
297.10502037595495
 11
135.3435369353698
 21
297.45231673128876
  0
LINE
  8
_0-8_
  6
CONTINUOUS
 62
    7
 10
135.3435369353698
 20
297.45231673128876
 11
135.04399374741297
 21
297.78906066260629
  0
LINE
  8
_0-8_
  6
CONTINUOUS
 62
    7
 10
135.04399374741297
 20
297.78906066260629
 11
134.55487819040104
 21
298.10502037595489
  0
LINE
  8
_0-8_
  6
CONTINUOUS
 62
    7
 10
134.55487819040104
 20
298.10502037595489
 11
133.89105179302965
 21
298.39059559532797
  0
LINE
  8
_0-8_
  6
CONTINUOUS
 62
    7
 10
133.89105179302965
 20
298.39059559532797
 11
133.07268458447027
 21
298.63710926219278
  0
LINE
  8
_0-8_
  6
CONTINUOUS
 62
    7
 10
133.07268458447027
 20
298.63710926219278
 11
132.12464223824145
 21
298.83707118352373
  0
LINE
  8
_0-8_
  6
CONTINUOUS
 62
    7
 10
132.12464223824145
 20
298.83707118352373
 11
131.07573054130069
 21
298.98440561752665
  0
LINE
  8
_0-8_
  6
CONTINUOUS
 62
    7
 10
131.07573054130069
 20
298.98440561752665
 11
129.95782014478448
 21
299.07463588197925
  0
LINE
  8
_0-8_
  6
CONTINUOUS
 62
    7
 10
129.95782014478448
 20
299.07463588197925
 11
128.80487819040115
 21
299.10502037595484
  0
LINE
  8
_0-8_
  6
CONTINUOUS
 62
    7
 10
128.80487819040115
 20
299.10502037595484
 11
127.65193623601783
 21
299.07463588197925
  0
LINE
  8
_0-8_
  6
CONTINUOUS
 62
    7
 10
127.65193623601783
 20
299.07463588197925
 11
126.53402583950162
 21
298.98440561752665
  0
LINE
  8
_0-8_
  6
CONTINUOUS
 62
    7
 10
126.53402583950162
 20
298.98440561752665
 11
125.48511414256086
 21
298.83707118352373
  0
LINE
  8
_0-8_
  6
CONTINUOUS
 62
    7
 10
125.48511414256086
 20
298.83707118352373
 11
124.53707179633204
 21
298.63710926219278
  0
LINE
  8
_0-8_
  6
CONTINUOUS
 62
    7
 10
124.53707179633204
 20
298.63710926219278
 11
123.71870458777266
 21
298.39059559532797
  0
LINE
  8
_0-8_
  6
CONTINUOUS
 62
    7
 10
123.71870458777266
 20
298.39059559532797
 11
123.05487819040127
 21
298.10502037595489
  0
LINE
  8
_0-8_
  6
CONTINUOUS
 62
    7
 10
123.05487819040127
 20
298.10502037595489
 11
122.56576263338934
 21
297.78906066260629
  0
LINE
  8
_0-8_
  6
CONTINUOUS
 62
    7
 10
122.56576263338934
 20
297.78906066260629
 11
122.26621944543251
 21
297.45231673128876
  0
LINE
  8
_0-8_
  6
CONTINUOUS
 62
    7
 10
122.26621944543251
 20
297.45231673128876
 11
122.16535009472057
 21
297.10502037595495
  0
LINE
  8
_0-8_
  6
CONTINUOUS
 62
    7
 10
142.08393438176233
 20
297.10502037595495
 11
142.03349970640636
 21
297.45231673128876
  0
LINE
  8
_0-8_
  6
CONTINUOUS
 62
    7
 10
142.03349970640636
 20
297.45231673128876
 11
141.88372811242789
 21
297.78906066260629
  0
LINE
  8
_0-8_
  6
CONTINUOUS
 62
    7
 10
141.88372811242789
 20
297.78906066260629
 11
141.63917033392204
 21
298.10502037595489
  0
LINE
  8
_0-8_
  6
CONTINUOUS
 62
    7
 10
141.63917033392204
 20
298.10502037595489
 11
141.30725713523623
 21
298.39059559532797
  0
LINE
  8
_0-8_
  6
CONTINUOUS
 62
    7
 10
141.30725713523623
 20
298.39059559532797
 11
140.89807353095659
 21
298.63710926219278
  0
LINE
  8
_0-8_
  6
CONTINUOUS
 62
    7
 10
140.89807353095659
 20
298.63710926219278
 11
140.42405235784224
 21
298.83707118352373
  0
LINE
  8
_0-8_
  6
CONTINUOUS
 62
    7
 10
140.42405235784224
 20
298.83707118352373
 11
139.8995965093718
 21
298.98440561752665
  0
LINE
  8
_0-8_
  6
CONTINUOUS
 62
    7
 10
139.8995965093718
 20
298.98440561752665
 11
139.3406413111137
 21
299.07463588197925
  0
LINE
  8
_0-8_
  6
CONTINUOUS
 62
    7
 10
139.3406413111137
 20
299.07463588197925
 11
138.76417033392204
 21
299.10502037595484
  0
LINE
  8
_0-8_
  6
CONTINUOUS
 62
    7
 10
138.76417033392204
 20
299.10502037595484
 11
138.18769935673038
 21
299.07463588197925
  0
LINE
  8
_0-8_
  6
CONTINUOUS
 62
    7
 10
138.18769935673038
 20
299.07463588197925
 11
137.62874415847227
 21
298.98440561752665
  0
LINE
  8
_0-8_
  6
CONTINUOUS
 62
    7
 10
137.62874415847227
 20
298.98440561752665
 11
137.10428831000195
 21
298.83707118352373
  0
LINE
  8
_0-8_
  6
CONTINUOUS
 62
    7
 10
137.10428831000195
 20
298.83707118352373
 11
136.63026713688748
 21
298.63710926219278
  0
LINE
  8
_0-8_
  6
CONTINUOUS
 62
    7
 10
136.63026713688748
 20
298.63710926219278
 11
136.22108353260785
 21
298.39059559532797
  0
LINE
  8
_0-8_
  6
CONTINUOUS
 62
    7
 10
136.22108353260785
 20
298.39059559532797
 11
135.88917033392204
 21
298.10502037595489
  0
LINE
  8
_0-8_
  6
CONTINUOUS
 62
    7
 10
135.88917033392204
 20
298.10502037595489
 11
135.64461255541619
 21
297.78906066260629
  0
LINE
  8
_0-8_
  6
CONTINUOUS
 62
    7
 10
135.64461255541619
 20
297.78906066260629
 11
135.49484096143772
 21
297.45231673128876
  0
LINE
  8
_0-8_
  6
CONTINUOUS
 62
    7
 10
135.49484096143772
 20
297.45231673128876
 11
135.44440628608174
 21
297.10502044019967
  0
LINE
  8
_0-8_
  6
CONTINUOUS
 62
    7
 10
122.16535009472057
 20
297.10502044019967
 11
122.11491540084694
 21
297.45231679455748
  0
LINE
  8
_0-8_
  6
CONTINUOUS
 62
    7
 10
122.11491540084694
 20
297.45231679455748
 11
121.96514378891357
 21
297.7890607229765
  0
LINE
  8
_0-8_
  6
CONTINUOUS
 62
    7
 10
121.96514378891357
 20
297.7890607229765
 11
121.72058599356092
 21
298.10502043159244
  0
LINE
  8
_0-8_
  6
CONTINUOUS
 62
    7
 10
121.72058599356092
 20
298.10502043159244
 11
121.38867277964846
 21
298.39059564454226
  0
LINE
  8
_0-8_
  6
CONTINUOUS
 62
    7
 10
121.38867277964846
 20
298.39059564454226
 11
120.97948916222492
 21
298.6371093034885
  0
LINE
  8
_0-8_
  6
CONTINUOUS
 62
    7
 10
120.97948916222492
 20
298.6371093034885
 11
120.50546797844868
 21
298.83707121564612
  0
LINE
  8
_0-8_
  6
CONTINUOUS
 62
    7
 10
120.50546797844868
 20
298.83707121564612
 11
119.98101212212248
 21
298.98440563949964
  0
LINE
  8
_0-8_
  6
CONTINUOUS
 62
    7
 10
119.98101212212248
 20
298.98440563949964
 11
119.42205691905338
 21
299.07463589313522
  0
LINE
  8
_0-8_
  6
CONTINUOUS
 62
    7
 10
119.42205691905338
 20
299.07463589313522
 11
118.84558594024168
 21
299.10502037595484
  0
LINE
  8
_0-8_
  6
CONTINUOUS
 62
    7
 10
118.84558594024168
 20
299.10502037595484
 11
118.26911496467005
 21
299.07463587082327
  0
LINE
  8
_0-8_
  6
CONTINUOUS
 62
    7
 10
118.26911496467005
 20
299.07463587082327
 11
117.71015977122295
 21
298.98440559555365
  0
LINE
  8
_0-8_
  6
CONTINUOUS
 62
    7
 10
117.71015977122295
 20
298.98440559555365
 11
117.18570393060838
 21
298.83707115140135
  0
LINE
  8
_0-8_
  6
CONTINUOUS
 62
    7
 10
117.18570393060838
 20
298.83707115140135
 11
116.71168276815581
 21
298.63710922089712
  0
LINE
  8
_0-8_
  6
CONTINUOUS
 62
    7
 10
116.71168276815581
 20
298.63710922089712
 11
116.30249917702008
 21
298.39059554611367
  0
LINE
  8
_0-8_
  6
CONTINUOUS
 62
    7
 10
116.30249917702008
 20
298.39059554611367
 11
115.97058599356103
 21
298.10502032031735
  0
LINE
  8
_0-8_
  6
CONTINUOUS
 62
    7
 10
115.97058599356103
 20
298.10502032031735
 11
115.72602823190186
 21
297.78906060223596
  0
LINE
  8
_0-8_
  6
CONTINUOUS
 62
    7
 10
115.72602823190186
 20
297.78906060223596
 11
115.57625665587841
 21
297.4523166680201
  0
LINE
  8
_0-8_
  6
CONTINUOUS
 62
    7
 10
115.57625665587841
 20
297.4523166680201
 11
115.52582199903998
 21
297.10502037595495
  0
LINE
  8
_0-8_
  6
CONTINUOUS
 62
    7
 10
136.80487815561935
 20
290.40502037595479
 11
136.80487815561935
 21
221.10502037595484
  0
LINE
  8
_0-8_
  6
CONTINUOUS
 62
    7
 10
135.9048780950194
 20
221.10502037595484
 11
135.9048780950194
 21
290.40502037595479
  0
LINE
  8
_0-8_
  6
CONTINUOUS
 62
    7
 10
121.70487828571913
 20
290.40502037595479
 11
121.70487828571913
 21
221.10502037595484
  0
LINE
  8
_0-8_
  6
CONTINUOUS
 62
    7
 10
120.80487815561912
 20
221.10502037595484
 11
120.80487815561912
 21
290.40502037595479
  0
LINE
  8
_0-8_
  6
CONTINUOUS
 62
    7
 10
273.27901889818492
 20
297.10502037595495
 11
273.27901889818492
 21
292.40502037595468
  0
LINE
  8
_0-8_
  6
CONTINUOUS
 62
    7
 10
276.59878294602521
 20
290.40502037595479
 11
296.51736723306698
 21
290.40502037595479
  0
LINE
  8
_0-8_
  6
CONTINUOUS
 62
    7
 10
293.19760318522668
 20
292.40502037595468
 11
293.19760318522668
 21
297.10502037595495
  0
LINE
  8
_0-8_
  6
CONTINUOUS
 62
    7
 10
296.51736723306698
 20
299.10502037595484
 11
276.59878294602521
 21
299.10502037595484
  0
LINE
  8
_0-8_
  6
CONTINUOUS
 62
    7
 10
279.9185469938655
 20
297.10502037595495
 11
279.9185469938655
 21
292.40502037595468
  0
LINE
  8
_0-8_
  6
CONTINUOUS
 62
    7
 10
299.83713128090727
 20
292.40502037595468
 11
299.83713128090727
 21
297.10502037595495
  0
LINE
  8
_0-8_
  6
CONTINUOUS
 62
    7
 10
273.27901889818492
 20
292.40502037595468
 11
273.32945357354089
 21
292.05772402062087
  0
LINE
  8
_0-8_
  6
CONTINUOUS
 62
    7
 10
273.32945357354089
 20
292.05772402062087
 11
273.47922516751936
 21
291.72098008930334
  0
LINE
  8
_0-8_
  6
CONTINUOUS
 62
    7
 10
273.47922516751936
 20
291.72098008930334
 11
273.72378294602521
 21
291.40502037595473
  0
LINE
  8
_0-8_
  6
CONTINUOUS
 62
    7
 10
273.72378294602521
 20
291.40502037595473
 11
274.05569614471102
 21
291.11944515658166
  0
LINE
  8
_0-8_
  6
CONTINUOUS
 62
    7
 10
274.05569614471102
 20
291.11944515658166
 11
274.46487974899065
 21
290.87293148971685
  0
LINE
  8
_0-8_
  6
CONTINUOUS
 62
    7
 10
274.46487974899065
 20
290.87293148971685
 11
274.93890092210501
 21
290.67296956838589
  0
LINE
  8
_0-8_
  6
CONTINUOUS
 62
    7
 10
274.93890092210501
 20
290.67296956838589
 11
275.46335677057544
 21
290.52563513438298
  0
LINE
  8
_0-8_
  6
CONTINUOUS
 62
    7
 10
275.46335677057544
 20
290.52563513438298
 11
276.02231196883355
 21
290.43540486993038
  0
LINE
  8
_0-8_
  6
CONTINUOUS
 62
    7
 10
276.02231196883355
 20
290.43540486993038
 11
276.59878294602521
 21
290.40502037595479
  0
LINE
  8
_0-8_
  6
CONTINUOUS
 62
    7
 10
276.59878294602521
 20
290.40502037595479
 11
277.17525392321687
 21
290.43540486993038
  0
LINE
  8
_0-8_
  6
CONTINUOUS
 62
    7
 10
277.17525392321687
 20
290.43540486993038
 11
277.73420912147498
 21
290.52563513438298
  0
LINE
  8
_0-8_
  6
CONTINUOUS
 62
    7
 10
277.73420912147498
 20
290.52563513438298
 11
278.2586649699453
 21
290.67296956838589
  0
LINE
  8
_0-8_
  6
CONTINUOUS
 62
    7
 10
278.2586649699453
 20
290.67296956838589
 11
278.73268614305977
 21
290.87293148971685
  0
LINE
  8
_0-8_
  6
CONTINUOUS
 62
    7
 10
278.73268614305977
 20
290.87293148971685
 11
279.1418697473394
 21
291.11944515658166
  0
LINE
  8
_0-8_
  6
CONTINUOUS
 62
    7
 10
279.1418697473394
 20
291.11944515658166
 11
279.47378294602521
 21
291.40502037595473
  0
LINE
  8
_0-8_
  6
CONTINUOUS
 62
    7
 10
279.47378294602521
 20
291.40502037595473
 11
279.71834072453106
 21
291.72098008930334
  0
LINE
  8
_0-8_
  6
CONTINUOUS
 62
    7
 10
279.71834072453106
 20
291.72098008930334
 11
279.86811231850953
 21
292.05772402062087
  0
LINE
  8
_0-8_
  6
CONTINUOUS
 62
    7
 10
279.86811231850953
 20
292.05772402062087
 11
279.9185469938655
 21
292.40502031170996
  0
LINE
  8
_0-8_
  6
CONTINUOUS
 62
    7
 10
279.9185469938655
 20
292.40502037595468
 11
280.01941634457745
 21
292.05772402062087
  0
LINE
  8
_0-8_
  6
CONTINUOUS
 62
    7
 10
280.01941634457745
 20
292.05772402062087
 11
280.31895953253428
 21
291.72098008930334
  0
LINE
  8
_0-8_
  6
CONTINUOUS
 62
    7
 10
280.31895953253428
 20
291.72098008930334
 11
280.80807508954621
 21
291.40502037595473
  0
LINE
  8
_0-8_
  6
CONTINUOUS
 62
    7
 10
280.80807508954621
 20
291.40502037595473
 11
281.4719014869176
 21
291.11944515658166
  0
LINE
  8
_0-8_
  6
CONTINUOUS
 62
    7
 10
281.4719014869176
 20
291.11944515658166
 11
282.29026869547698
 21
290.87293148971685
  0
LINE
  8
_0-8_
  6
CONTINUOUS
 62
    7
 10
282.29026869547698
 20
290.87293148971685
 11
283.2383110417058
 21
290.67296956838589
  0
LINE
  8
_0-8_
  6
CONTINUOUS
 62
    7
 10
283.2383110417058
 20
290.67296956838589
 11
284.28722273864656
 21
290.52563513438298
  0
LINE
  8
_0-8_
  6
CONTINUOUS
 62
    7
 10
284.28722273864656
 20
290.52563513438298
 11
285.40513313516277
 21
290.43540486993038
  0
LINE
  8
_0-8_
  6
CONTINUOUS
 62
    7
 10
285.40513313516277
 20
290.43540486993038
 11
286.55807508954609
 21
290.40502037595479
  0
LINE
  8
_0-8_
  6
CONTINUOUS
 62
    7
 10
286.55807508954609
 20
290.40502037595479
 11
287.71101704392942
 21
290.43540486993038
  0
LINE
  8
_0-8_
  6
CONTINUOUS
 62
    7
 10
287.71101704392942
 20
290.43540486993038
 11
288.82892744044563
 21
290.52563513438298
  0
LINE
  8
_0-8_
  6
CONTINUOUS
 62
    7
 10
288.82892744044563
 20
290.52563513438298
 11
289.87783913738639
 21
290.67296956838589
  0
LINE
  8
_0-8_
  6
CONTINUOUS
 62
    7
 10
289.87783913738639
 20
290.67296956838589
 11
290.82588148361521
 21
290.87293148971685
  0
LINE
  8
_0-8_
  6
CONTINUOUS
 62
    7
 10
290.82588148361521
 20
290.87293148971685
 11
291.64424869217459
 21
291.11944515658166
  0
LINE
  8
_0-8_
  6
CONTINUOUS
 62
    7
 10
291.64424869217459
 20
291.11944515658166
 11
292.30807508954598
 21
291.40502037595473
  0
LINE
  8
_0-8_
  6
CONTINUOUS
 62
    7
 10
292.30807508954598
 20
291.40502037595473
 11
292.79719064655791
 21
291.72098008930334
  0
LINE
  8
_0-8_
  6
CONTINUOUS
 62
    7
 10
292.79719064655791
 20
291.72098008930334
 11
293.09673383451474
 21
292.05772402062087
  0
LINE
  8
_0-8_
  6
CONTINUOUS
 62
    7
 10
293.09673383451474
 20
292.05772402062087
 11
293.19760318522668
 21
292.40502037595468
  0
LINE
  8
_0-8_
  6
CONTINUOUS
 62
    7
 10
293.19760318522668
 20
292.40502031170996
 11
293.24803787910031
 21
292.05772395735215
  0
LINE
  8
_0-8_
  6
CONTINUOUS
 62
    7
 10
293.24803787910031
 20
292.05772395735215
 11
293.39780949103368
 21
291.72098002893313
  0
LINE
  8
_0-8_
  6
CONTINUOUS
 62
    7
 10
293.39780949103368
 20
291.72098002893313
 11
293.64236728638633
 21
291.40502032031719
  0
LINE
  8
_0-8_
  6
CONTINUOUS
 62
    7
 10
293.64236728638633
 20
291.40502032031719
 11
293.97428050029879
 21
291.11944510736737
  0
LINE
  8
_0-8_
  6
CONTINUOUS
 62
    7
 10
293.97428050029879
 20
291.11944510736737
 11
294.38346411772233
 21
290.87293144842113
  0
LINE
  8
_0-8_
  6
CONTINUOUS
 62
    7
 10
294.38346411772233
 20
290.87293144842113
 11
294.85748530149857
 21
290.67296953626351
  0
LINE
  8
_0-8_
  6
CONTINUOUS
 62
    7
 10
294.85748530149857
 20
290.67296953626351
 11
295.38194115782477
 21
290.52563511240999
  0
LINE
  8
_0-8_
  6
CONTINUOUS
 62
    7
 10
295.38194115782477
 20
290.52563511240999
 11
295.94089636089387
 21
290.4354048587744
  0
LINE
  8
_0-8_
  6
CONTINUOUS
 62
    7
 10
295.94089636089387
 20
290.4354048587744
 11
296.51736733970557
 21
290.40502037595479
  0
LINE
  8
_0-8_
  6
CONTINUOUS
 62
    7
 10
296.51736733970557
 20
290.40502037595479
 11
297.0938383152772
 21
290.43540488108636
  0
LINE
  8
_0-8_
  6
CONTINUOUS
 62
    7
 10
297.0938383152772
 20
290.43540488108636
 11
297.6527935087243
 21
290.52563515635597
  0
LINE
  8
_0-8_
  6
CONTINUOUS
 62
    7
 10
297.6527935087243
 20
290.52563515635597
 11
298.17724934933887
 21
290.67296960050828
  0
LINE
  8
_0-8_
  6
CONTINUOUS
 62
    7
 10
298.17724934933887
 20
290.67296960050828
 11
298.65127051179144
 21
290.87293153101251
  0
LINE
  8
_0-8_
  6
CONTINUOUS
 62
    7
 10
298.65127051179144
 20
290.87293153101251
 11
299.06045410292717
 21
291.11944520579596
  0
LINE
  8
_0-8_
  6
CONTINUOUS
 62
    7
 10
299.06045410292717
 20
291.11944520579596
 11
299.39236728638622
 21
291.40502043159228
  0
LINE
  8
_0-8_
  6
CONTINUOUS
 62
    7
 10
299.39236728638622
 20
291.40502043159228
 11
299.63692504804538
 21
291.72098014967366
  0
LINE
  8
_0-8_
  6
CONTINUOUS
 62
    7
 10
299.63692504804538
 20
291.72098014967366
 11
299.78669662406884
 21
292.05772408388952
  0
LINE
  8
_0-8_
  6
CONTINUOUS
 62
    7
 10
299.78669662406884
 20
292.05772408388952
 11
299.83713128090727
 21
292.40502037595468
  0
LINE
  8
_0-8_
  6
CONTINUOUS
 62
    7
 10
293.19760318522668
 20
297.10502037595495
 11
293.09673383451474
 21
297.45231673128876
  0
LINE
  8
_0-8_
  6
CONTINUOUS
 62
    7
 10
293.09673383451474
 20
297.45231673128876
 11
292.79719064655791
 21
297.78906066260629
  0
LINE
  8
_0-8_
  6
CONTINUOUS
 62
    7
 10
292.79719064655791
 20
297.78906066260629
 11
292.30807508954598
 21
298.10502037595489
  0
LINE
  8
_0-8_
  6
CONTINUOUS
 62
    7
 10
292.30807508954598
 20
298.10502037595489
 11
291.64424869217459
 21
298.39059559532797
  0
LINE
  8
_0-8_
  6
CONTINUOUS
 62
    7
 10
291.64424869217459
 20
298.39059559532797
 11
290.82588148361521
 21
298.63710926219278
  0
LINE
  8
_0-8_
  6
CONTINUOUS
 62
    7
 10
290.82588148361521
 20
298.63710926219278
 11
289.87783913738639
 21
298.83707118352373
  0
LINE
  8
_0-8_
  6
CONTINUOUS
 62
    7
 10
289.87783913738639
 20
298.83707118352373
 11
288.82892744044563
 21
298.98440561752665
  0
LINE
  8
_0-8_
  6
CONTINUOUS
 62
    7
 10
288.82892744044563
 20
298.98440561752665
 11
287.71101704392942
 21
299.07463588197925
  0
LINE
  8
_0-8_
  6
CONTINUOUS
 62
    7
 10
287.71101704392942
 20
299.07463588197925
 11
286.55807508954609
 21
299.10502037595484
  0
LINE
  8
_0-8_
  6
CONTINUOUS
 62
    7
 10
286.55807508954609
 20
299.10502037595484
 11
285.40513313516277
 21
299.07463588197925
  0
LINE
  8
_0-8_
  6
CONTINUOUS
 62
    7
 10
285.40513313516277
 20
299.07463588197925
 11
284.28722273864656
 21
298.98440561752665
  0
LINE
  8
_0-8_
  6
CONTINUOUS
 62
    7
 10
284.28722273864656
 20
298.98440561752665
 11
283.2383110417058
 21
298.83707118352373
  0
LINE
  8
_0-8_
  6
CONTINUOUS
 62
    7
 10
283.2383110417058
 20
298.83707118352373
 11
282.29026869547698
 21
298.63710926219278
  0
LINE
  8
_0-8_
  6
CONTINUOUS
 62
    7
 10
282.29026869547698
 20
298.63710926219278
 11
281.4719014869176
 21
298.39059559532797
  0
LINE
  8
_0-8_
  6
CONTINUOUS
 62
    7
 10
281.4719014869176
 20
298.39059559532797
 11
280.80807508954621
 21
298.10502037595489
  0
LINE
  8
_0-8_
  6
CONTINUOUS
 62
    7
 10
280.80807508954621
 20
298.10502037595489
 11
280.31895953253428
 21
297.78906066260629
  0
LINE
  8
_0-8_
  6
CONTINUOUS
 62
    7
 10
280.31895953253428
 20
297.78906066260629
 11
280.01941634457745
 21
297.45231673128876
  0
LINE
  8
_0-8_
  6
CONTINUOUS
 62
    7
 10
280.01941634457745
 20
297.45231673128876
 11
279.9185469938655
 21
297.10502037595495
  0
LINE
  8
_0-8_
  6
CONTINUOUS
 62
    7
 10
299.83713128090727
 20
297.10502037595495
 11
299.7866966055513
 21
297.45231673128876
  0
LINE
  8
_0-8_
  6
CONTINUOUS
 62
    7
 10
299.7866966055513
 20
297.45231673128876
 11
299.63692501157283
 21
297.78906066260629
  0
LINE
  8
_0-8_
  6
CONTINUOUS
 62
    7
 10
299.63692501157283
 20
297.78906066260629
 11
299.39236723306698
 21
298.10502037595489
  0
LINE
  8
_0-8_
  6
CONTINUOUS
 62
    7
 10
299.39236723306698
 20
298.10502037595489
 11
299.06045403438117
 21
298.39059559532797
  0
LINE
  8
_0-8_
  6
CONTINUOUS
 62
    7
 10
299.06045403438117
 20
298.39059559532797
 11
298.65127043010153
 21
298.63710926219278
  0
LINE
  8
_0-8_
  6
CONTINUOUS
 62
    7
 10
298.65127043010153
 20
298.63710926219278
 11
298.17724925698718
 21
298.83707118352373
  0
LINE
  8
_0-8_
  6
CONTINUOUS
 62
    7
 10
298.17724925698718
 20
298.83707118352373
 11
297.65279340851674
 21
298.98440561752665
  0
LINE
  8
_0-8_
  6
CONTINUOUS
 62
    7
 10
297.65279340851674
 20
298.98440561752665
 11
297.09383821025864
 21
299.07463588197925
  0
LINE
  8
_0-8_
  6
CONTINUOUS
 62
    7
 10
297.09383821025864
 20
299.07463588197925
 11
296.51736723306698
 21
299.10502037595484
  0
LINE
  8
_0-8_
  6
CONTINUOUS
 62
    7
 10
296.51736723306698
 20
299.10502037595484
 11
295.94089625587532
 21
299.07463588197925
  0
LINE
  8
_0-8_
  6
CONTINUOUS
 62
    7
 10
295.94089625587532
 20
299.07463588197925
 11
295.38194105761721
 21
298.98440561752665
  0
LINE
  8
_0-8_
  6
CONTINUOUS
 62
    7
 10
295.38194105761721
 20
298.98440561752665
 11
294.85748520914689
 21
298.83707118352373
  0
LINE
  8
_0-8_
  6
CONTINUOUS
 62
    7
 10
294.85748520914689
 20
298.83707118352373
 11
294.38346403603242
 21
298.63710926219278
  0
LINE
  8
_0-8_
  6
CONTINUOUS
 62
    7
 10
294.38346403603242
 20
298.63710926219278
 11
293.97428043175279
 21
298.39059559532797
  0
LINE
  8
_0-8_
  6
CONTINUOUS
 62
    7
 10
293.97428043175279
 20
298.39059559532797
 11
293.64236723306698
 21
298.10502037595489
  0
LINE
  8
_0-8_
  6
CONTINUOUS
 62
    7
 10
293.64236723306698
 20
298.10502037595489
 11
293.39780945456113
 21
297.78906066260629
  0
LINE
  8
_0-8_
  6
CONTINUOUS
 62
    7
 10
293.39780945456113
 20
297.78906066260629
 11
293.24803786058266
 21
297.45231673128876
  0
LINE
  8
_0-8_
  6
CONTINUOUS
 62
    7
 10
293.24803786058266
 20
297.45231673128876
 11
293.19760318522668
 21
297.10502044019967
  0
LINE
  8
_0-8_
  6
CONTINUOUS
 62
    7
 10
279.9185469938655
 20
297.10502044019967
 11
279.86811229999188
 21
297.45231679455748
  0
LINE
  8
_0-8_
  6
CONTINUOUS
 62
    7
 10
279.86811229999188
 20
297.45231679455748
 11
279.7183406880585
 21
297.7890607229765
  0
LINE
  8
_0-8_
  6
CONTINUOUS
 62
    7
 10
279.7183406880585
 20
297.7890607229765
 11
279.47378289270586
 21
298.10502043159244
  0
LINE
  8
_0-8_
  6
CONTINUOUS
 62
    7
 10
279.47378289270586
 20
298.10502043159244
 11
279.1418696787934
 21
298.39059564454226
  0
LINE
  8
_0-8_
  6
CONTINUOUS
 62
    7
 10
279.1418696787934
 20
298.39059564454226
 11
278.73268606136986
 21
298.6371093034885
  0
LINE
  8
_0-8_
  6
CONTINUOUS
 62
    7
 10
278.73268606136986
 20
298.6371093034885
 11
278.25866487759362
 21
298.83707121564612
  0
LINE
  8
_0-8_
  6
CONTINUOUS
 62
    7
 10
278.25866487759362
 20
298.83707121564612
 11
277.73420902126742
 21
298.98440563949964
  0
LINE
  8
_0-8_
  6
CONTINUOUS
 62
    7
 10
277.73420902126742
 20
298.98440563949964
 11
277.17525381819831
 21
299.07463589313522
  0
LINE
  8
_0-8_
  6
CONTINUOUS
 62
    7
 10
277.17525381819831
 20
299.07463589313522
 11
276.59878283938662
 21
299.10502037595484
  0
LINE
  8
_0-8_
  6
CONTINUOUS
 62
    7
 10
276.59878283938662
 20
299.10502037595484
 11
276.02231186381499
 21
299.07463587082327
  0
LINE
  8
_0-8_
  6
CONTINUOUS
 62
    7
 10
276.02231186381499
 20
299.07463587082327
 11
275.46335667036789
 21
298.98440559555365
  0
LINE
  8
_0-8_
  6
CONTINUOUS
 62
    7
 10
275.46335667036789
 20
298.98440559555365
 11
274.93890082975332
 21
298.83707115140135
  0
LINE
  8
_0-8_
  6
CONTINUOUS
 62
    7
 10
274.93890082975332
 20
298.83707115140135
 11
274.46487966730075
 21
298.63710922089712
  0
LINE
  8
_0-8_
  6
CONTINUOUS
 62
    7
 10
274.46487966730075
 20
298.63710922089712
 11
274.05569607616502
 21
298.39059554611367
  0
LINE
  8
_0-8_
  6
CONTINUOUS
 62
    7
 10
274.05569607616502
 20
298.39059554611367
 11
273.72378289270597
 21
298.10502032031735
  0
LINE
  8
_0-8_
  6
CONTINUOUS
 62
    7
 10
273.72378289270597
 20
298.10502032031735
 11
273.4792251310468
 21
297.78906060223596
  0
LINE
  8
_0-8_
  6
CONTINUOUS
 62
    7
 10
273.4792251310468
 20
297.78906060223596
 11
273.32945355502335
 21
297.4523166680201
  0
LINE
  8
_0-8_
  6
CONTINUOUS
 62
    7
 10
273.32945355502335
 20
297.4523166680201
 11
273.27901889818492
 21
297.10502037595495
  0
LINE
  8
_0-8_
  6
CONTINUOUS
 62
    7
 10
294.55807505476429
 20
290.40502037595479
 11
294.55807505476429
 21
221.10502037595484
  0
LINE
  8
_0-8_
  6
CONTINUOUS
 62
    7
 10
293.65807499416434
 20
221.10502037595484
 11
293.65807499416434
 21
290.40502037595479
  0
LINE
  8
_0-8_
  6
CONTINUOUS
 62
    7
 10
279.45807518486407
 20
290.40502037595479
 11
279.45807518486407
 21
221.10502037595484
  0
LINE
  8
_0-8_
  6
CONTINUOUS
 62
    7
 10
278.55807505476406
 20
221.10502037595484
 11
278.55807505476406
 21
290.40502037595479
  0
LINE
  8
_0-8_
  6
CONTINUOUS
 62
    7
 10
681.44828629818483
 20
297.10502037595495
 11
681.44828629818483
 21
292.40502037595468
  0
LINE
  8
_0-8_
  6
CONTINUOUS
 62
    7
 10
684.76805034602512
 20
290.40502037595479
 11
704.68663463306689
 21
290.40502037595479
  0
LINE
  8
_0-8_
  6
CONTINUOUS
 62
    7
 10
701.36687058522659
 20
292.40502037595468
 11
701.36687058522659
 21
297.10502037595495
  0
LINE
  8
_0-8_
  6
CONTINUOUS
 62
    7
 10
704.68663463306689
 20
299.10502037595484
 11
684.76805034602512
 21
299.10502037595484
  0
LINE
  8
_0-8_
  6
CONTINUOUS
 62
    7
 10
688.08781439386541
 20
297.10502037595495
 11
688.08781439386541
 21
292.40502037595468
  0
LINE
  8
_0-8_
  6
CONTINUOUS
 62
    7
 10
708.00639868090718
 20
292.40502037595468
 11
708.00639868090718
 21
297.10502037595495
  0
LINE
  8
_0-8_
  6
CONTINUOUS
 62
    7
 10
681.44828629818483
 20
292.40502037595468
 11
681.4987209735408
 21
292.05772402062087
  0
LINE
  8
_0-8_
  6
CONTINUOUS
 62
    7
 10
681.4987209735408
 20
292.05772402062087
 11
681.64849256751927
 21
291.72098008930334
  0
LINE
  8
_0-8_
  6
CONTINUOUS
 62
    7
 10
681.64849256751927
 20
291.72098008930334
 11
681.89305034602512
 21
291.40502037595473
  0
LINE
  8
_0-8_
  6
CONTINUOUS
 62
    7
 10
681.89305034602512
 20
291.40502037595473
 11
682.22496354471093
 21
291.11944515658166
  0
LINE
  8
_0-8_
  6
CONTINUOUS
 62
    7
 10
682.22496354471093
 20
291.11944515658166
 11
682.63414714899056
 21
290.87293148971685
  0
LINE
  8
_0-8_
  6
CONTINUOUS
 62
    7
 10
682.63414714899056
 20
290.87293148971685
 11
683.10816832210492
 21
290.67296956838589
  0
LINE
  8
_0-8_
  6
CONTINUOUS
 62
    7
 10
683.10816832210492
 20
290.67296956838589
 11
683.63262417057535
 21
290.52563513438298
  0
LINE
  8
_0-8_
  6
CONTINUOUS
 62
    7
 10
683.63262417057535
 20
290.52563513438298
 11
684.19157936883346
 21
290.43540486993038
  0
LINE
  8
_0-8_
  6
CONTINUOUS
 62
    7
 10
684.19157936883346
 20
290.43540486993038
 11
684.76805034602512
 21
290.40502037595479
  0
LINE
  8
_0-8_
  6
CONTINUOUS
 62
    7
 10
684.76805034602512
 20
290.40502037595479
 11
685.34452132321678
 21
290.43540486993038
  0
LINE
  8
_0-8_
  6
CONTINUOUS
 62
    7
 10
685.34452132321678
 20
290.43540486993038
 11
685.90347652147489
 21
290.52563513438298
  0
LINE
  8
_0-8_
  6
CONTINUOUS
 62
    7
 10
685.90347652147489
 20
290.52563513438298
 11
686.42793236994521
 21
290.67296956838589
  0
LINE
  8
_0-8_
  6
CONTINUOUS
 62
    7
 10
686.42793236994521
 20
290.67296956838589
 11
686.90195354305968
 21
290.87293148971685
  0
LINE
  8
_0-8_
  6
CONTINUOUS
 62
    7
 10
686.90195354305968
 20
290.87293148971685
 11
687.31113714733931
 21
291.11944515658166
  0
LINE
  8
_0-8_
  6
CONTINUOUS
 62
    7
 10
687.31113714733931
 20
291.11944515658166
 11
687.64305034602512
 21
291.40502037595473
  0
LINE
  8
_0-8_
  6
CONTINUOUS
 62
    7
 10
687.64305034602512
 20
291.40502037595473
 11
687.88760812453097
 21
291.72098008930334
  0
LINE
  8
_0-8_
  6
CONTINUOUS
 62
    7
 10
687.88760812453097
 20
291.72098008930334
 11
688.03737971850944
 21
292.05772402062087
  0
LINE
  8
_0-8_
  6
CONTINUOUS
 62
    7
 10
688.03737971850944
 20
292.05772402062087
 11
688.08781439386541
 21
292.40502031170996
  0
LINE
  8
_0-8_
  6
CONTINUOUS
 62
    7
 10
688.08781439386541
 20
292.40502037595468
 11
688.18868374457736
 21
292.05772402062087
  0
LINE
  8
_0-8_
  6
CONTINUOUS
 62
    7
 10
688.18868374457736
 20
292.05772402062087
 11
688.48822693253419
 21
291.72098008930334
  0
LINE
  8
_0-8_
  6
CONTINUOUS
 62
    7
 10
688.48822693253419
 20
291.72098008930334
 11
688.97734248954612
 21
291.40502037595473
  0
LINE
  8
_0-8_
  6
CONTINUOUS
 62
    7
 10
688.97734248954612
 20
291.40502037595473
 11
689.64116888691751
 21
291.11944515658166
  0
LINE
  8
_0-8_
  6
CONTINUOUS
 62
    7
 10
689.64116888691751
 20
291.11944515658166
 11
690.45953609547689
 21
290.87293148971685
  0
LINE
  8
_0-8_
  6
CONTINUOUS
 62
    7
 10
690.45953609547689
 20
290.87293148971685
 11
691.40757844170571
 21
290.67296956838589
  0
LINE
  8
_0-8_
  6
CONTINUOUS
 62
    7
 10
691.40757844170571
 20
290.67296956838589
 11
692.45649013864647
 21
290.52563513438298
  0
LINE
  8
_0-8_
  6
CONTINUOUS
 62
    7
 10
692.45649013864647
 20
290.52563513438298
 11
693.57440053516268
 21
290.43540486993038
  0
LINE
  8
_0-8_
  6
CONTINUOUS
 62
    7
 10
693.57440053516268
 20
290.43540486993038
 11
694.727342489546
 21
290.40502037595479
  0
LINE
  8
_0-8_
  6
CONTINUOUS
 62
    7
 10
694.727342489546
 20
290.40502037595479
 11
695.88028444392933
 21
290.43540486993038
  0
LINE
  8
_0-8_
  6
CONTINUOUS
 62
    7
 10
695.88028444392933
 20
290.43540486993038
 11
696.99819484044554
 21
290.52563513438298
  0
LINE
  8
_0-8_
  6
CONTINUOUS
 62
    7
 10
696.99819484044554
 20
290.52563513438298
 11
698.0471065373863
 21
290.67296956838589
  0
LINE
  8
_0-8_
  6
CONTINUOUS
 62
    7
 10
698.0471065373863
 20
290.67296956838589
 11
698.99514888361512
 21
290.87293148971685
  0
LINE
  8
_0-8_
  6
CONTINUOUS
 62
    7
 10
698.99514888361512
 20
290.87293148971685
 11
699.8135160921745
 21
291.11944515658166
  0
LINE
  8
_0-8_
  6
CONTINUOUS
 62
    7
 10
699.8135160921745
 20
291.11944515658166
 11
700.47734248954589
 21
291.40502037595473
  0
LINE
  8
_0-8_
  6
CONTINUOUS
 62
    7
 10
700.47734248954589
 20
291.40502037595473
 11
700.96645804655782
 21
291.72098008930334
  0
LINE
  8
_0-8_
  6
CONTINUOUS
 62
    7
 10
700.96645804655782
 20
291.72098008930334
 11
701.26600123451465
 21
292.05772402062087
  0
LINE
  8
_0-8_
  6
CONTINUOUS
 62
    7
 10
701.26600123451465
 20
292.05772402062087
 11
701.36687058522659
 21
292.40502037595468
  0
LINE
  8
_0-8_
  6
CONTINUOUS
 62
    7
 10
701.36687058522659
 20
292.40502031170996
 11
701.41730527910022
 21
292.05772395735215
  0
LINE
  8
_0-8_
  6
CONTINUOUS
 62
    7
 10
701.41730527910022
 20
292.05772395735215
 11
701.56707689103359
 21
291.72098002893313
  0
LINE
  8
_0-8_
  6
CONTINUOUS
 62
    7
 10
701.56707689103359
 20
291.72098002893313
 11
701.81163468638624
 21
291.40502032031719
  0
LINE
  8
_0-8_
  6
CONTINUOUS
 62
    7
 10
701.81163468638624
 20
291.40502032031719
 11
702.1435479002987
 21
291.11944510736737
  0
LINE
  8
_0-8_
  6
CONTINUOUS
 62
    7
 10
702.1435479002987
 20
291.11944510736737
 11
702.55273151772224
 21
290.87293144842113
  0
LINE
  8
_0-8_
  6
CONTINUOUS
 62
    7
 10
702.55273151772224
 20
290.87293144842113
 11
703.02675270149848
 21
290.67296953626351
  0
LINE
  8
_0-8_
  6
CONTINUOUS
 62
    7
 10
703.02675270149848
 20
290.67296953626351
 11
703.55120855782468
 21
290.52563511240999
  0
LINE
  8
_0-8_
  6
CONTINUOUS
 62
    7
 10
703.55120855782468
 20
290.52563511240999
 11
704.11016376089378
 21
290.4354048587744
  0
LINE
  8
_0-8_
  6
CONTINUOUS
 62
    7
 10
704.11016376089378
 20
290.4354048587744
 11
704.68663473970548
 21
290.40502037595479
  0
LINE
  8
_0-8_
  6
CONTINUOUS
 62
    7
 10
704.68663473970548
 20
290.40502037595479
 11
705.26310571527711
 21
290.43540488108636
  0
LINE
  8
_0-8_
  6
CONTINUOUS
 62
    7
 10
705.26310571527711
 20
290.43540488108636
 11
705.82206090872421
 21
290.52563515635597
  0
LINE
  8
_0-8_
  6
CONTINUOUS
 62
    7
 10
705.82206090872421
 20
290.52563515635597
 11
706.34651674933878
 21
290.67296960050828
  0
LINE
  8
_0-8_
  6
CONTINUOUS
 62
    7
 10
706.34651674933878
 20
290.67296960050828
 11
706.82053791179135
 21
290.87293153101251
  0
LINE
  8
_0-8_
  6
CONTINUOUS
 62
    7
 10
706.82053791179135
 20
290.87293153101251
 11
707.22972150292708
 21
291.11944520579596
  0
LINE
  8
_0-8_
  6
CONTINUOUS
 62
    7
 10
707.22972150292708
 20
291.11944520579596
 11
707.56163468638613
 21
291.40502043159228
  0
LINE
  8
_0-8_
  6
CONTINUOUS
 62
    7
 10
707.56163468638613
 20
291.40502043159228
 11
707.80619244804529
 21
291.72098014967366
  0
LINE
  8
_0-8_
  6
CONTINUOUS
 62
    7
 10
707.80619244804529
 20
291.72098014967366
 11
707.95596402406875
 21
292.05772408388952
  0
LINE
  8
_0-8_
  6
CONTINUOUS
 62
    7
 10
707.95596402406875
 20
292.05772408388952
 11
708.00639868090718
 21
292.40502037595468
  0
LINE
  8
_0-8_
  6
CONTINUOUS
 62
    7
 10
701.36687058522659
 20
297.10502037595495
 11
701.26600123451465
 21
297.45231673128876
  0
LINE
  8
_0-8_
  6
CONTINUOUS
 62
    7
 10
701.26600123451465
 20
297.45231673128876
 11
700.96645804655782
 21
297.78906066260629
  0
LINE
  8
_0-8_
  6
CONTINUOUS
 62
    7
 10
700.96645804655782
 20
297.78906066260629
 11
700.47734248954589
 21
298.10502037595489
  0
LINE
  8
_0-8_
  6
CONTINUOUS
 62
    7
 10
700.47734248954589
 20
298.10502037595489
 11
699.8135160921745
 21
298.39059559532797
  0
LINE
  8
_0-8_
  6
CONTINUOUS
 62
    7
 10
699.8135160921745
 20
298.39059559532797
 11
698.99514888361512
 21
298.63710926219278
  0
LINE
  8
_0-8_
  6
CONTINUOUS
 62
    7
 10
698.99514888361512
 20
298.63710926219278
 11
698.0471065373863
 21
298.83707118352373
  0
LINE
  8
_0-8_
  6
CONTINUOUS
 62
    7
 10
698.0471065373863
 20
298.83707118352373
 11
696.99819484044554
 21
298.98440561752665
  0
LINE
  8
_0-8_
  6
CONTINUOUS
 62
    7
 10
696.99819484044554
 20
298.98440561752665
 11
695.88028444392933
 21
299.07463588197925
  0
LINE
  8
_0-8_
  6
CONTINUOUS
 62
    7
 10
695.88028444392933
 20
299.07463588197925
 11
694.727342489546
 21
299.10502037595484
  0
LINE
  8
_0-8_
  6
CONTINUOUS
 62
    7
 10
694.727342489546
 20
299.10502037595484
 11
693.57440053516268
 21
299.07463588197925
  0
LINE
  8
_0-8_
  6
CONTINUOUS
 62
    7
 10
693.57440053516268
 20
299.07463588197925
 11
692.45649013864647
 21
298.98440561752665
  0
LINE
  8
_0-8_
  6
CONTINUOUS
 62
    7
 10
692.45649013864647
 20
298.98440561752665
 11
691.40757844170571
 21
298.83707118352373
  0
LINE
  8
_0-8_
  6
CONTINUOUS
 62
    7
 10
691.40757844170571
 20
298.83707118352373
 11
690.45953609547689
 21
298.63710926219278
  0
LINE
  8
_0-8_
  6
CONTINUOUS
 62
    7
 10
690.45953609547689
 20
298.63710926219278
 11
689.64116888691751
 21
298.39059559532797
  0
LINE
  8
_0-8_
  6
CONTINUOUS
 62
    7
 10
689.64116888691751
 20
298.39059559532797
 11
688.97734248954612
 21
298.10502037595489
  0
LINE
  8
_0-8_
  6
CONTINUOUS
 62
    7
 10
688.97734248954612
 20
298.10502037595489
 11
688.48822693253419
 21
297.78906066260629
  0
LINE
  8
_0-8_
  6
CONTINUOUS
 62
    7
 10
688.48822693253419
 20
297.78906066260629
 11
688.18868374457736
 21
297.45231673128876
  0
LINE
  8
_0-8_
  6
CONTINUOUS
 62
    7
 10
688.18868374457736
 20
297.45231673128876
 11
688.08781439386541
 21
297.10502037595495
  0
LINE
  8
_0-8_
  6
CONTINUOUS
 62
    7
 10
708.00639868090718
 20
297.10502037595495
 11
707.95596400555121
 21
297.45231673128876
  0
LINE
  8
_0-8_
  6
CONTINUOUS
 62
    7
 10
707.95596400555121
 20
297.45231673128876
 11
707.80619241157274
 21
297.78906066260629
  0
LINE
  8
_0-8_
  6
CONTINUOUS
 62
    7
 10
707.80619241157274
 20
297.78906066260629
 11
707.56163463306689
 21
298.10502037595489
  0
LINE
  8
_0-8_
  6
CONTINUOUS
 62
    7
 10
707.56163463306689
 20
298.10502037595489
 11
707.22972143438108
 21
298.39059559532797
  0
LINE
  8
_0-8_
  6
CONTINUOUS
 62
    7
 10
707.22972143438108
 20
298.39059559532797
 11
706.82053783010144
 21
298.63710926219278
  0
LINE
  8
_0-8_
  6
CONTINUOUS
 62
    7
 10
706.82053783010144
 20
298.63710926219278
 11
706.34651665698709
 21
298.83707118352373
  0
LINE
  8
_0-8_
  6
CONTINUOUS
 62
    7
 10
706.34651665698709
 20
298.83707118352373
 11
705.82206080851665
 21
298.98440561752665
  0
LINE
  8
_0-8_
  6
CONTINUOUS
 62
    7
 10
705.82206080851665
 20
298.98440561752665
 11
705.26310561025855
 21
299.07463588197925
  0
LINE
  8
_0-8_
  6
CONTINUOUS
 62
    7
 10
705.26310561025855
 20
299.07463588197925
 11
704.68663463306689
 21
299.10502037595484
  0
LINE
  8
_0-8_
  6
CONTINUOUS
 62
    7
 10
704.68663463306689
 20
299.10502037595484
 11
704.11016365587523
 21
299.07463588197925
  0
LINE
  8
_0-8_
  6
CONTINUOUS
 62
    7
 10
704.11016365587523
 20
299.07463588197925
 11
703.55120845761712
 21
298.98440561752665
  0
LINE
  8
_0-8_
  6
CONTINUOUS
 62
    7
 10
703.55120845761712
 20
298.98440561752665
 11
703.0267526091468
 21
298.83707118352373
  0
LINE
  8
_0-8_
  6
CONTINUOUS
 62
    7
 10
703.0267526091468
 20
298.83707118352373
 11
702.55273143603233
 21
298.63710926219278
  0
LINE
  8
_0-8_
  6
CONTINUOUS
 62
    7
 10
702.55273143603233
 20
298.63710926219278
 11
702.1435478317527
 21
298.39059559532797
  0
LINE
  8
_0-8_
  6
CONTINUOUS
 62
    7
 10
702.1435478317527
 20
298.39059559532797
 11
701.81163463306689
 21
298.10502037595489
  0
LINE
  8
_0-8_
  6
CONTINUOUS
 62
    7
 10
701.81163463306689
 20
298.10502037595489
 11
701.56707685456104
 21
297.78906066260629
  0
LINE
  8
_0-8_
  6
CONTINUOUS
 62
    7
 10
701.56707685456104
 20
297.78906066260629
 11
701.41730526058257
 21
297.45231673128876
  0
LINE
  8
_0-8_
  6
CONTINUOUS
 62
    7
 10
701.41730526058257
 20
297.45231673128876
 11
701.36687058522659
 21
297.10502044019967
  0
LINE
  8
_0-8_
  6
CONTINUOUS
 62
    7
 10
688.08781439386541
 20
297.10502044019967
 11
688.03737969999179
 21
297.45231679455748
  0
LINE
  8
_0-8_
  6
CONTINUOUS
 62
    7
 10
688.03737969999179
 20
297.45231679455748
 11
687.88760808805841
 21
297.7890607229765
  0
LINE
  8
_0-8_
  6
CONTINUOUS
 62
    7
 10
687.88760808805841
 20
297.7890607229765
 11
687.64305029270577
 21
298.10502043159244
  0
LINE
  8
_0-8_
  6
CONTINUOUS
 62
    7
 10
687.64305029270577
 20
298.10502043159244
 11
687.31113707879331
 21
298.39059564454226
  0
LINE
  8
_0-8_
  6
CONTINUOUS
 62
    7
 10
687.31113707879331
 20
298.39059564454226
 11
686.90195346136977
 21
298.6371093034885
  0
LINE
  8
_0-8_
  6
CONTINUOUS
 62
    7
 10
686.90195346136977
 20
298.6371093034885
 11
686.42793227759353
 21
298.83707121564612
  0
LINE
  8
_0-8_
  6
CONTINUOUS
 62
    7
 10
686.42793227759353
 20
298.83707121564612
 11
685.90347642126733
 21
298.98440563949964
  0
LINE
  8
_0-8_
  6
CONTINUOUS
 62
    7
 10
685.90347642126733
 20
298.98440563949964
 11
685.34452121819822
 21
299.07463589313522
  0
LINE
  8
_0-8_
  6
CONTINUOUS
 62
    7
 10
685.34452121819822
 20
299.07463589313522
 11
684.76805023938653
 21
299.10502037595484
  0
LINE
  8
_0-8_
  6
CONTINUOUS
 62
    7
 10
684.76805023938653
 20
299.10502037595484
 11
684.1915792638149
 21
299.07463587082327
  0
LINE
  8
_0-8_
  6
CONTINUOUS
 62
    7
 10
684.1915792638149
 20
299.07463587082327
 11
683.6326240703678
 21
298.98440559555365
  0
LINE
  8
_0-8_
  6
CONTINUOUS
 62
    7
 10
683.6326240703678
 20
298.98440559555365
 11
683.10816822975323
 21
298.83707115140135
  0
LINE
  8
_0-8_
  6
CONTINUOUS
 62
    7
 10
683.10816822975323
 20
298.83707115140135
 11
682.63414706730066
 21
298.63710922089712
  0
LINE
  8
_0-8_
  6
CONTINUOUS
 62
    7
 10
682.63414706730066
 20
298.63710922089712
 11
682.22496347616493
 21
298.39059554611367
  0
LINE
  8
_0-8_
  6
CONTINUOUS
 62
    7
 10
682.22496347616493
 20
298.39059554611367
 11
681.89305029270588
 21
298.10502032031735
  0
LINE
  8
_0-8_
  6
CONTINUOUS
 62
    7
 10
681.89305029270588
 20
298.10502032031735
 11
681.64849253104671
 21
297.78906060223596
  0
LINE
  8
_0-8_
  6
CONTINUOUS
 62
    7
 10
681.64849253104671
 20
297.78906060223596
 11
681.49872095502326
 21
297.4523166680201
  0
LINE
  8
_0-8_
  6
CONTINUOUS
 62
    7
 10
681.49872095502326
 20
297.4523166680201
 11
681.44828629818483
 21
297.10502037595495
  0
LINE
  8
_0-8_
  6
CONTINUOUS
 62
    7
 10
702.7273424547642
 20
290.40502037595479
 11
702.7273424547642
 21
221.10502037595484
  0
LINE
  8
_0-8_
  6
CONTINUOUS
 62
    7
 10
701.82734239416425
 20
221.10502037595484
 11
701.82734239416425
 21
290.40502037595479
  0
LINE
  8
_0-8_
  6
CONTINUOUS
 62
    7
 10
687.62734258486398
 20
290.40502037595479
 11
687.62734258486398
 21
221.10502037595484
  0
LINE
  8
_0-8_
  6
CONTINUOUS
 62
    7
 10
686.72734245476397
 20
221.10502037595484
 11
686.72734245476397
 21
290.40502037595479
  0
LINE
  8
_0-8_
  6
CONTINUOUS
 62
    7
 10
839.20148319732982
 20
297.10502037595495
 11
839.20148319732982
 21
292.40502037595468
  0
LINE
  8
_0-8_
  6
CONTINUOUS
 62
    7
 10
842.52124724517012
 20
290.40502037595479
 11
862.43983153221188
 21
290.40502037595479
  0
LINE
  8
_0-8_
  6
CONTINUOUS
 62
    7
 10
859.12006748437159
 20
292.40502037595468
 11
859.12006748437159
 21
297.10502037595495
  0
LINE
  8
_0-8_
  6
CONTINUOUS
 62
    7
 10
862.43983153221188
 20
299.10502037595484
 11
842.52124724517012
 21
299.10502037595484
  0
LINE
  8
_0-8_
  6
CONTINUOUS
 62
    7
 10
845.84101129301041
 20
297.10502037595495
 11
845.84101129301041
 21
292.40502037595468
  0
LINE
  8
_0-8_
  6
CONTINUOUS
 62
    7
 10
865.75959558005218
 20
292.40502037595468
 11
865.75959558005218
 21
297.10502037595495
  0
LINE
  8
_0-8_
  6
CONTINUOUS
 62
    7
 10
839.20148319732982
 20
292.40502037595468
 11
839.25191787268579
 21
292.05772402062087
  0
LINE
  8
_0-8_
  6
CONTINUOUS
 62
    7
 10
839.25191787268579
 20
292.05772402062087
 11
839.40168946666427
 21
291.72098008930334
  0
LINE
  8
_0-8_
  6
CONTINUOUS
 62
    7
 10
839.40168946666427
 20
291.72098008930334
 11
839.64624724517012
 21
291.40502037595473
  0
LINE
  8
_0-8_
  6
CONTINUOUS
 62
    7
 10
839.64624724517012
 20
291.40502037595473
 11
839.97816044385593
 21
291.11944515658166
  0
LINE
  8
_0-8_
  6
CONTINUOUS
 62
    7
 10
839.97816044385593
 20
291.11944515658166
 11
840.38734404813556
 21
290.87293148971685
  0
LINE
  8
_0-8_
  6
CONTINUOUS
 62
    7
 10
840.38734404813556
 20
290.87293148971685
 11
840.86136522124991
 21
290.67296956838589
  0
LINE
  8
_0-8_
  6
CONTINUOUS
 62
    7
 10
840.86136522124991
 20
290.67296956838589
 11
841.38582106972035
 21
290.52563513438298
  0
LINE
  8
_0-8_
  6
CONTINUOUS
 62
    7
 10
841.38582106972035
 20
290.52563513438298
 11
841.94477626797845
 21
290.43540486993038
  0
LINE
  8
_0-8_
  6
CONTINUOUS
 62
    7
 10
841.94477626797845
 20
290.43540486993038
 11
842.52124724517012
 21
290.40502037595479
  0
LINE
  8
_0-8_
  6
CONTINUOUS
 62
    7
 10
842.52124724517012
 20
290.40502037595479
 11
843.09771822236178
 21
290.43540486993038
  0
LINE
  8
_0-8_
  6
CONTINUOUS
 62
    7
 10
843.09771822236178
 20
290.43540486993038
 11
843.65667342061988
 21
290.52563513438298
  0
LINE
  8
_0-8_
  6
CONTINUOUS
 62
    7
 10
843.65667342061988
 20
290.52563513438298
 11
844.18112926909021
 21
290.67296956838589
  0
LINE
  8
_0-8_
  6
CONTINUOUS
 62
    7
 10
844.18112926909021
 20
290.67296956838589
 11
844.65515044220467
 21
290.87293148971685
  0
LINE
  8
_0-8_
  6
CONTINUOUS
 62
    7
 10
844.65515044220467
 20
290.87293148971685
 11
845.0643340464843
 21
291.11944515658166
  0
LINE
  8
_0-8_
  6
CONTINUOUS
 62
    7
 10
845.0643340464843
 20
291.11944515658166
 11
845.39624724517012
 21
291.40502037595473
  0
LINE
  8
_0-8_
  6
CONTINUOUS
 62
    7
 10
845.39624724517012
 20
291.40502037595473
 11
845.64080502367597
 21
291.72098008930334
  0
LINE
  8
_0-8_
  6
CONTINUOUS
 62
    7
 10
845.64080502367597
 20
291.72098008930334
 11
845.79057661765444
 21
292.05772402062087
  0
LINE
  8
_0-8_
  6
CONTINUOUS
 62
    7
 10
845.79057661765444
 20
292.05772402062087
 11
845.84101129301041
 21
292.40502031170996
  0
LINE
  8
_0-8_
  6
CONTINUOUS
 62
    7
 10
845.84101129301041
 20
292.40502037595468
 11
845.94188064372236
 21
292.05772402062087
  0
LINE
  8
_0-8_
  6
CONTINUOUS
 62
    7
 10
845.94188064372236
 20
292.05772402062087
 11
846.24142383167919
 21
291.72098008930334
  0
LINE
  8
_0-8_
  6
CONTINUOUS
 62
    7
 10
846.24142383167919
 20
291.72098008930334
 11
846.73053938869111
 21
291.40502037595473
  0
LINE
  8
_0-8_
  6
CONTINUOUS
 62
    7
 10
846.73053938869111
 20
291.40502037595473
 11
847.39436578606251
 21
291.11944515658166
  0
LINE
  8
_0-8_
  6
CONTINUOUS
 62
    7
 10
847.39436578606251
 20
291.11944515658166
 11
848.21273299462189
 21
290.87293148971685
  0
LINE
  8
_0-8_
  6
CONTINUOUS
 62
    7
 10
848.21273299462189
 20
290.87293148971685
 11
849.16077534085071
 21
290.67296956838589
  0
LINE
  8
_0-8_
  6
CONTINUOUS
 62
    7
 10
849.16077534085071
 20
290.67296956838589
 11
850.20968703779147
 21
290.52563513438298
  0
LINE
  8
_0-8_
  6
CONTINUOUS
 62
    7
 10
850.20968703779147
 20
290.52563513438298
 11
851.32759743430768
 21
290.43540486993038
  0
LINE
  8
_0-8_
  6
CONTINUOUS
 62
    7
 10
851.32759743430768
 20
290.43540486993038
 11
852.480539388691
 21
290.40502037595479
  0
LINE
  8
_0-8_
  6
CONTINUOUS
 62
    7
 10
852.480539388691
 20
290.40502037595479
 11
853.63348134307432
 21
290.43540486993038
  0
LINE
  8
_0-8_
  6
CONTINUOUS
 62
    7
 10
853.63348134307432
 20
290.43540486993038
 11
854.75139173959053
 21
290.52563513438298
  0
LINE
  8
_0-8_
  6
CONTINUOUS
 62
    7
 10
854.75139173959053
 20
290.52563513438298
 11
855.80030343653129
 21
290.67296956838589
  0
LINE
  8
_0-8_
  6
CONTINUOUS
 62
    7
 10
855.80030343653129
 20
290.67296956838589
 11
856.74834578276011
 21
290.87293148971685
  0
LINE
  8
_0-8_
  6
CONTINUOUS
 62
    7
 10
856.74834578276011
 20
290.87293148971685
 11
857.56671299131949
 21
291.11944515658166
  0
LINE
  8
_0-8_
  6
CONTINUOUS
 62
    7
 10
857.56671299131949
 20
291.11944515658166
 11
858.23053938869089
 21
291.40502037595473
  0
LINE
  8
_0-8_
  6
CONTINUOUS
 62
    7
 10
858.23053938869089
 20
291.40502037595473
 11
858.71965494570281
 21
291.72098008930334
  0
LINE
  8
_0-8_
  6
CONTINUOUS
 62
    7
 10
858.71965494570281
 20
291.72098008930334
 11
859.01919813365964
 21
292.05772402062087
  0
LINE
  8
_0-8_
  6
CONTINUOUS
 62
    7
 10
859.01919813365964
 20
292.05772402062087
 11
859.12006748437159
 21
292.40502037595468
  0
LINE
  8
_0-8_
  6
CONTINUOUS
 62
    7
 10
859.12006748437159
 20
292.40502031170996
 11
859.17050217824521
 21
292.05772395735215
  0
LINE
  8
_0-8_
  6
CONTINUOUS
 62
    7
 10
859.17050217824521
 20
292.05772395735215
 11
859.32027379017859
 21
291.72098002893313
  0
LINE
  8
_0-8_
  6
CONTINUOUS
 62
    7
 10
859.32027379017859
 20
291.72098002893313
 11
859.56483158553124
 21
291.40502032031719
  0
LINE
  8
_0-8_
  6
CONTINUOUS
 62
    7
 10
859.56483158553124
 20
291.40502032031719
 11
859.8967447994437
 21
291.11944510736737
  0
LINE
  8
_0-8_
  6
CONTINUOUS
 62
    7
 10
859.8967447994437
 20
291.11944510736737
 11
860.30592841686723
 21
290.87293144842113
  0
LINE
  8
_0-8_
  6
CONTINUOUS
 62
    7
 10
860.30592841686723
 20
290.87293144842113
 11
860.77994960064348
 21
290.67296953626351
  0
LINE
  8
_0-8_
  6
CONTINUOUS
 62
    7
 10
860.77994960064348
 20
290.67296953626351
 11
861.30440545696968
 21
290.52563511240999
  0
LINE
  8
_0-8_
  6
CONTINUOUS
 62
    7
 10
861.30440545696968
 20
290.52563511240999
 11
861.86336066003878
 21
290.4354048587744
  0
LINE
  8
_0-8_
  6
CONTINUOUS
 62
    7
 10
861.86336066003878
 20
290.4354048587744
 11
862.43983163885048
 21
290.40502037595479
  0
LINE
  8
_0-8_
  6
CONTINUOUS
 62
    7
 10
862.43983163885048
 20
290.40502037595479
 11
863.0163026144221
 21
290.43540488108636
  0
LINE
  8
_0-8_
  6
CONTINUOUS
 62
    7
 10
863.0163026144221
 20
290.43540488108636
 11
863.57525780786921
 21
290.52563515635597
  0
LINE
  8
_0-8_
  6
CONTINUOUS
 62
    7
 10
863.57525780786921
 20
290.52563515635597
 11
864.09971364848377
 21
290.67296960050828
  0
LINE
  8
_0-8_
  6
CONTINUOUS
 62
    7
 10
864.09971364848377
 20
290.67296960050828
 11
864.57373481093634
 21
290.87293153101251
  0
LINE
  8
_0-8_
  6
CONTINUOUS
 62
    7
 10
864.57373481093634
 20
290.87293153101251
 11
864.98291840207207
 21
291.11944520579596
  0
LINE
  8
_0-8_
  6
CONTINUOUS
 62
    7
 10
864.98291840207207
 20
291.11944520579596
 11
865.31483158553112
 21
291.40502043159228
  0
LINE
  8
_0-8_
  6
CONTINUOUS
 62
    7
 10
865.31483158553112
 20
291.40502043159228
 11
865.55938934719029
 21
291.72098014967366
  0
LINE
  8
_0-8_
  6
CONTINUOUS
 62
    7
 10
865.55938934719029
 20
291.72098014967366
 11
865.70916092321374
 21
292.05772408388952
  0
LINE
  8
_0-8_
  6
CONTINUOUS
 62
    7
 10
865.70916092321374
 20
292.05772408388952
 11
865.75959558005218
 21
292.40502037595468
  0
LINE
  8
_0-8_
  6
CONTINUOUS
 62
    7
 10
859.12006748437159
 20
297.10502037595495
 11
859.01919813365964
 21
297.45231673128876
  0
LINE
  8
_0-8_
  6
CONTINUOUS
 62
    7
 10
859.01919813365964
 20
297.45231673128876
 11
858.71965494570281
 21
297.78906066260629
  0
LINE
  8
_0-8_
  6
CONTINUOUS
 62
    7
 10
858.71965494570281
 20
297.78906066260629
 11
858.23053938869089
 21
298.10502037595489
  0
LINE
  8
_0-8_
  6
CONTINUOUS
 62
    7
 10
858.23053938869089
 20
298.10502037595489
 11
857.56671299131949
 21
298.39059559532797
  0
LINE
  8
_0-8_
  6
CONTINUOUS
 62
    7
 10
857.56671299131949
 20
298.39059559532797
 11
856.74834578276011
 21
298.63710926219278
  0
LINE
  8
_0-8_
  6
CONTINUOUS
 62
    7
 10
856.74834578276011
 20
298.63710926219278
 11
855.80030343653129
 21
298.83707118352373
  0
LINE
  8
_0-8_
  6
CONTINUOUS
 62
    7
 10
855.80030343653129
 20
298.83707118352373
 11
854.75139173959053
 21
298.98440561752665
  0
LINE
  8
_0-8_
  6
CONTINUOUS
 62
    7
 10
854.75139173959053
 20
298.98440561752665
 11
853.63348134307432
 21
299.07463588197925
  0
LINE
  8
_0-8_
  6
CONTINUOUS
 62
    7
 10
853.63348134307432
 20
299.07463588197925
 11
852.480539388691
 21
299.10502037595484
  0
LINE
  8
_0-8_
  6
CONTINUOUS
 62
    7
 10
852.480539388691
 20
299.10502037595484
 11
851.32759743430768
 21
299.07463588197925
  0
LINE
  8
_0-8_
  6
CONTINUOUS
 62
    7
 10
851.32759743430768
 20
299.07463588197925
 11
850.20968703779147
 21
298.98440561752665
  0
LINE
  8
_0-8_
  6
CONTINUOUS
 62
    7
 10
850.20968703779147
 20
298.98440561752665
 11
849.16077534085071
 21
298.83707118352373
  0
LINE
  8
_0-8_
  6
CONTINUOUS
 62
    7
 10
849.16077534085071
 20
298.83707118352373
 11
848.21273299462189
 21
298.63710926219278
  0
LINE
  8
_0-8_
  6
CONTINUOUS
 62
    7
 10
848.21273299462189
 20
298.63710926219278
 11
847.39436578606251
 21
298.39059559532797
  0
LINE
  8
_0-8_
  6
CONTINUOUS
 62
    7
 10
847.39436578606251
 20
298.39059559532797
 11
846.73053938869111
 21
298.10502037595489
  0
LINE
  8
_0-8_
  6
CONTINUOUS
 62
    7
 10
846.73053938869111
 20
298.10502037595489
 11
846.24142383167919
 21
297.78906066260629
  0
LINE
  8
_0-8_
  6
CONTINUOUS
 62
    7
 10
846.24142383167919
 20
297.78906066260629
 11
845.94188064372236
 21
297.45231673128876
  0
LINE
  8
_0-8_
  6
CONTINUOUS
 62
    7
 10
845.94188064372236
 20
297.45231673128876
 11
845.84101129301041
 21
297.10502037595495
  0
LINE
  8
_0-8_
  6
CONTINUOUS
 62
    7
 10
865.75959558005218
 20
297.10502037595495
 11
865.7091609046962
 21
297.45231673128876
  0
LINE
  8
_0-8_
  6
CONTINUOUS
 62
    7
 10
865.7091609046962
 20
297.45231673128876
 11
865.55938931071773
 21
297.78906066260629
  0
LINE
  8
_0-8_
  6
CONTINUOUS
 62
    7
 10
865.55938931071773
 20
297.78906066260629
 11
865.31483153221188
 21
298.10502037595489
  0
LINE
  8
_0-8_
  6
CONTINUOUS
 62
    7
 10
865.31483153221188
 20
298.10502037595489
 11
864.98291833352607
 21
298.39059559532797
  0
LINE
  8
_0-8_
  6
CONTINUOUS
 62
    7
 10
864.98291833352607
 20
298.39059559532797
 11
864.57373472924644
 21
298.63710926219278
  0
LINE
  8
_0-8_
  6
CONTINUOUS
 62
    7
 10
864.57373472924644
 20
298.63710926219278
 11
864.09971355613209
 21
298.83707118352373
  0
LINE
  8
_0-8_
  6
CONTINUOUS
 62
    7
 10
864.09971355613209
 20
298.83707118352373
 11
863.57525770766165
 21
298.98440561752665
  0
LINE
  8
_0-8_
  6
CONTINUOUS
 62
    7
 10
863.57525770766165
 20
298.98440561752665
 11
863.01630250940354
 21
299.07463588197925
  0
LINE
  8
_0-8_
  6
CONTINUOUS
 62
    7
 10
863.01630250940354
 20
299.07463588197925
 11
862.43983153221188
 21
299.10502037595484
  0
LINE
  8
_0-8_
  6
CONTINUOUS
 62
    7
 10
862.43983153221188
 20
299.10502037595484
 11
861.86336055502022
 21
299.07463588197925
  0
LINE
  8
_0-8_
  6
CONTINUOUS
 62
    7
 10
861.86336055502022
 20
299.07463588197925
 11
861.30440535676212
 21
298.98440561752665
  0
LINE
  8
_0-8_
  6
CONTINUOUS
 62
    7
 10
861.30440535676212
 20
298.98440561752665
 11
860.77994950829179
 21
298.83707118352373
  0
LINE
  8
_0-8_
  6
CONTINUOUS
 62
    7
 10
860.77994950829179
 20
298.83707118352373
 11
860.30592833517733
 21
298.63710926219278
  0
LINE
  8
_0-8_
  6
CONTINUOUS
 62
    7
 10
860.30592833517733
 20
298.63710926219278
 11
859.89674473089769
 21
298.39059559532797
  0
LINE
  8
_0-8_
  6
CONTINUOUS
 62
    7
 10
859.89674473089769
 20
298.39059559532797
 11
859.56483153221188
 21
298.10502037595489
  0
LINE
  8
_0-8_
  6
CONTINUOUS
 62
    7
 10
859.56483153221188
 20
298.10502037595489
 11
859.32027375370603
 21
297.78906066260629
  0
LINE
  8
_0-8_
  6
CONTINUOUS
 62
    7
 10
859.32027375370603
 20
297.78906066260629
 11
859.17050215972756
 21
297.45231673128876
  0
LINE
  8
_0-8_
  6
CONTINUOUS
 62
    7
 10
859.17050215972756
 20
297.45231673128876
 11
859.12006748437159
 21
297.10502044019967
  0
LINE
  8
_0-8_
  6
CONTINUOUS
 62
    7
 10
845.84101129301041
 20
297.10502044019967
 11
845.79057659913678
 21
297.45231679455748
  0
LINE
  8
_0-8_
  6
CONTINUOUS
 62
    7
 10
845.79057659913678
 20
297.45231679455748
 11
845.64080498720341
 21
297.7890607229765
  0
LINE
  8
_0-8_
  6
CONTINUOUS
 62
    7
 10
845.64080498720341
 20
297.7890607229765
 11
845.39624719185076
 21
298.10502043159244
  0
LINE
  8
_0-8_
  6
CONTINUOUS
 62
    7
 10
845.39624719185076
 20
298.10502043159244
 11
845.0643339779383
 21
298.39059564454226
  0
LINE
  8
_0-8_
  6
CONTINUOUS
 62
    7
 10
845.0643339779383
 20
298.39059564454226
 11
844.65515036051477
 21
298.6371093034885
  0
LINE
  8
_0-8_
  6
CONTINUOUS
 62
    7
 10
844.65515036051477
 20
298.6371093034885
 11
844.18112917673852
 21
298.83707121564612
  0
LINE
  8
_0-8_
  6
CONTINUOUS
 62
    7
 10
844.18112917673852
 20
298.83707121564612
 11
843.65667332041232
 21
298.98440563949964
  0
LINE
  8
_0-8_
  6
CONTINUOUS
 62
    7
 10
843.65667332041232
 20
298.98440563949964
 11
843.09771811734322
 21
299.07463589313522
  0
LINE
  8
_0-8_
  6
CONTINUOUS
 62
    7
 10
843.09771811734322
 20
299.07463589313522
 11
842.52124713853152
 21
299.10502037595484
  0
LINE
  8
_0-8_
  6
CONTINUOUS
 62
    7
 10
842.52124713853152
 20
299.10502037595484
 11
841.9447761629599
 21
299.07463587082327
  0
LINE
  8
_0-8_
  6
CONTINUOUS
 62
    7
 10
841.9447761629599
 20
299.07463587082327
 11
841.38582096951279
 21
298.98440559555365
  0
LINE
  8
_0-8_
  6
CONTINUOUS
 62
    7
 10
841.38582096951279
 20
298.98440559555365
 11
840.86136512889823
 21
298.83707115140135
  0
LINE
  8
_0-8_
  6
CONTINUOUS
 62
    7
 10
840.86136512889823
 20
298.83707115140135
 11
840.38734396644566
 21
298.63710922089712
  0
LINE
  8
_0-8_
  6
CONTINUOUS
 62
    7
 10
840.38734396644566
 20
298.63710922089712
 11
839.97816037530993
 21
298.39059554611367
  0
LINE
  8
_0-8_
  6
CONTINUOUS
 62
    7
 10
839.97816037530993
 20
298.39059554611367
 11
839.64624719185088
 21
298.10502032031735
  0
LINE
  8
_0-8_
  6
CONTINUOUS
 62
    7
 10
839.64624719185088
 20
298.10502032031735
 11
839.40168943019171
 21
297.78906060223596
  0
LINE
  8
_0-8_
  6
CONTINUOUS
 62
    7
 10
839.40168943019171
 20
297.78906060223596
 11
839.25191785416825
 21
297.4523166680201
  0
LINE
  8
_0-8_
  6
CONTINUOUS
 62
    7
 10
839.25191785416825
 20
297.4523166680201
 11
839.20148319732982
 21
297.10502037595495
  0
LINE
  8
_0-8_
  6
CONTINUOUS
 62
    7
 10
860.48053935390919
 20
290.40502037595479
 11
860.48053935390919
 21
221.10502037595484
  0
LINE
  8
_0-8_
  6
CONTINUOUS
 62
    7
 10
859.58053929330924
 20
221.10502037595484
 11
859.58053929330924
 21
290.40502037595479
  0
LINE
  8
_0-8_
  6
CONTINUOUS
 62
    7
 10
845.38053948400898
 20
290.40502037595479
 11
845.38053948400898
 21
221.10502037595484
  0
LINE
  8
_0-8_
  6
CONTINUOUS
 62
    7
 10
844.48053935390897
 20
221.10502037595484
 11
844.48053935390897
 21
290.40502037595479
  0
LINE
  8
_0-9_
  6
PHANTOM1
 62
  152
 10
865.1822453108623
 20
282.0050203759547
 11
865.1822453108623
 21
289.10502037595438
  0
LINE
  8
_0-9_
  6
PHANTOM1
 62
  152
 10
839.77883346652004
 20
282.0050203759547
 11
839.77883346652004
 21
282.0050203759547
  0
LINE
  8
_0-9_
  6
PHANTOM1
 62
  152
 10
839.77883346652004
 20
282.0050203759547
 11
839.82707532990401
 21
281.65772402062083
  0
LINE
  8
_0-9_
  6
PHANTOM1
 62
  152
 10
839.82707532990401
 20
281.65772402062083
 11
839.97033511544862
 21
281.32098008930342
  0
LINE
  8
_0-9_
  6
PHANTOM1
 62
  152
 10
839.97033511544862
 20
281.32098008930342
 11
840.20425994706295
 21
281.00502037595476
  0
LINE
  8
_0-9_
  6
PHANTOM1
 62
  152
 10
840.20425994706295
 20
281.00502037595476
 11
840.5217421371101
 21
280.71944515658168
  0
LINE
  8
_0-9_
  6
PHANTOM1
 62
  152
 10
840.5217421371101
 20
280.71944515658168
 11
840.91313514989929
 21
280.47293148971681
  0
LINE
  8
_0-9_
  6
PHANTOM1
 62
  152
 10
840.91313514989929
 20
280.47293148971681
 11
841.36654670679127
 21
280.27296956838592
  0
LINE
  8
_0-9_
  6
PHANTOM1
 62
  152
 10
841.36654670679127
 20
280.27296956838592
 11
841.86820012706733
 21
280.125635134383
  0
LINE
  8
_0-9_
  6
PHANTOM1
 62
  152
 10
841.86820012706733
 20
280.125635134383
 11
842.40285292540113
 21
280.0354048699304
  0
LINE
  8
_0-9_
  6
PHANTOM1
 62
  152
 10
842.40285292540113
 20
280.0354048699304
 11
842.95425994706261
 21
280.00502037595481
  0
LINE
  8
_0-9_
  6
PHANTOM1
 62
  152
 10
834.73053938869043
 20
280.00502037595493
 11
842.95425994706261
 21
280.00502037595493
  0
LINE
  8
_0-9_
  6
PHANTOM1
 62
  152
 10
870.48053938869089
 20
280.00502037595493
 11
862.00681883031916
 21
280.00502037595493
  0
LINE
  8
_0-9_
  6
PHANTOM1
 62
  152
 10
862.00681883031916
 20
280.00502037595481
 11
862.00681883031916
 21
280.00502037595481
  0
LINE
  8
_0-9_
  6
PHANTOM1
 62
  152
 10
862.00681883031916
 20
280.00502037595481
 11
862.55822585198064
 21
280.0354048699304
  0
LINE
  8
_0-9_
  6
PHANTOM1
 62
  152
 10
862.55822585198064
 20
280.0354048699304
 11
863.09287865031445
 21
280.125635134383
  0
LINE
  8
_0-9_
  6
PHANTOM1
 62
  152
 10
863.09287865031445
 20
280.125635134383
 11
863.5945320705905
 21
280.27296956838592
  0
LINE
  8
_0-9_
  6
PHANTOM1
 62
  152
 10
863.5945320705905
 20
280.27296956838592
 11
864.04794362748248
 21
280.47293148971681
  0
LINE
  8
_0-9_
  6
PHANTOM1
 62
  152
 10
864.04794362748248
 20
280.47293148971681
 11
864.43933664027168
 21
280.71944515658168
  0
LINE
  8
_0-9_
  6
PHANTOM1
 62
  152
 10
864.43933664027168
 20
280.71944515658168
 11
864.75681883031882
 21
281.00502037595476
  0
LINE
  8
_0-9_
  6
PHANTOM1
 62
  152
 10
864.75681883031882
 20
281.00502037595476
 11
864.99074366193315
 21
281.32098008930342
  0
LINE
  8
_0-9_
  6
PHANTOM1
 62
  152
 10
864.99074366193315
 20
281.32098008930342
 11
865.13400344747777
 21
281.65772402062083
  0
LINE
  8
_0-9_
  6
PHANTOM1
 62
  152
 10
865.13400344747777
 20
281.65772402062083
 11
865.18224531086173
 21
282.0050203759547
  0
LINE
  8
_0-9_
  6
PHANTOM1
 62
  152
 10
830.73053938869089
 20
279.60502037595461
 11
834.73053938869043
 21
279.60502037595461
  0
LINE
  8
_0-9_
  6
PHANTOM1
 62
  152
 10
834.73053938869043
 20
280.00502037595493
 11
834.73053938869043
 21
279.60502037595461
  0
LINE
  8
_0-9_
  6
PHANTOM1
 62
  152
 10
870.48053938869089
 20
279.60502037595461
 11
870.48053938869089
 21
280.00502037595493
  0
LINE
  8
_0-9_
  6
PHANTOM1
 62
  152
 10
839.77883346651947
 20
289.10502037595438
 11
839.77883346651947
 21
282.0050203759547
  0
LINE
  8
_0-9_
  6
PHANTOM1
 62
  152
 10
870.48053938869089
 20
279.60502037595461
 11
874.23053938869089
 21
279.60502037595461
  0
LINE
  8
_0-9_
  6
PHANTOM1
 62
  152
 10
829.4305393886907
 20
266.10502037595438
 11
827.48053938869089
 21
266.10502037595438
  0
LINE
  8
_0-9_
  6
PHANTOM1
 62
  152
 10
877.48053938869089
 20
266.10502037595438
 11
875.53053938869152
 21
266.10502037595438
  0
LINE
  8
_0-9_
  6
PHANTOM1
 62
  152
 10
877.23053938869111
 20
269.10502037595506
 11
877.48053938869089
 21
269.10502037595506
  0
LINE
  8
_0-9_
  6
PHANTOM1
 62
  152
 10
827.48053938869089
 20
269.10502037595506
 11
827.73053938869066
 21
269.10502037595506
  0
LINE
  8
_0-9_
  6
PHANTOM1
 62
  152
 10
875.53053938869152
 20
266.10502037595438
 11
875.53053938869152
 21
263.10502037595484
  0
LINE
  8
_0-9_
  6
PHANTOM1
 62
  152
 10
877.48053938869089
 20
269.10502037595506
 11
877.48053938869089
 21
266.10502037595438
  0
LINE
  8
_0-9_
  6
PHANTOM1
 62
  152
 10
877.23053938869111
 20
276.60502037595506
 11
877.23053938869111
 21
269.10502037595506
  0
ARC
  8
_0-9_
  6
PHANTOM1
 62
  152
 10
874.23053938869089
 20
276.60502037595506
 40
2.9999999999999933
 50
359.99999999999977
 51
90.000000000000199
  0
LINE
  8
_0-9_
  6
PHANTOM1
 62
  152
 10
875.53053938869152
 20
263.10502037595484
 11
829.4305393886907
 21
263.10502037595484
  0
ARC
  8
_0-9_
  6
PHANTOM1
 62
  152
 10
830.73053938869089
 20
276.60502037595506
 40
2.9999999999999858
 50
89.999999999999829
 51
180.0000000000002
  0
LINE
  8
_0-9_
  6
PHANTOM1
 62
  152
 10
827.73053938869066
 20
269.10502037595506
 11
827.73053938869066
 21
276.60502037595506
  0
LINE
  8
_0-9_
  6
PHANTOM1
 62
  152
 10
829.4305393886907
 20
263.10502037595484
 11
829.4305393886907
 21
266.10502037595438
  0
LINE
  8
_0-9_
  6
PHANTOM1
 62
  152
 10
827.48053938869089
 20
266.10502037595438
 11
827.48053938869089
 21
269.10502037595506
  0
LINE
  8
_0-9_
  6
PHANTOM1
 62
  152
 10
707.42904841171742
 20
282.0050203759547
 11
707.42904841171742
 21
289.10502037595438
  0
LINE
  8
_0-9_
  6
PHANTOM1
 62
  152
 10
682.02563656737516
 20
282.0050203759547
 11
682.02563656737516
 21
282.0050203759547
  0
LINE
  8
_0-9_
  6
PHANTOM1
 62
  152
 10
682.02563656737516
 20
282.0050203759547
 11
682.07387843075912
 21
281.65772402062083
  0
LINE
  8
_0-9_
  6
PHANTOM1
 62
  152
 10
682.07387843075912
 20
281.65772402062083
 11
682.21713821630374
 21
281.32098008930342
  0
LINE
  8
_0-9_
  6
PHANTOM1
 62
  152
 10
682.21713821630374
 20
281.32098008930342
 11
682.45106304791807
 21
281.00502037595476
  0
LINE
  8
_0-9_
  6
PHANTOM1
 62
  152
 10
682.45106304791807
 20
281.00502037595476
 11
682.76854523796521
 21
280.71944515658168
  0
LINE
  8
_0-9_
  6
PHANTOM1
 62
  152
 10
682.76854523796521
 20
280.71944515658168
 11
683.15993825075441
 21
280.47293148971681
  0
LINE
  8
_0-9_
  6
PHANTOM1
 62
  152
 10
683.15993825075441
 20
280.47293148971681
 11
683.61334980764639
 21
280.27296956838592
  0
LINE
  8
_0-9_
  6
PHANTOM1
 62
  152
 10
683.61334980764639
 20
280.27296956838592
 11
684.11500322792244
 21
280.125635134383
  0
LINE
  8
_0-9_
  6
PHANTOM1
 62
  152
 10
684.11500322792244
 20
280.125635134383
 11
684.64965602625625
 21
280.0354048699304
  0
LINE
  8
_0-9_
  6
PHANTOM1
 62
  152
 10
684.64965602625625
 20
280.0354048699304
 11
685.20106304791773
 21
280.00502037595481
  0
LINE
  8
_0-9_
  6
PHANTOM1
 62
  152
 10
676.97734248954555
 20
280.00502037595493
 11
685.20106304791773
 21
280.00502037595493
  0
LINE
  8
_0-9_
  6
PHANTOM1
 62
  152
 10
712.727342489546
 20
280.00502037595493
 11
704.25362193117428
 21
280.00502037595493
  0
LINE
  8
_0-9_
  6
PHANTOM1
 62
  152
 10
704.25362193117428
 20
280.00502037595481
 11
704.25362193117428
 21
280.00502037595481
  0
LINE
  8
_0-9_
  6
PHANTOM1
 62
  152
 10
704.25362193117428
 20
280.00502037595481
 11
704.80502895283576
 21
280.0354048699304
  0
LINE
  8
_0-9_
  6
PHANTOM1
 62
  152
 10
704.80502895283576
 20
280.0354048699304
 11
705.33968175116956
 21
280.125635134383
  0
LINE
  8
_0-9_
  6
PHANTOM1
 62
  152
 10
705.33968175116956
 20
280.125635134383
 11
705.84133517144562
 21
280.27296956838592
  0
LINE
  8
_0-9_
  6
PHANTOM1
 62
  152
 10
705.84133517144562
 20
280.27296956838592
 11
706.2947467283376
 21
280.47293148971681
  0
LINE
  8
_0-9_
  6
PHANTOM1
 62
  152
 10
706.2947467283376
 20
280.47293148971681
 11
706.68613974112679
 21
280.71944515658168
  0
LINE
  8
_0-9_
  6
PHANTOM1
 62
  152
 10
706.68613974112679
 20
280.71944515658168
 11
707.00362193117394
 21
281.00502037595476
  0
LINE
  8
_0-9_
  6
PHANTOM1
 62
  152
 10
707.00362193117394
 20
281.00502037595476
 11
707.23754676278827
 21
281.32098008930342
  0
LINE
  8
_0-9_
  6
PHANTOM1
 62
  152
 10
707.23754676278827
 20
281.32098008930342
 11
707.38080654833288
 21
281.65772402062083
  0
LINE
  8
_0-9_
  6
PHANTOM1
 62
  152
 10
707.38080654833288
 20
281.65772402062083
 11
707.42904841171685
 21
282.0050203759547
  0
LINE
  8
_0-9_
  6
PHANTOM1
 62
  152
 10
672.977342489546
 20
279.60502037595461
 11
676.97734248954555
 21
279.60502037595461
  0
LINE
  8
_0-9_
  6
PHANTOM1
 62
  152
 10
676.97734248954555
 20
280.00502037595493
 11
676.97734248954555
 21
279.60502037595461
  0
LINE
  8
_0-9_
  6
PHANTOM1
 62
  152
 10
712.727342489546
 20
279.60502037595461
 11
712.727342489546
 21
280.00502037595493
  0
LINE
  8
_0-9_
  6
PHANTOM1
 62
  152
 10
682.02563656737459
 20
289.10502037595438
 11
682.02563656737459
 21
282.0050203759547
  0
LINE
  8
_0-9_
  6
PHANTOM1
 62
  152
 10
712.727342489546
 20
279.60502037595461
 11
716.477342489546
 21
279.60502037595461
  0
LINE
  8
_0-9_
  6
PHANTOM1
 62
  152
 10
671.67734248954582
 20
266.10502037595438
 11
669.727342489546
 21
266.10502037595438
  0
LINE
  8
_0-9_
  6
PHANTOM1
 62
  152
 10
719.727342489546
 20
266.10502037595438
 11
717.77734248954664
 21
266.10502037595438
  0
LINE
  8
_0-9_
  6
PHANTOM1
 62
  152
 10
719.47734248954623
 20
269.10502037595506
 11
719.727342489546
 21
269.10502037595506
  0
LINE
  8
_0-9_
  6
PHANTOM1
 62
  152
 10
669.727342489546
 20
269.10502037595506
 11
669.97734248954578
 21
269.10502037595506
  0
LINE
  8
_0-9_
  6
PHANTOM1
 62
  152
 10
717.77734248954664
 20
266.10502037595438
 11
717.77734248954664
 21
263.10502037595484
  0
LINE
  8
_0-9_
  6
PHANTOM1
 62
  152
 10
719.727342489546
 20
269.10502037595506
 11
719.727342489546
 21
266.10502037595438
  0
LINE
  8
_0-9_
  6
PHANTOM1
 62
  152
 10
719.47734248954623
 20
276.60502037595506
 11
719.47734248954623
 21
269.10502037595506
  0
ARC
  8
_0-9_
  6
PHANTOM1
 62
  152
 10
716.477342489546
 20
276.60502037595506
 40
2.9999999999999933
 50
359.99999999999977
 51
90.000000000000199
  0
LINE
  8
_0-9_
  6
PHANTOM1
 62
  152
 10
717.77734248954664
 20
263.10502037595484
 11
671.67734248954582
 21
263.10502037595484
  0
ARC
  8
_0-9_
  6
PHANTOM1
 62
  152
 10
672.977342489546
 20
276.60502037595506
 40
2.9999999999999858
 50
89.999999999999829
 51
180.0000000000002
  0
LINE
  8
_0-9_
  6
PHANTOM1
 62
  152
 10
669.97734248954578
 20
269.10502037595506
 11
669.97734248954578
 21
276.60502037595506
  0
LINE
  8
_0-9_
  6
PHANTOM1
 62
  152
 10
671.67734248954582
 20
263.10502037595484
 11
671.67734248954582
 21
266.10502037595438
  0
LINE
  8
_0-9_
  6
PHANTOM1
 62
  152
 10
669.727342489546
 20
266.10502037595438
 11
669.727342489546
 21
269.10502037595506
  0
LINE
  8
_0-9_
  6
PHANTOM1
 62
  152
 10
299.25978101171751
 20
282.0050203759547
 11
299.25978101171751
 21
289.10502037595438
  0
LINE
  8
_0-9_
  6
PHANTOM1
 62
  152
 10
273.85636916737525
 20
282.0050203759547
 11
273.85636916737525
 21
282.0050203759547
  0
LINE
  8
_0-9_
  6
PHANTOM1
 62
  152
 10
273.85636916737525
 20
282.0050203759547
 11
273.90461103075921
 21
281.65772402062083
  0
LINE
  8
_0-9_
  6
PHANTOM1
 62
  152
 10
273.90461103075921
 20
281.65772402062083
 11
274.04787081630377
 21
281.32098008930342
  0
LINE
  8
_0-9_
  6
PHANTOM1
 62
  152
 10
274.04787081630377
 20
281.32098008930342
 11
274.28179564791816
 21
281.00502037595476
  0
LINE
  8
_0-9_
  6
PHANTOM1
 62
  152
 10
274.28179564791816
 20
281.00502037595476
 11
274.5992778379653
 21
280.71944515658168
  0
LINE
  8
_0-9_
  6
PHANTOM1
 62
  152
 10
274.5992778379653
 20
280.71944515658168
 11
274.9906708507545
 21
280.47293148971681
  0
LINE
  8
_0-9_
  6
PHANTOM1
 62
  152
 10
274.9906708507545
 20
280.47293148971681
 11
275.44408240764653
 21
280.27296956838592
  0
LINE
  8
_0-9_
  6
PHANTOM1
 62
  152
 10
275.44408240764653
 20
280.27296956838592
 11
275.94573582792253
 21
280.125635134383
  0
LINE
  8
_0-9_
  6
PHANTOM1
 62
  152
 10
275.94573582792253
 20
280.125635134383
 11
276.48038862625629
 21
280.0354048699304
  0
LINE
  8
_0-9_
  6
PHANTOM1
 62
  152
 10
276.48038862625629
 20
280.0354048699304
 11
277.03179564791782
 21
280.00502037595481
  0
LINE
  8
_0-9_
  6
PHANTOM1
 62
  152
 10
268.80807508954564
 20
280.00502037595493
 11
277.03179564791782
 21
280.00502037595493
  0
LINE
  8
_0-9_
  6
PHANTOM1
 62
  152
 10
304.55807508954609
 20
280.00502037595493
 11
296.08435453117437
 21
280.00502037595493
  0
LINE
  8
_0-9_
  6
PHANTOM1
 62
  152
 10
296.08435453117437
 20
280.00502037595481
 11
296.08435453117437
 21
280.00502037595481
  0
LINE
  8
_0-9_
  6
PHANTOM1
 62
  152
 10
296.08435453117437
 20
280.00502037595481
 11
296.6357615528359
 21
280.0354048699304
  0
LINE
  8
_0-9_
  6
PHANTOM1
 62
  152
 10
296.6357615528359
 20
280.0354048699304
 11
297.17041435116965
 21
280.125635134383
  0
LINE
  8
_0-9_
  6
PHANTOM1
 62
  152
 10
297.17041435116965
 20
280.125635134383
 11
297.67206777144565
 21
280.27296956838592
  0
LINE
  8
_0-9_
  6
PHANTOM1
 62
  152
 10
297.67206777144565
 20
280.27296956838592
 11
298.12547932833769
 21
280.47293148971681
  0
LINE
  8
_0-9_
  6
PHANTOM1
 62
  152
 10
298.12547932833769
 20
280.47293148971681
 11
298.51687234112688
 21
280.71944515658168
  0
LINE
  8
_0-9_
  6
PHANTOM1
 62
  152
 10
298.51687234112688
 20
280.71944515658168
 11
298.83435453117403
 21
281.00502037595476
  0
LINE
  8
_0-9_
  6
PHANTOM1
 62
  152
 10
298.83435453117403
 20
281.00502037595476
 11
299.06827936278842
 21
281.32098008930342
  0
LINE
  8
_0-9_
  6
PHANTOM1
 62
  152
 10
299.06827936278842
 20
281.32098008930342
 11
299.21153914833297
 21
281.65772402062083
  0
LINE
  8
_0-9_
  6
PHANTOM1
 62
  152
 10
299.21153914833297
 20
281.65772402062083
 11
299.25978101171694
 21
282.0050203759547
  0
LINE
  8
_0-9_
  6
PHANTOM1
 62
  152
 10
264.80807508954609
 20
279.60502037595461
 11
268.80807508954564
 21
279.60502037595461
  0
LINE
  8
_0-9_
  6
PHANTOM1
 62
  152
 10
268.80807508954564
 20
280.00502037595493
 11
268.80807508954564
 21
279.60502037595461
  0
LINE
  8
_0-9_
  6
PHANTOM1
 62
  152
 10
304.55807508954609
 20
279.60502037595461
 11
304.55807508954609
 21
280.00502037595493
  0
LINE
  8
_0-9_
  6
PHANTOM1
 62
  152
 10
273.85636916737468
 20
289.10502037595438
 11
273.85636916737468
 21
282.0050203759547
  0
LINE
  8
_0-9_
  6
PHANTOM1
 62
  152
 10
304.55807508954609
 20
279.60502037595461
 11
308.30807508954609
 21
279.60502037595461
  0
LINE
  8
_0-9_
  6
PHANTOM1
 62
  152
 10
263.50807508954591
 20
266.10502037595438
 11
261.55807508954609
 21
266.10502037595438
  0
LINE
  8
_0-9_
  6
PHANTOM1
 62
  152
 10
311.55807508954609
 20
266.10502037595438
 11
309.60807508954673
 21
266.10502037595438
  0
LINE
  8
_0-9_
  6
PHANTOM1
 62
  152
 10
311.30807508954632
 20
269.10502037595506
 11
311.55807508954609
 21
269.10502037595506
  0
LINE
  8
_0-9_
  6
PHANTOM1
 62
  152
 10
261.55807508954609
 20
269.10502037595506
 11
261.80807508954587
 21
269.10502037595506
  0
LINE
  8
_0-9_
  6
PHANTOM1
 62
  152
 10
309.60807508954673
 20
266.10502037595438
 11
309.60807508954673
 21
263.10502037595484
  0
LINE
  8
_0-9_
  6
PHANTOM1
 62
  152
 10
311.55807508954609
 20
269.10502037595506
 11
311.55807508954609
 21
266.10502037595438
  0
LINE
  8
_0-9_
  6
PHANTOM1
 62
  152
 10
311.30807508954632
 20
276.60502037595506
 11
311.30807508954632
 21
269.10502037595506
  0
ARC
  8
_0-9_
  6
PHANTOM1
 62
  152
 10
308.30807508954609
 20
276.60502037595506
 40
2.9999999999999933
 50
359.99999999999977
 51
90.000000000000199
  0
LINE
  8
_0-9_
  6
PHANTOM1
 62
  152
 10
309.60807508954673
 20
263.10502037595484
 11
263.50807508954591
 21
263.10502037595484
  0
ARC
  8
_0-9_
  6
PHANTOM1
 62
  152
 10
264.80807508954609
 20
276.60502037595506
 40
2.9999999999999858
 50
89.999999999999829
 51
180.0000000000002
  0
LINE
  8
_0-9_
  6
PHANTOM1
 62
  152
 10
261.80807508954587
 20
269.10502037595506
 11
261.80807508954587
 21
276.60502037595506
  0
LINE
  8
_0-9_
  6
PHANTOM1
 62
  152
 10
263.50807508954591
 20
263.10502037595484
 11
263.50807508954591
 21
266.10502037595438
  0
LINE
  8
_0-9_
  6
PHANTOM1
 62
  152
 10
261.55807508954609
 20
266.10502037595438
 11
261.55807508954609
 21
269.10502037595506
  0
LINE
  8
_0-9_
  6
PHANTOM1
 62
  152
 10
141.50658411257257
 20
282.0050203759547
 11
141.50658411257257
 21
289.10502037595438
  0
LINE
  8
_0-9_
  6
PHANTOM1
 62
  152
 10
116.10317226823031
 20
282.0050203759547
 11
116.10317226823031
 21
282.0050203759547
  0
LINE
  8
_0-9_
  6
PHANTOM1
 62
  152
 10
116.10317226823031
 20
282.0050203759547
 11
116.15141413161429
 21
281.65772402062083
  0
LINE
  8
_0-9_
  6
PHANTOM1
 62
  152
 10
116.15141413161429
 20
281.65772402062083
 11
116.29467391715886
 21
281.32098008930342
  0
LINE
  8
_0-9_
  6
PHANTOM1
 62
  152
 10
116.29467391715886
 20
281.32098008930342
 11
116.52859874877321
 21
281.00502037595476
  0
LINE
  8
_0-9_
  6
PHANTOM1
 62
  152
 10
116.52859874877321
 20
281.00502037595476
 11
116.84608093882039
 21
280.71944515658168
  0
LINE
  8
_0-9_
  6
PHANTOM1
 62
  152
 10
116.84608093882039
 20
280.71944515658168
 11
117.23747395160959
 21
280.47293148971681
  0
LINE
  8
_0-9_
  6
PHANTOM1
 62
  152
 10
117.23747395160959
 20
280.47293148971681
 11
117.69088550850159
 21
280.27296956838592
  0
LINE
  8
_0-9_
  6
PHANTOM1
 62
  152
 10
117.69088550850159
 20
280.27296956838592
 11
118.19253892877758
 21
280.125635134383
  0
LINE
  8
_0-9_
  6
PHANTOM1
 62
  152
 10
118.19253892877758
 20
280.125635134383
 11
118.72719172711135
 21
280.0354048699304
  0
LINE
  8
_0-9_
  6
PHANTOM1
 62
  152
 10
118.72719172711135
 20
280.0354048699304
 11
119.27859874877288
 21
280.00502037595481
  0
LINE
  8
_0-9_
  6
PHANTOM1
 62
  152
 10
111.0548781904007
 20
280.00502037595493
 11
119.27859874877288
 21
280.00502037595493
  0
LINE
  8
_0-9_
  6
PHANTOM1
 62
  152
 10
146.80487819040115
 20
280.00502037595493
 11
138.33115763202943
 21
280.00502037595493
  0
LINE
  8
_0-9_
  6
PHANTOM1
 62
  152
 10
138.33115763202943
 20
280.00502037595481
 11
138.33115763202943
 21
280.00502037595481
  0
LINE
  8
_0-9_
  6
PHANTOM1
 62
  152
 10
138.33115763202943
 20
280.00502037595481
 11
138.88256465369096
 21
280.0354048699304
  0
LINE
  8
_0-9_
  6
PHANTOM1
 62
  152
 10
138.88256465369096
 20
280.0354048699304
 11
139.41721745202472
 21
280.125635134383
  0
LINE
  8
_0-9_
  6
PHANTOM1
 62
  152
 10
139.41721745202472
 20
280.125635134383
 11
139.91887087230072
 21
280.27296956838592
  0
LINE
  8
_0-9_
  6
PHANTOM1
 62
  152
 10
139.91887087230072
 20
280.27296956838592
 11
140.37228242919272
 21
280.47293148971681
  0
LINE
  8
_0-9_
  6
PHANTOM1
 62
  152
 10
140.37228242919272
 20
280.47293148971681
 11
140.76367544198192
 21
280.71944515658168
  0
LINE
  8
_0-9_
  6
PHANTOM1
 62
  152
 10
140.76367544198192
 20
280.71944515658168
 11
141.08115763202912
 21
281.00502037595476
  0
LINE
  8
_0-9_
  6
PHANTOM1
 62
  152
 10
141.08115763202912
 20
281.00502037595476
 11
141.31508246364345
 21
281.32098008930342
  0
LINE
  8
_0-9_
  6
PHANTOM1
 62
  152
 10
141.31508246364345
 20
281.32098008930342
 11
141.45834224918804
 21
281.65772402062083
  0
LINE
  8
_0-9_
  6
PHANTOM1
 62
  152
 10
141.45834224918804
 20
281.65772402062083
 11
141.506584112572
 21
282.0050203759547
  0
LINE
  8
_0-9_
  6
PHANTOM1
 62
  152
 10
107.05487819040115
 20
279.60502037595461
 11
111.0548781904007
 21
279.60502037595461
  0
LINE
  8
_0-9_
  6
PHANTOM1
 62
  152
 10
111.0548781904007
 20
280.00502037595493
 11
111.0548781904007
 21
279.60502037595461
  0
LINE
  8
_0-9_
  6
PHANTOM1
 62
  152
 10
146.80487819040115
 20
279.60502037595461
 11
146.80487819040115
 21
280.00502037595493
  0
LINE
  8
_0-9_
  6
PHANTOM1
 62
  152
 10
116.10317226822974
 20
289.10502037595438
 11
116.10317226822974
 21
282.0050203759547
  0
LINE
  8
_0-9_
  6
PHANTOM1
 62
  152
 10
146.80487819040115
 20
279.60502037595461
 11
150.55487819040115
 21
279.60502037595461
  0
LINE
  8
_0-9_
  6
PHANTOM1
 62
  152
 10
105.75487819040097
 20
266.10502037595438
 11
103.80487819040115
 21
266.10502037595438
  0
LINE
  8
_0-9_
  6
PHANTOM1
 62
  152
 10
153.80487819040115
 20
266.10502037595438
 11
151.85487819040179
 21
266.10502037595438
  0
LINE
  8
_0-9_
  6
PHANTOM1
 62
  152
 10
153.55487819040138
 20
269.10502037595506
 11
153.80487819040115
 21
269.10502037595506
  0
LINE
  8
_0-9_
  6
PHANTOM1
 62
  152
 10
103.80487819040115
 20
269.10502037595506
 11
104.05487819040093
 21
269.10502037595506
  0
LINE
  8
_0-9_
  6
PHANTOM1
 62
  152
 10
151.85487819040179
 20
266.10502037595438
 11
151.85487819040179
 21
263.10502037595484
  0
LINE
  8
_0-9_
  6
PHANTOM1
 62
  152
 10
153.80487819040115
 20
269.10502037595506
 11
153.80487819040115
 21
266.10502037595438
  0
LINE
  8
_0-9_
  6
PHANTOM1
 62
  152
 10
153.55487819040138
 20
276.60502037595506
 11
153.55487819040138
 21
269.10502037595506
  0
ARC
  8
_0-9_
  6
PHANTOM1
 62
  152
 10
150.55487819040115
 20
276.60502037595506
 40
2.9999999999999933
 50
359.99999999999977
 51
90.000000000000199
  0
LINE
  8
_0-9_
  6
PHANTOM1
 62
  152
 10
151.85487819040179
 20
263.10502037595484
 11
105.75487819040097
 21
263.10502037595484
  0
ARC
  8
_0-9_
  6
PHANTOM1
 62
  152
 10
107.05487819040115
 20
276.60502037595506
 40
2.9999999999999858
 50
89.999999999999829
 51
180.0000000000002
  0
LINE
  8
_0-9_
  6
PHANTOM1
 62
  152
 10
104.05487819040093
 20
269.10502037595506
 11
104.05487819040093
 21
276.60502037595506
  0
LINE
  8
_0-9_
  6
PHANTOM1
 62
  152
 10
105.75487819040097
 20
263.10502037595484
 11
105.75487819040097
 21
266.10502037595438
  0
LINE
  8
_0-9_
  6
PHANTOM1
 62
  152
 10
103.80487819040115
 20
266.10502037595438
 11
103.80487819040115
 21
269.10502037595506
  0
LINE
  8
_0-8_
  6
CONTINUOUS
 62
  152
 10
120.80487815561912
 20
343.20502037595452
 11
136.80487815561935
 21
343.20502037595452
  0
LINE
  8
_0-8_
  6
CONTINUOUS
 62
    7
 10
135.90487815561903
 20
344.10502037595484
 11
121.70487815561944
 21
344.10502037595484
  0
LINE
  8
_0-8_
  6
CONTINUOUS
 62
    7
 10
121.70487815561944
 20
344.10502037595484
 11
120.80487815561912
 21
343.20502037595452
  0
LINE
  8
_0-8_
  6
CONTINUOUS
 62
    7
 10
136.80487815561935
 20
343.20502037595452
 11
135.90487815561903
 21
344.10502037595484
  0
LINE
  8
_0-8_
  6
CONTINUOUS
 62
  152
 10
278.55807505476406
 20
343.20502037595452
 11
294.55807505476429
 21
343.20502037595452
  0
LINE
  8
_0-8_
  6
CONTINUOUS
 62
    7
 10
293.65807505476397
 20
344.10502037595484
 11
279.45807505476438
 21
344.10502037595484
  0
LINE
  8
_0-8_
  6
CONTINUOUS
 62
    7
 10
279.45807505476438
 20
344.10502037595484
 11
278.55807505476406
 21
343.20502037595452
  0
LINE
  8
_0-8_
  6
CONTINUOUS
 62
    7
 10
294.55807505476429
 20
343.20502037595452
 11
293.65807505476397
 21
344.10502037595484
  0
LINE
  8
_0-8_
  6
CONTINUOUS
 62
  152
 10
686.72734245476397
 20
343.20502037595452
 11
702.7273424547642
 21
343.20502037595452
  0
LINE
  8
_0-8_
  6
CONTINUOUS
 62
    7
 10
701.82734245476388
 20
344.10502037595484
 11
687.62734245476429
 21
344.10502037595484
  0
LINE
  8
_0-8_
  6
CONTINUOUS
 62
    7
 10
687.62734245476429
 20
344.10502037595484
 11
686.72734245476397
 21
343.20502037595452
  0
LINE
  8
_0-8_
  6
CONTINUOUS
 62
    7
 10
702.7273424547642
 20
343.20502037595452
 11
701.82734245476388
 21
344.10502037595484
  0
LINE
  8
_0-8_
  6
CONTINUOUS
 62
  152
 10
844.48053935390897
 20
343.20502037595452
 11
860.48053935390919
 21
343.20502037595452
  0
LINE
  8
_0-8_
  6
CONTINUOUS
 62
    7
 10
859.58053935390888
 20
344.10502037595484
 11
845.38053935390928
 21
344.10502037595484
  0
LINE
  8
_0-8_
  6
CONTINUOUS
 62
    7
 10
845.38053935390928
 20
344.10502037595484
 11
844.48053935390897
 21
343.20502037595452
  0
LINE
  8
_0-8_
  6
CONTINUOUS
 62
    7
 10
860.48053935390919
 20
343.20502037595452
 11
859.58053935390888
 21
344.10502037595484
  0
LINE
  8
_0-8_
  6
CONTINUOUS
 62
  152
 10
279.45807518486407
 20
314.10502037595484
 11
279.45807518486407
 21
344.10502050605453
  0
LINE
  8
_0-8_
  6
CONTINUOUS
 62
  152
 10
293.65807499416434
 20
314.10502037595484
 11
293.65807499416434
 21
344.10502043655453
  0
LINE
  8
_0-8_
  6
CONTINUOUS
 62
    7
 10
278.55807505476406
 20
343.20502037595452
 11
278.55807505476406
 21
314.10502037595484
  0
LINE
  8
_0-8_
  6
CONTINUOUS
 62
    7
 10
294.55807505476429
 20
343.20502037595452
 11
294.55807505476429
 21
314.10502037595484
  0
LINE
  8
_0-8_
  6
CONTINUOUS
 62
  152
 10
687.62734258486398
 20
314.10502037595484
 11
687.62734258486398
 21
344.10502050605453
  0
LINE
  8
_0-8_
  6
CONTINUOUS
 62
  152
 10
701.82734239416425
 20
314.10502037595484
 11
701.82734239416425
 21
344.10502043655453
  0
LINE
  8
_0-8_
  6
CONTINUOUS
 62
    7
 10
686.72734245476397
 20
343.20502037595452
 11
686.72734245476397
 21
314.10502037595484
  0
LINE
  8
_0-8_
  6
CONTINUOUS
 62
    7
 10
702.7273424547642
 20
343.20502037595452
 11
702.7273424547642
 21
314.10502037595484
  0
LINE
  8
_0-8_
  6
CONTINUOUS
 62
  152
 10
845.38053948400898
 20
314.10502037595484
 11
845.38053948400898
 21
344.10502050605453
  0
LINE
  8
_0-8_
  6
CONTINUOUS
 62
  152
 10
859.58053929330924
 20
314.10502037595484
 11
859.58053929330924
 21
344.10502043655453
  0
LINE
  8
_0-8_
  6
CONTINUOUS
 62
    7
 10
844.48053935390897
 20
343.20502037595452
 11
844.48053935390897
 21
314.10502037595484
  0
LINE
  8
_0-8_
  6
CONTINUOUS
 62
    7
 10
860.48053935390919
 20
343.20502037595452
 11
860.48053935390919
 21
314.10502037595484
  0
LINE
  8
_0-8_
  6
CONTINUOUS
 62
  152
 10
121.70487828571913
 20
314.10502037595484
 11
121.70487828571913
 21
344.10502050605453
  0
LINE
  8
_0-8_
  6
CONTINUOUS
 62
  152
 10
135.9048780950194
 20
314.10502037595484
 11
135.9048780950194
 21
344.10502043655453
  0
LINE
  8
_0-8_
  6
CONTINUOUS
 62
    7
 10
120.80487815561912
 20
343.20502037595452
 11
120.80487815561912
 21
314.10502037595484
  0
LINE
  8
_0-8_
  6
CONTINUOUS
 62
    7
 10
136.80487815561935
 20
343.20502037595452
 11
136.80487815561935
 21
314.10502037595484
  0
LINE
  8
_0-9_
  6
PHANTOM1
 62
  152
 10
860.48053935390908
 20
347.03636683683828
 11
860.48053935390908
 21
412.20502037595452
  0
LINE
  8
_0-9_
  6
PHANTOM1
 62
  152
 10
844.48053935390885
 20
412.20502037595452
 11
844.48053935390885
 21
347.03636683683828
  0
LINE
  8
_0-9_
  6
PHANTOM1
 62
  152
 10
845.38053935390917
 20
413.10502037595484
 11
844.48053935390885
 21
412.20502037595452
  0
LINE
  8
_0-9_
  6
PHANTOM1
 62
  152
 10
859.58053935390876
 20
413.10502037595484
 11
845.38053935390917
 21
413.10502037595484
  0
LINE
  8
_0-9_
  6
PHANTOM1
 62
  152
 10
860.48053935390908
 20
412.20502037595452
 11
859.58053935390876
 21
413.10502037595484
  0
LINE
  8
_0-9_
  6
PHANTOM1
 62
  152
 10
702.7273424547642
 20
347.03636683683828
 11
702.7273424547642
 21
412.20502037595452
  0
LINE
  8
_0-9_
  6
PHANTOM1
 62
  152
 10
686.72734245476397
 20
412.20502037595452
 11
686.72734245476397
 21
347.03636683683828
  0
LINE
  8
_0-9_
  6
PHANTOM1
 62
  152
 10
687.62734245476429
 20
413.10502037595484
 11
686.72734245476397
 21
412.20502037595452
  0
LINE
  8
_0-9_
  6
PHANTOM1
 62
  152
 10
701.82734245476388
 20
413.10502037595484
 11
687.62734245476429
 21
413.10502037595484
  0
LINE
  8
_0-9_
  6
PHANTOM1
 62
  152
 10
702.7273424547642
 20
412.20502037595452
 11
701.82734245476388
 21
413.10502037595484
  0
LINE
  8
_0-9_
  6
PHANTOM1
 62
  152
 10
294.55807505476429
 20
347.03636683683828
 11
294.55807505476429
 21
412.20502037595452
  0
LINE
  8
_0-9_
  6
PHANTOM1
 62
  152
 10
278.55807505476406
 20
412.20502037595452
 11
278.55807505476406
 21
347.03636683683828
  0
LINE
  8
_0-9_
  6
PHANTOM1
 62
  152
 10
279.45807505476438
 20
413.10502037595484
 11
278.55807505476406
 21
412.20502037595452
  0
LINE
  8
_0-9_
  6
PHANTOM1
 62
  152
 10
293.65807505476397
 20
413.10502037595484
 11
279.45807505476438
 21
413.10502037595484
  0
LINE
  8
_0-9_
  6
PHANTOM1
 62
  152
 10
294.55807505476429
 20
412.20502037595452
 11
293.65807505476397
 21
413.10502037595484
  0
LINE
  8
_0-9_
  6
PHANTOM1
 62
  152
 10
136.80487815561935
 20
347.03636683683828
 11
136.80487815561935
 21
412.20502037595452
  0
LINE
  8
_0-9_
  6
PHANTOM1
 62
  152
 10
120.80487815561912
 20
412.20502037595452
 11
120.80487815561912
 21
347.03636683683828
  0
LINE
  8
_0-9_
  6
PHANTOM1
 62
  152
 10
121.70487815561944
 20
413.10502037595484
 11
120.80487815561912
 21
412.20502037595452
  0
LINE
  8
_0-9_
  6
PHANTOM1
 62
  152
 10
135.90487815561903
 20
413.10502037595484
 11
121.70487815561944
 21
413.10502037595484
  0
LINE
  8
_0-9_
  6
PHANTOM1
 62
  152
 10
136.80487815561935
 20
412.20502037595452
 11
135.90487815561903
 21
413.10502037595484
  0
LINE
  8
_0-1_
  6
CENTER1
 62
  152
 10
128.80487819040115
 20
164.10502037595484
 11
128.80487819040115
 21
417.60553386901614
  0
LINE
  8
_0-9_
  6
PHANTOM1
 62
  152
 10
103.80487819040115
 20
167.10502037595438
 11
103.80487819040115
 21
170.10502037595506
  0
LINE
  8
_0-9_
  6
PHANTOM1
 62
  152
 10
105.75487819040097
 20
164.10502037595484
 11
105.75487819040097
 21
167.10502037595438
  0
LINE
  8
_0-9_
  6
PHANTOM1
 62
  152
 10
104.05487819040093
 20
170.10502037595506
 11
104.05487819040093
 21
177.60502037595506
  0
LINE
  8
_0-9_
  6
PHANTOM1
 62
  152
 10
151.85487819040179
 20
164.10502037595484
 11
105.75487819040097
 21
164.10502037595484
  0
LINE
  8
_0-9_
  6
PHANTOM1
 62
  152
 10
153.55487819040138
 20
177.60502037595506
 11
153.55487819040138
 21
170.10502037595506
  0
LINE
  8
_0-9_
  6
PHANTOM1
 62
  152
 10
153.80487819040115
 20
170.10502037595506
 11
153.80487819040115
 21
167.10502037595438
  0
LINE
  8
_0-9_
  6
PHANTOM1
 62
  152
 10
151.85487819040179
 20
167.10502037595438
 11
151.85487819040179
 21
164.10502037595484
  0
LINE
  8
_0-9_
  6
PHANTOM1
 62
  152
 10
103.80487819040115
 20
170.10502037595506
 11
104.05487819040093
 21
170.10502037595506
  0
LINE
  8
_0-9_
  6
PHANTOM1
 62
  152
 10
153.55487819040138
 20
170.10502037595506
 11
153.80487819040115
 21
170.10502037595506
  0
LINE
  8
_0-9_
  6
PHANTOM1
 62
  152
 10
153.80487819040115
 20
167.10502037595438
 11
151.85487819040179
 21
167.10502037595438
  0
LINE
  8
_0-9_
  6
PHANTOM1
 62
  152
 10
105.75487819040097
 20
167.10502037595438
 11
103.80487819040115
 21
167.10502037595438
  0
LINE
  8
_0-9_
  6
PHANTOM1
 62
  152
 10
261.55807508954609
 20
167.10502037595438
 11
261.55807508954609
 21
170.10502037595506
  0
LINE
  8
_0-9_
  6
PHANTOM1
 62
  152
 10
263.50807508954591
 20
164.10502037595484
 11
263.50807508954591
 21
167.10502037595438
  0
LINE
  8
_0-9_
  6
PHANTOM1
 62
  152
 10
261.80807508954587
 20
170.10502037595506
 11
261.80807508954587
 21
177.60502037595506
  0
LINE
  8
_0-9_
  6
PHANTOM1
 62
  152
 10
309.60807508954673
 20
164.10502037595484
 11
263.50807508954591
 21
164.10502037595484
  0
LINE
  8
_0-9_
  6
PHANTOM1
 62
  152
 10
311.30807508954632
 20
177.60502037595506
 11
311.30807508954632
 21
170.10502037595506
  0
LINE
  8
_0-9_
  6
PHANTOM1
 62
  152
 10
311.55807508954609
 20
170.10502037595506
 11
311.55807508954609
 21
167.10502037595438
  0
LINE
  8
_0-9_
  6
PHANTOM1
 62
  152
 10
309.60807508954673
 20
167.10502037595438
 11
309.60807508954673
 21
164.10502037595484
  0
LINE
  8
_0-9_
  6
PHANTOM1
 62
  152
 10
261.55807508954609
 20
170.10502037595506
 11
261.80807508954587
 21
170.10502037595506
  0
LINE
  8
_0-9_
  6
PHANTOM1
 62
  152
 10
311.30807508954632
 20
170.10502037595506
 11
311.55807508954609
 21
170.10502037595506
  0
LINE
  8
_0-9_
  6
PHANTOM1
 62
  152
 10
311.55807508954609
 20
167.10502037595438
 11
309.60807508954673
 21
167.10502037595438
  0
LINE
  8
_0-9_
  6
PHANTOM1
 62
  152
 10
263.50807508954591
 20
167.10502037595438
 11
261.55807508954609
 21
167.10502037595438
  0
LINE
  8
_0-9_
  6
PHANTOM1
 62
  152
 10
669.727342489546
 20
167.10502037595438
 11
669.727342489546
 21
170.10502037595506
  0
LINE
  8
_0-9_
  6
PHANTOM1
 62
  152
 10
671.67734248954582
 20
164.10502037595484
 11
671.67734248954582
 21
167.10502037595438
  0
LINE
  8
_0-9_
  6
PHANTOM1
 62
  152
 10
669.97734248954578
 20
170.10502037595506
 11
669.97734248954578
 21
177.60502037595506
  0
LINE
  8
_0-9_
  6
PHANTOM1
 62
  152
 10
717.77734248954664
 20
164.10502037595484
 11
671.67734248954582
 21
164.10502037595484
  0
LINE
  8
_0-9_
  6
PHANTOM1
 62
  152
 10
719.47734248954623
 20
177.60502037595506
 11
719.47734248954623
 21
170.10502037595506
  0
LINE
  8
_0-9_
  6
PHANTOM1
 62
  152
 10
719.727342489546
 20
170.10502037595506
 11
719.727342489546
 21
167.10502037595438
  0
LINE
  8
_0-9_
  6
PHANTOM1
 62
  152
 10
717.77734248954664
 20
167.10502037595438
 11
717.77734248954664
 21
164.10502037595484
  0
LINE
  8
_0-9_
  6
PHANTOM1
 62
  152
 10
669.727342489546
 20
170.10502037595506
 11
669.97734248954578
 21
170.10502037595506
  0
LINE
  8
_0-9_
  6
PHANTOM1
 62
  152
 10
719.47734248954623
 20
170.10502037595506
 11
719.727342489546
 21
170.10502037595506
  0
LINE
  8
_0-9_
  6
PHANTOM1
 62
  152
 10
719.727342489546
 20
167.10502037595438
 11
717.77734248954664
 21
167.10502037595438
  0
LINE
  8
_0-9_
  6
PHANTOM1
 62
  152
 10
671.67734248954582
 20
167.10502037595438
 11
669.727342489546
 21
167.10502037595438
  0
LINE
  8
_0-9_
  6
PHANTOM1
 62
  152
 10
827.48053938869089
 20
167.10502037595438
 11
827.48053938869089
 21
170.10502037595506
  0
LINE
  8
_0-9_
  6
PHANTOM1
 62
  152
 10
829.4305393886907
 20
164.10502037595484
 11
829.4305393886907
 21
167.10502037595438
  0
LINE
  8
_0-9_
  6
PHANTOM1
 62
  152
 10
827.73053938869066
 20
170.10502037595506
 11
827.73053938869066
 21
177.60502037595506
  0
LINE
  8
_0-9_
  6
PHANTOM1
 62
  152
 10
875.53053938869152
 20
164.10502037595484
 11
829.4305393886907
 21
164.10502037595484
  0
LINE
  8
_0-9_
  6
PHANTOM1
 62
  152
 10
877.23053938869111
 20
177.60502037595506
 11
877.23053938869111
 21
170.10502037595506
  0
LINE
  8
_0-9_
  6
PHANTOM1
 62
  152
 10
877.48053938869089
 20
170.10502037595506
 11
877.48053938869089
 21
167.10502037595438
  0
LINE
  8
_0-9_
  6
PHANTOM1
 62
  152
 10
875.53053938869152
 20
167.10502037595438
 11
875.53053938869152
 21
164.10502037595484
  0
LINE
  8
_0-9_
  6
PHANTOM1
 62
  152
 10
827.48053938869089
 20
170.10502037595506
 11
827.73053938869066
 21
170.10502037595506
  0
LINE
  8
_0-9_
  6
PHANTOM1
 62
  152
 10
877.23053938869111
 20
170.10502037595506
 11
877.48053938869089
 21
170.10502037595506
  0
LINE
  8
_0-9_
  6
PHANTOM1
 62
  152
 10
877.48053938869089
 20
167.10502037595438
 11
875.53053938869152
 21
167.10502037595438
  0
LINE
  8
_0-9_
  6
PHANTOM1
 62
  152
 10
829.4305393886907
 20
167.10502037595438
 11
827.48053938869089
 21
167.10502037595438
  0
LINE
  8
_0-1_
  6
CENTER1
 62
  152
 10
286.55807508954609
 20
414.40502037595485
 11
286.55807508954609
 21
164.10502037595484
  0
LINE
  8
_0-1_
  6
CENTER1
 62
  152
 10
694.727342489546
 20
164.10502037595484
 11
694.727342489546
 21
414.40502037595485
  0
LINE
  8
_0-1_
  6
CENTER1
 62
  152
 10
852.480539388691
 20
414.40502037595485
 11
852.480539388691
 21
164.10502037595484
  0
ENDSEC
  0
EOF
