0
SECTION
2
HEADER
9
$ACADVER
1
AC1015
9
$ACADMAINTVER
 70
6
9
$DWGCODEPAGE
3
ANSI_932
9
$EXTMIN
10
0.000
20
0.000
30
0.0
9
$EXTMAX
10
1189.000
20
841.000
30
0.0
9
$LIMMIN
10
0.000
20
0.000
9
$LIMMAX
10
1189.000
20
841.000
9
$DIMSCALE
40
1.000000
9
$LTSCALE
40
2.000
9
$PDMODE
70
0
9
$PDSIZE
40
40.0
9
$HANDSEED
5
61e4b
9
$UNITMODE
70
0
9
$VISRETAIN
70
0
9
$PLINEGEN
70
0
9
$PSLTSCALE
70
1
9
$TREEDEPTH
70
3020
9
$CMLSTYLE
2
STANDARD
9
$CMLJUST
70
0
9
$CMLSCALE
40
1.0
9
$PROXYGRAPHICS
70
1
9
$MEASUREMENT
70
0
9
$CELWEIGHT
370
-1
9
$ENDCAPS
280
0
9
$JOINSTYLE
280
0
9
$LWDISPLAY
290
0
9
$INSUNITS
70
0
9
$HYPERLINKBASE
1

9
$STYLESHEET
1

9
$XEDIT
290
1
9
$CEPSNTYPE
380
0
9
$PSTYLEMODE
290
1
9
$FINGERPRINTGUID
2
{5F082321-0195-11D3-BDFB-0060B0CD5109}
9
$VERSIONGUID
2
{12943756-294D-11D3-98C2-0060B087942D}
9
$EXTNAMES
290
1
9
$PSVPSCALE
40
0.0
9
$OLESTARTUP
290
0
0
ENDSEC
0
SECTION
  2
CLASSES
0
ENDSEC
0
SECTION
2
TABLES
0
TABLE
2
VPORT
5
190
100
AcDbSymbolTable
70
2
0
VPORT
5
191
100
AcDbSymbolTableRecord
100
AcDbViewportTableRecord
2
*ACTIVE
70
0
10
0.0
20
0.0
11
1.0
21
1.0
12
594.500
22
420.500
13
0.0
23
0.0
14
1.0
24
1.0
15
0.0
25
0.0
16
0.0
26
0.0
36
1.0
17
0.0
27
0.0
37
0.0
40
861.594
41
2.0
42
50.0
43
0.0
44
0.0
50
0.0
51
0.0
71
0
72
1000
73
1
74
1
75
0
76
0
77
0
78
0
0
ENDTAB
0
TABLE
2
LTYPE
5
1f4
100
AcDbSymbolTable
70
9
0
LTYPE
5
1f5
100
AcDbSymbolTableRecord
100
AcDbLinetypeTableRecord
2
BYBLOCK
70
 64
3

72
 65
73
  0
40
0.0
0
LTYPE
5
1f6
100
AcDbSymbolTableRecord
100
AcDbLinetypeTableRecord
2
BYLAYER
70
 64
3

72
 65
73
  0
40
0.0
0
LTYPE
5
1f7
100
AcDbSymbolTableRecord
100
AcDbLinetypeTableRecord
2
CONTINUOUS
70
64
3
SolidLine
72
65
73
0
40
0.0
0
LTYPE
5
1f8
100
AcDbSymbolTableRecord
100
AcDbLinetypeTableRecord
2
DOT
70
64
3
--  --  --  --  --  --  --  --     
72
65
73
2
40
3.000
49
1.000
74
0
49
-2.000
74
0
0
LTYPE
5
1f9
100
AcDbSymbolTableRecord
100
AcDbLinetypeTableRecord
2
DASHED
70
64
3
----    ----    ----    ----    
72
65
73
2
40
5.000
49
2.000
74
0
49
-3.000
74
0
0
LTYPE
5
1fa
100
AcDbSymbolTableRecord
100
AcDbLinetypeTableRecord
2
DASHED2
70
64
3
------  ------  ------  ------ 
72
65
73
2
40
10.000
49
4.000
74
0
49
-6.000
74
0
0
LTYPE
5
1fb
100
AcDbSymbolTableRecord
100
AcDbLinetypeTableRecord
2
CENTER
70
64
3
----- - ----- - ----- - ----- - 
72
65
73
4
40
10.000
49
6.000
74
0
49
-3.000
74
0
49
1.000
74
0
49
-3.000
74
0
0
LTYPE
5
1fc
100
AcDbSymbolTableRecord
100
AcDbLinetypeTableRecord
2
CENTER2
70
64
3
----------  --  ----------  -- 
72
65
73
4
40
17.000
49
12.000
74
0
49
-5.000
74
0
49
2.000
74
0
49
-5.000
74
0
0
LTYPE
5
1fd
100
AcDbSymbolTableRecord
100
AcDbLinetypeTableRecord
2
PHANTOM
70
64
3
--- - - --- - - --- - - --- - -
72
65
73
6
40
13.000
49
5.000
74
0
49
-3.000
74
0
49
1.000
74
0
49
-3.000
74
0
49
1.000
74
0
49
-3.000
74
0
0
LTYPE
5
1fe
100
AcDbSymbolTableRecord
100
AcDbLinetypeTableRecord
2
PHANTOM2
70
64
3
--------  -  -  --------  -  -
72
65
73
6
40
20.000
49
6.000
74
0
49
-5.000
74
0
49
2.000
74
0
49
-5.000
74
0
49
2.000
74
0
49
-5.000
74
0
0
LTYPE
5
1ff
100
AcDbSymbolTableRecord
100
AcDbLinetypeTableRecord
2
HIDDEN
70
64
3
-   -   -   -   -   -   -   -   
72
65
73
2
40
3.000
49
0.500
74
0
49
-2.500
74
0
0
ENDTAB
0
TABLE
2
STYLE
5
200
100
AcDbSymbolTable
70
1
0
STYLE
5
201
100
AcDbSymbolTableRecord
100
AcDbTextStyleTableRecord
2
STANDARD
70
0
40
0.0
41
1.0
50
0.0
71
0
42
0.0
3
txt.shx
4
extfont.shx
0
STYLE
5
202
100
AcDbSymbolTableRecord
100
AcDbTextStyleTableRecord
2
TATEGAKI
70
4
40
0.0
41
1.0
50
0.0
71
0
42
0.0
3
txt.shx
4
extfont.shx
0
STYLE
5
203
100
AcDbSymbolTableRecord
100
AcDbTextStyleTableRecord
2
DIM
70
0
40
0.0
41
0.75
50
0.0
71
0
42
0.0
3
txt.shx
4
extfont.shx
0
STYLE
5
204
100
AcDbSymbolTableRecord
100
AcDbTextStyleTableRecord
2
_Gothic_
70
0
40
1.0
41
1.0
50
0.0
71
0
42
10.0
3

4

1001
ACAD
1000
MS Gothic
1071
32817
0
STYLE
5
205
100
AcDbSymbolTableRecord
100
AcDbTextStyleTableRecord
2
_TateGothic_
70
4
40
0.0
41
1.0
50
0.0
71
0
42
0.0
3
@MS Gothic
4

0
ENDTAB
0
TABLE
2
VIEW
5
206
100
AcDbSymbolTable
70
0
0
ENDTAB
0
TABLE
2
UCS
5
207
100
AcDbSymbolTable
70
0
0
ENDTAB
0
TABLE
2
APPID
5
208
100
AcDbSymbolTable
70
1
0
APPID
5
209
100
AcDbSymbolTableRecord
100
AcDbRegAppTableRecord
2
ACAD
70
0
0
ENDTAB
0
TABLE
2
DIMSTYLE
5
403
330
0
100
AcDbSymbolTable
70
1
100
AcDbDimStyleTable
71
0
0
DIMSTYLE
105
404
330
402
100
AcDbSymbolTableRecord
100
AcDbDimStyleTableRecord
2
JAC_DIM
70
0
41
2.000
42
0.000
44
0.0
73
0
74
0
77
1
78
8
79
2
140
0.000
170
0
171
2
172
0
173
0
174
0
175
0
176
0
177
0
178
0
270
2
271
0
272
0
273
2
274
2
340
201
275
0
280
0
281
0
282
0
283
0
284
0
285
0
286
0
287
3
288
0
0
ENDTAB
0
TABLE
2
BLOCK_RECORD
5
405
100
AcDbSymbolTable
70
0
0
BLOCK_RECORD
5
406
100
AcDbSymbolTableRecord
100
AcDbBlockTableRecord
2
*MODEL_SPACE
0
BLOCK_RECORD
5
407
100
AcDbSymbolTableRecord
100
AcDbBlockTableRecord
2
*PAPER_SPACE
0
BLOCK_RECORD
5
408
100
AcDbSymbolTableRecord
100
AcDbBlockTableRecord
2
_JACCONVERT_
0
ENDTAB
0
TABLE
2
LAYER
5
409
100
AcDbSymbolTable
70
10
0
LAYER
5
40a
100
AcDbSymbolTableRecord
100
AcDbLayerTableRecord
2
0
70
0
62
7
6
CONTINUOUS
370
-3
390
14
0
LAYER
5
40b
100
AcDbSymbolTableRecord
100
AcDbLayerTableRecord
2
0-0
70
0
62
7
6
CONTINUOUS
370
-3
390
14
0
LAYER
5
40c
100
AcDbSymbolTableRecord
100
AcDbLayerTableRecord
2
0-1
70
0
62
7
6
CONTINUOUS
370
-3
390
14
0
LAYER
5
40d
100
AcDbSymbolTableRecord
100
AcDbLayerTableRecord
2
0-2
70
0
62
7
6
CONTINUOUS
370
-3
390
14
0
LAYER
5
40e
100
AcDbSymbolTableRecord
100
AcDbLayerTableRecord
2
0-3
70
0
62
7
6
CONTINUOUS
370
-3
390
14
0
LAYER
5
40f
100
AcDbSymbolTableRecord
100
AcDbLayerTableRecord
2
0-8
70
0
62
7
6
CONTINUOUS
370
-3
390
14
0
LAYER
5
410
100
AcDbSymbolTableRecord
100
AcDbLayerTableRecord
2
0-F
70
0
62
7
6
CONTINUOUS
370
-3
390
14
0
LAYER
5
411
100
AcDbSymbolTableRecord
100
AcDbLayerTableRecord
2
F-F_J_ADD
70
0
62
-7
6
CONTINUOUS
290
0
370
-3
390
14
0
ENDTAB
0
ENDSEC
0
SECTION
2
BLOCKS
0
BLOCK
5
412
100
AcDbEntity
67
1
8
0
100
AcDbBlockBegin
2
*MODEL_SPACE
70
0
10
0.0
20
0.0
30
0.0
3
*MODEL_SPACE
1

0
ENDBLK
5
413
100
AcDbEntity
8
0
100
AcDbBlockEnd
0
BLOCK
5
414
100
AcDbEntity
67
1
8
0
100
AcDbBlockBegin
2
*PAPER_SPACE
70
0
10
0.0
20
0.0
30
0.0
3
*PAPER_SPACE
1

0
ENDBLK
5
415
100
AcDbEntity
67
1
8
0
100
AcDbBlockEnd
0
BLOCK
5
416
100
AcDbEntity
8
0
100
AcDbBlockBegin
2
_JACCONVERT_
70
2
10
0.0
20
0.0
30
0.0
3
_JACCONVERT_
1
_JACCONVERT_
0
ATTDEF
5
417
100
AcDbEntity
8
0
62
0
100
AcDbText
10
0.0
20
0.0
30
0.0
40
1.0
1
User:UnSettingUp
100
AcDbAttributeDefinition
3

2
USER
70
8
0
ATTDEF
5
418
100
AcDbEntity
8
0
62
0
100
AcDbText
10
0.0
20
2.0
30
0.0
40
1.0
1
Date:23/07/14 16:41
100
AcDbAttributeDefinition
3

2
REVDATE
70
8
0
ATTDEF
5
419
100
AcDbEntity
8
0
62
0
100
AcDbText
10
0.0
20
4.0
30
0.0
40
1.0
1
File:212_LECO40_sheet.dxf
100
AcDbAttributeDefinition
3

2
FNAME
70
8
0
ATTDEF
5
41a
100
AcDbEntity
8
0
62
0
100
AcDbText
10
0.0
20
6.0
30
0.0
40
1.0
1
JacConvert Version3.11 copyright (c) 2001-2016 K.Nakahara
100
AcDbAttributeDefinition
3

2
VER
70
8
0
ENDBLK
5
41b
100
AcDbEntity
67
1
8
0
100
AcDbBlockEnd
0
ENDSEC
0
SECTION
2
ENTITIES
0
LINE
5
41c
100
AcDbEntity
8
0-0
6
CONTINUOUS
62
7
100
AcDbLine
10
28.755782353763
20
28.849375263559
30
0.0
11
28.755782353763
21
31.549375263559
31
0.0
0
ARC
5
41d
100
AcDbEntity
8
0-0
6
CONTINUOUS
62
7
100
AcDbCircle
10
27.955782353763
20
31.549375263559
30
0.0
40
0.800000000000
100
AcDbArc
50
359.999999999994
51
449.999999999994
0
LINE
5
41e
100
AcDbEntity
8
0-0
6
CONTINUOUS
62
7
100
AcDbLine
10
27.955782353763
20
32.349375263559
30
0.0
11
7.455782353763
21
32.349375263559
31
0.0
0
ARC
5
41f
100
AcDbEntity
8
0-0
6
CONTINUOUS
62
7
100
AcDbCircle
10
7.455782353763
20
31.549375263559
30
0.0
40
0.800000000000
100
AcDbArc
50
90.000000000006
51
180.000000000006
0
LINE
5
420
100
AcDbEntity
8
0-0
6
CONTINUOUS
62
7
100
AcDbLine
10
6.655782353763
20
31.549375263559
30
0.0
11
6.655782353763
21
28.849375263559
31
0.0
0
ARC
5
421
100
AcDbEntity
8
0-0
6
CONTINUOUS
62
7
100
AcDbCircle
10
5.655782353763
20
28.849375263559
30
0.0
40
1.000000000000
100
AcDbArc
50
269.999999999993
51
359.999999999995
0
LINE
5
422
100
AcDbEntity
8
0-0
6
CONTINUOUS
62
7
100
AcDbLine
10
5.655782353763
20
27.849375263559
30
0.0
11
4.705782353763
21
27.849375263559
31
0.0
0
ARC
5
423
100
AcDbEntity
8
0-0
6
CONTINUOUS
62
7
100
AcDbCircle
10
4.705782353763
20
27.049375263559
30
0.0
40
0.800000000000
100
AcDbArc
50
89.999999999998
51
180.000000000000
0
LINE
5
424
100
AcDbEntity
8
0-0
6
CONTINUOUS
62
7
100
AcDbLine
10
3.905782353763
20
27.049375263559
30
0.0
11
3.905782353763
21
13.249375263559
31
0.0
0
ARC
5
425
100
AcDbEntity
8
0-0
6
CONTINUOUS
62
7
100
AcDbCircle
10
4.905782353763
20
13.249375263559
30
0.0
40
1.000000000000
100
AcDbArc
50
179.999999999999
51
270.000000000001
0
LINE
5
426
100
AcDbEntity
8
0-0
6
CONTINUOUS
62
7
100
AcDbLine
10
4.905782353763
20
12.249375263559
30
0.0
11
7.605782353763
21
12.249375263559
31
0.0
0
ARC
5
427
100
AcDbEntity
8
0-0
6
CONTINUOUS
62
7
100
AcDbCircle
10
7.605782353763
20
12.549375263559
30
0.0
40
0.300000000000
100
AcDbArc
50
269.999999999992
51
359.999999999991
0
LINE
5
428
100
AcDbEntity
8
0-0
6
CONTINUOUS
62
7
100
AcDbLine
10
7.905782353763
20
12.549375263559
30
0.0
11
7.905782353763
21
13.749375263559
31
0.0
0
ARC
5
429
100
AcDbEntity
8
0-0
6
CONTINUOUS
62
7
100
AcDbCircle
10
8.205782353763
20
13.749375263559
30
0.0
40
0.300000000000
100
AcDbArc
50
90.000000000000
51
180.000000000000
0
LINE
5
42a
100
AcDbEntity
8
0-0
6
CONTINUOUS
62
7
100
AcDbLine
10
8.205782353763
20
14.049375263559
30
0.0
11
8.866927971761
21
14.049375263559
31
0.0
0
ARC
5
42b
100
AcDbEntity
8
0-0
6
CONTINUOUS
62
7
100
AcDbCircle
10
8.866927971761
20
13.799375263558
30
0.0
40
0.250000000000
100
AcDbArc
50
353.620629791644
51
450.000000000108
0
ARC
5
42c
100
AcDbEntity
8
0-0
6
CONTINUOUS
62
7
100
AcDbCircle
10
10.655782353762
20
13.599375263558
30
0.0
40
1.550000000000
100
AcDbArc
50
173.620629791535
51
469.471220634433
0
ARC
5
42d
100
AcDbEntity
8
0-0
6
CONTINUOUS
62
7
100
AcDbCircle
10
10.105782353763
20
15.155010182170
30
0.0
40
0.100000000000
100
AcDbArc
50
179.999999999773
51
289.471220634246
0
LINE
5
42e
100
AcDbEntity
8
0-0
6
CONTINUOUS
62
7
100
AcDbLine
10
10.005782353763
20
15.155010182170
30
0.0
11
10.005782353763
21
15.749375263559
31
0.0
0
ARC
5
42f
100
AcDbEntity
8
0-0
6
CONTINUOUS
62
7
100
AcDbCircle
10
10.305782353763
20
15.749375263559
30
0.0
40
0.300000000000
100
AcDbArc
50
90.000000000003
51
180.000000000003
0
LINE
5
430
100
AcDbEntity
8
0-0
6
CONTINUOUS
62
7
100
AcDbLine
10
10.305782353763
20
16.049375263559
30
0.0
11
12.705782353763
21
16.049375263559
31
0.0
0
ARC
5
431
100
AcDbEntity
8
0-0
6
CONTINUOUS
62
7
100
AcDbCircle
10
12.705782353763
20
15.549375263559
30
0.0
40
0.500000000000
100
AcDbArc
50
0.000000000002
51
89.999999999998
0
LINE
5
432
100
AcDbEntity
8
0-0
6
CONTINUOUS
62
7
100
AcDbLine
10
13.205782353763
20
15.549375263559
30
0.0
11
13.205782353763
21
13.249375263559
31
0.0
0
ARC
5
433
100
AcDbEntity
8
0-0
6
CONTINUOUS
62
7
100
AcDbCircle
10
11.005782353763
20
13.249375263559
30
0.0
40
2.200000000000
100
AcDbArc
50
269.999999999999
51
359.999999999997
0
LINE
5
434
100
AcDbEntity
8
0-0
6
CONTINUOUS
62
7
100
AcDbLine
10
11.005782353763
20
11.049375263559
30
0.0
11
4.905782353763
21
11.049375263559
31
0.0
0
ARC
5
435
100
AcDbEntity
8
0-0
6
CONTINUOUS
62
7
100
AcDbCircle
10
4.905782353763
20
13.249375263559
30
0.0
40
2.200000000000
100
AcDbArc
50
180.000000000000
51
270.000000000000
0
LINE
5
436
100
AcDbEntity
8
0-0
6
CONTINUOUS
62
7
100
AcDbLine
10
2.705782353763
20
13.249375263559
30
0.0
11
2.705782353763
21
27.049375263559
31
0.0
0
ARC
5
437
100
AcDbEntity
8
0-0
6
CONTINUOUS
62
7
100
AcDbCircle
10
4.705782353763
20
27.049375263559
30
0.0
40
2.000000000000
100
AcDbArc
50
90.000000000000
51
180.000000000000
0
POLYLINE
5
438
100
AcDbEntity
8
0-0
6
CONTINUOUS
62
  7
100
AcDb2dPolyline
66
1
10
0.0
20
0.0
30
0.0
70
0
0
VERTEX
5
439
100
AcDbEntity
8
0-0
6
CONTINUOUS
62
  7
100
AcDbVertex
100
AcDb2dVertex
10
4.705782353763
20
29.049375263559
30
0.0
0
VERTEX
5
43a
100
AcDbEntity
8
0-0
6
CONTINUOUS
62
  7
100
AcDbVertex
100
AcDb2dVertex
10
5.455782353763
20
29.049375263559
30
0.0
0
VERTEX
5
43b
100
AcDbEntity
8
0-0
6
CONTINUOUS
62
  7
100
AcDbVertex
100
AcDb2dVertex
10
5.455782353763
20
32.049375263559
30
0.0
0
VERTEX
5
43c
100
AcDbEntity
8
0-0
6
CONTINUOUS
62
  7
100
AcDbVertex
100
AcDb2dVertex
10
3.505782353763
20
32.049375263559
30
0.0
0
SEQEND
5
43d
100
AcDbEntity
8
0-0
0
ARC
5
43e
100
AcDbEntity
8
0-0
6
CONTINUOUS
62
7
100
AcDbCircle
10
3.505782353763
20
32.849375263559
30
0.0
40
0.800000000000
100
AcDbArc
50
179.999999999998
51
269.999999999996
0
LINE
5
43f
100
AcDbEntity
8
0-0
6
CONTINUOUS
62
7
100
AcDbLine
10
2.705782353763
20
32.849375263559
30
0.0
11
2.705782353763
21
33.249375263559
31
0.0
0
ARC
5
440
100
AcDbEntity
8
0-0
6
CONTINUOUS
62
7
100
AcDbCircle
10
3.505782353763
20
33.249375263559
30
0.0
40
0.800000000000
100
AcDbArc
50
90.000000000000
51
180.000000000000
0
POLYLINE
5
441
100
AcDbEntity
8
0-0
6
CONTINUOUS
62
  7
100
AcDb2dPolyline
66
1
10
0.0
20
0.0
30
0.0
70
0
0
VERTEX
5
442
100
AcDbEntity
8
0-0
6
CONTINUOUS
62
  7
100
AcDbVertex
100
AcDb2dVertex
10
3.505782353763
20
34.049375263559
30
0.0
0
VERTEX
5
443
100
AcDbEntity
8
0-0
6
CONTINUOUS
62
  7
100
AcDbVertex
100
AcDb2dVertex
10
8.705782353763
20
34.049375263559
30
0.0
0
VERTEX
5
444
100
AcDbEntity
8
0-0
6
CONTINUOUS
62
  7
100
AcDbVertex
100
AcDb2dVertex
10
9.261088611177
20
33.549375263559
30
0.0
0
VERTEX
5
445
100
AcDbEntity
8
0-0
6
CONTINUOUS
62
  7
100
AcDbVertex
100
AcDb2dVertex
10
14.650476096348
20
33.549375263559
30
0.0
0
VERTEX
5
446
100
AcDbEntity
8
0-0
6
CONTINUOUS
62
  7
100
AcDbVertex
100
AcDb2dVertex
10
15.205782353763
20
34.049375263559
30
0.0
0
VERTEX
5
447
100
AcDbEntity
8
0-0
6
CONTINUOUS
62
  7
100
AcDbVertex
100
AcDb2dVertex
10
20.205782353763
20
34.049375263559
30
0.0
0
VERTEX
5
448
100
AcDbEntity
8
0-0
6
CONTINUOUS
62
  7
100
AcDbVertex
100
AcDb2dVertex
10
20.761088611177
20
33.549375263559
30
0.0
0
VERTEX
5
449
100
AcDbEntity
8
0-0
6
CONTINUOUS
62
  7
100
AcDbVertex
100
AcDb2dVertex
10
26.150476096348
20
33.549375263559
30
0.0
0
VERTEX
5
44a
100
AcDbEntity
8
0-0
6
CONTINUOUS
62
  7
100
AcDbVertex
100
AcDb2dVertex
10
26.705782353763
20
34.049375263559
30
0.0
0
VERTEX
5
44b
100
AcDbEntity
8
0-0
6
CONTINUOUS
62
  7
100
AcDbVertex
100
AcDb2dVertex
10
31.905782353763
20
34.049375263559
30
0.0
0
SEQEND
5
44c
100
AcDbEntity
8
0-0
0
ARC
5
44d
100
AcDbEntity
8
0-0
6
CONTINUOUS
62
7
100
AcDbCircle
10
31.905782353763
20
33.249375263559
30
0.0
40
0.800000000000
100
AcDbArc
50
0.000000000003
51
90.000000000003
0
LINE
5
44e
100
AcDbEntity
8
0-0
6
CONTINUOUS
62
7
100
AcDbLine
10
32.705782353763
20
33.249375263559
30
0.0
11
32.705782353763
21
32.849375263559
31
0.0
0
ARC
5
44f
100
AcDbEntity
8
0-0
6
CONTINUOUS
62
7
100
AcDbCircle
10
31.905782353763
20
32.849375263559
30
0.0
40
0.800000000000
100
AcDbArc
50
270.000000000004
51
360.000000000002
0
POLYLINE
5
450
100
AcDbEntity
8
0-0
6
CONTINUOUS
62
  7
100
AcDb2dPolyline
66
1
10
0.0
20
0.0
30
0.0
70
0
0
VERTEX
5
451
100
AcDbEntity
8
0-0
6
CONTINUOUS
62
  7
100
AcDbVertex
100
AcDb2dVertex
10
31.905782353763
20
32.049375263559
30
0.0
0
VERTEX
5
452
100
AcDbEntity
8
0-0
6
CONTINUOUS
62
  7
100
AcDbVertex
100
AcDb2dVertex
10
29.955782353763
20
32.049375263559
30
0.0
0
VERTEX
5
453
100
AcDbEntity
8
0-0
6
CONTINUOUS
62
  7
100
AcDbVertex
100
AcDb2dVertex
10
29.955782353763
20
29.049375263559
30
0.0
0
VERTEX
5
454
100
AcDbEntity
8
0-0
6
CONTINUOUS
62
  7
100
AcDbVertex
100
AcDb2dVertex
10
30.705782353763
20
29.049375263559
30
0.0
0
SEQEND
5
455
100
AcDbEntity
8
0-0
0
ARC
5
456
100
AcDbEntity
8
0-0
6
CONTINUOUS
62
7
100
AcDbCircle
10
30.705782353763
20
27.049375263559
30
0.0
40
2.000000000000
100
AcDbArc
50
0.000000000000
51
90.000000000000
0
LINE
5
457
100
AcDbEntity
8
0-0
6
CONTINUOUS
62
7
100
AcDbLine
10
32.705782353763
20
27.049375263559
30
0.0
11
32.705782353763
21
13.249375263559
31
0.0
0
ARC
5
458
100
AcDbEntity
8
0-0
6
CONTINUOUS
62
7
100
AcDbCircle
10
30.505782353763
20
13.249375263559
30
0.0
40
2.200000000000
100
AcDbArc
50
270.000000000001
51
360.000000000001
0
LINE
5
459
100
AcDbEntity
8
0-0
6
CONTINUOUS
62
7
100
AcDbLine
10
30.505782353763
20
11.049375263559
30
0.0
11
24.405782353763
21
11.049375263559
31
0.0
0
ARC
5
45a
100
AcDbEntity
8
0-0
6
CONTINUOUS
62
7
100
AcDbCircle
10
24.405782353763
20
13.249375263559
30
0.0
40
2.200000000000
100
AcDbArc
50
180.000000000002
51
270.000000000001
0
LINE
5
45b
100
AcDbEntity
8
0-0
6
CONTINUOUS
62
7
100
AcDbLine
10
22.205782353763
20
13.249375263559
30
0.0
11
22.205782353763
21
15.549375263559
31
0.0
0
ARC
5
45c
100
AcDbEntity
8
0-0
6
CONTINUOUS
62
7
100
AcDbCircle
10
22.705782353763
20
15.549375263559
30
0.0
40
0.500000000000
100
AcDbArc
50
90.000000000002
51
179.999999999998
0
LINE
5
45d
100
AcDbEntity
8
0-0
6
CONTINUOUS
62
7
100
AcDbLine
10
22.705782353763
20
16.049375263559
30
0.0
11
25.105782353763
21
16.049375263559
31
0.0
0
ARC
5
45e
100
AcDbEntity
8
0-0
6
CONTINUOUS
62
7
100
AcDbCircle
10
25.105782353763
20
15.749375263559
30
0.0
40
0.300000000000
100
AcDbArc
50
0.000000000011
51
90.000000000011
0
LINE
5
45f
100
AcDbEntity
8
0-0
6
CONTINUOUS
62
7
100
AcDbLine
10
25.405782353763
20
15.749375263559
30
0.0
11
25.405782353763
21
15.155010182170
31
0.0
0
ARC
5
460
100
AcDbEntity
8
0-0
6
CONTINUOUS
62
7
100
AcDbCircle
10
25.305782353763
20
15.155010182170
30
0.0
40
0.100000000001
100
AcDbArc
50
250.528779365725
51
360.000000000199
0
ARC
5
461
100
AcDbEntity
8
0-0
6
CONTINUOUS
62
7
100
AcDbCircle
10
24.755782353764
20
13.599375263558
30
0.0
40
1.550000000000
100
AcDbArc
50
70.528779365567
51
366.379370208465
0
ARC
5
462
100
AcDbEntity
8
0-0
6
CONTINUOUS
62
7
100
AcDbCircle
10
26.544636735765
20
13.799375263558
30
0.0
40
0.250000000000
100
AcDbArc
50
89.999999999896
51
186.379370208359
0
LINE
5
463
100
AcDbEntity
8
0-0
6
CONTINUOUS
62
7
100
AcDbLine
10
26.544636735765
20
14.049375263559
30
0.0
11
27.205782353763
21
14.049375263559
31
0.0
0
ARC
5
464
100
AcDbEntity
8
0-0
6
CONTINUOUS
62
7
100
AcDbCircle
10
27.205782353763
20
13.749375263559
30
0.0
40
0.300000000000
100
AcDbArc
50
359.999999999997
51
449.999999999997
0
LINE
5
465
100
AcDbEntity
8
0-0
6
CONTINUOUS
62
7
100
AcDbLine
10
27.505782353763
20
13.749375263559
30
0.0
11
27.505782353763
21
12.549375263559
31
0.0
0
ARC
5
466
100
AcDbEntity
8
0-0
6
CONTINUOUS
62
7
100
AcDbCircle
10
27.805782353763
20
12.549375263559
30
0.0
40
0.300000000000
100
AcDbArc
50
180.000000000008
51
270.000000000008
0
LINE
5
467
100
AcDbEntity
8
0-0
6
CONTINUOUS
62
7
100
AcDbLine
10
27.805782353763
20
12.249375263559
30
0.0
11
30.505782353763
21
12.249375263559
31
0.0
0
ARC
5
468
100
AcDbEntity
8
0-0
6
CONTINUOUS
62
7
100
AcDbCircle
10
30.505782353763
20
13.249375263559
30
0.0
40
1.000000000000
100
AcDbArc
50
269.999999999999
51
360.000000000001
0
LINE
5
469
100
AcDbEntity
8
0-0
6
CONTINUOUS
62
7
100
AcDbLine
10
31.505782353763
20
13.249375263559
30
0.0
11
31.505782353763
21
27.049375263559
31
0.0
0
ARC
5
46a
100
AcDbEntity
8
0-0
6
CONTINUOUS
62
7
100
AcDbCircle
10
30.705782353763
20
27.049375263559
30
0.0
40
0.800000000000
100
AcDbArc
50
0.000000000003
51
90.000000000005
0
POLYLINE
5
46b
100
AcDbEntity
8
0-0
6
CONTINUOUS
62
  7
100
AcDb2dPolyline
66
1
10
0.0
20
0.0
30
0.0
70
0
0
VERTEX
5
46c
100
AcDbEntity
8
0-0
6
CONTINUOUS
62
  7
100
AcDbVertex
100
AcDb2dVertex
10
30.705782353763
20
27.849375263559
30
0.0
0
VERTEX
5
46d
100
AcDbEntity
8
0-0
6
CONTINUOUS
62
  7
100
AcDbVertex
100
AcDb2dVertex
10
29.755782353763
20
27.849375263559
30
0.0
0
VERTEX
5
46e
100
AcDbEntity
8
0-0
6
CONTINUOUS
62
  7
100
AcDbVertex
100
AcDb2dVertex
10
28.755782353763
20
28.849375263559
30
0.0
0
SEQEND
5
46f
100
AcDbEntity
8
0-0
0
ARC
5
470
100
AcDbEntity
8
F-F_J_ADD
6
HIDDEN
62
7
100
AcDbCircle
10
370.530053726897
20
53.629161209709
30
0.0
40
6.099999904633
100
AcDbArc
50
219.601913452148
51
320.398071289063
0
LINE
5
471
100
AcDbEntity
8
F-F_J_ADD
6
HIDDEN
62
7
100
AcDbLine
10
375.230053536163
20
49.740716875441
30
0.0
11
365.830053917632
21
49.740716875441
31
0.0
0
LINE
5
472
100
AcDbEntity
8
F-F_J_ADD
6
HIDDEN
62
7
100
AcDbLine
10
372.530053726898
20
50.029161305075
30
0.0
11
372.530053726898
21
59.729161114340
31
0.0
0
LINE
5
473
100
AcDbEntity
8
F-F_J_ADD
6
HIDDEN
62
7
100
AcDbLine
10
372.230053774580
20
50.029161305075
30
0.0
11
372.230053774580
21
60.029161305075
31
0.0
0
LINE
5
474
100
AcDbEntity
8
0-0
6
CONTINUOUS
62
7
100
AcDbLine
10
263.049745291511
20
88.194427972905
30
0.0
11
212.049745291511
21
88.194427972905
31
0.0
0
LINE
5
475
100
AcDbEntity
8
0-0
6
CONTINUOUS
62
7
100
AcDbLine
10
263.049745291511
20
88.194427972905
30
0.0
11
263.049745291511
21
84.194427972905
31
0.0
0
LINE
5
476
100
AcDbEntity
8
0-0
6
CONTINUOUS
62
7
100
AcDbLine
10
212.049745291511
20
88.194427972905
30
0.0
11
212.049745291511
21
84.994427972905
31
0.0
0
LINE
5
477
100
AcDbEntity
8
0-0
6
CONTINUOUS
62
7
100
AcDbLine
10
237.749745291511
20
84.194427972905
30
0.0
11
212.849745291511
21
84.194427972905
31
0.0
0
ARC
5
478
100
AcDbEntity
8
0-0
6
CONTINUOUS
62
7
100
AcDbCircle
10
212.849745291511
20
84.994427972905
30
0.0
40
0.800000000000
100
AcDbArc
50
180.000000000000
51
270.000000000000
0
ARC
5
479
100
AcDbEntity
8
0-0
6
CONTINUOUS
62
7
100
AcDbCircle
10
209.049745291511
20
83.194427972905
30
0.0
40
1.000000000000
100
AcDbArc
50
126.869897645844
51
254.749213755798
0
LINE
5
47a
100
AcDbEntity
8
0-0
6
CONTINUOUS
62
7
100
AcDbLine
10
210.749745291511
20
81.694427972905
30
0.0
11
208.786700837736
21
82.229644258626
31
0.0
0
LINE
5
47b
100
AcDbEntity
8
0-0
6
CONTINUOUS
62
7
100
AcDbLine
10
212.049745291511
20
86.694427972905
30
0.0
11
208.449745291511
21
83.994427972905
31
0.0
0
LINE
5
47c
100
AcDbEntity
8
0-0
6
CONTINUOUS
62
7
100
AcDbLine
10
210.355178610848
20
80.247252401487
30
0.0
11
208.392134157072
21
80.782468687208
31
0.0
0
ARC
5
47d
100
AcDbEntity
8
0-0
6
CONTINUOUS
62
7
100
AcDbCircle
10
209.049745291511
20
83.194427972905
30
0.0
40
2.500000000000
100
AcDbArc
50
126.869897645844
51
254.749213755798
0
LINE
5
47e
100
AcDbEntity
8
0-0
6
CONTINUOUS
62
7
100
AcDbLine
10
211.149745291511
20
87.894427972905
30
0.0
11
207.549745291511
21
85.194427972905
31
0.0
0
ARC
5
47f
100
AcDbEntity
8
0-0
6
CONTINUOUS
62
7
100
AcDbCircle
10
212.049745291511
20
86.694427972905
30
0.0
40
1.500000000000
100
AcDbArc
50
90.000000000000
51
126.869897645844
0
LINE
5
480
100
AcDbEntity
8
0-0
6
CONTINUOUS
62
7
100
AcDbLine
10
210.749745291511
20
81.694427972905
30
0.0
11
210.355178610848
21
80.247252401487
31
0.0
0
LINE
5
481
100
AcDbEntity
8
0-0
6
CONTINUOUS
62
7
100
AcDbLine
10
259.549745291511
20
78.694427972905
30
0.0
11
255.549745291511
21
78.694427972905
31
0.0
0
LINE
5
482
100
AcDbEntity
8
0-0
6
CONTINUOUS
62
7
100
AcDbLine
10
259.549745291511
20
78.694427972905
30
0.0
11
263.049745291511
21
84.194427972905
31
0.0
0
LINE
5
483
100
AcDbEntity
8
0-0
6
CONTINUOUS
62
7
100
AcDbLine
10
255.549745291511
20
78.694427972905
30
0.0
11
255.549745291511
21
77.194427972905
31
0.0
0
LINE
5
484
100
AcDbEntity
8
0-0
6
CONTINUOUS
62
7
100
AcDbLine
10
241.049745291511
20
78.694427972905
30
0.0
11
241.049745291511
21
77.194427972905
31
0.0
0
LINE
5
485
100
AcDbEntity
8
0-0
6
CONTINUOUS
62
7
100
AcDbLine
10
257.049745291511
20
77.194427972905
30
0.0
11
241.049745291511
21
77.194427972905
31
0.0
0
LINE
5
486
100
AcDbEntity
8
0-0
6
CONTINUOUS
62
7
100
AcDbLine
10
238.549745291511
20
83.394427972905
30
0.0
11
238.549745291511
21
81.694427972905
31
0.0
0
ARC
5
487
100
AcDbEntity
8
0-0
6
CONTINUOUS
62
7
100
AcDbCircle
10
237.749745291511
20
83.394427972905
30
0.0
40
0.800000000000
100
AcDbArc
50
0.000000000000
51
90.000000000000
0
LINE
5
488
100
AcDbEntity
8
0-0
6
CONTINUOUS
62
7
100
AcDbLine
10
238.549745291511
20
81.694427972905
30
0.0
11
241.049745291511
21
78.694427972905
31
0.0
0
LINE
5
489
100
AcDbEntity
8
0-0
6
CONTINUOUS
62
7
100
AcDbLine
10
258.049745291511
20
78.694427972905
30
0.0
11
258.049745291511
21
78.194427972905
31
0.0
0
LINE
5
48a
100
AcDbEntity
8
0-0
6
CONTINUOUS
62
7
100
AcDbLine
10
255.597251510455
20
69.194427972905
30
0.0
11
255.049745291511
21
69.194427972905
31
0.0
0
ARC
5
48b
100
AcDbEntity
8
0-0
6
CONTINUOUS
62
7
100
AcDbCircle
10
257.049745291511
20
78.194427972905
30
0.0
40
1.000000000000
100
AcDbArc
50
270.000000000000
51
360.000000000000
0
LINE
5
48c
100
AcDbEntity
8
0-0
6
CONTINUOUS
62
7
100
AcDbLine
10
256.094770105560
20
69.644676113395
30
0.0
11
256.849745291511
21
77.194427972905
31
0.0
0
LINE
5
48d
100
AcDbEntity
8
0-0
6
CONTINUOUS
62
7
100
AcDbLine
10
253.549745291511
20
73.694427972905
30
0.0
11
253.549745291511
21
70.694427972905
31
0.0
0
ARC
5
48e
100
AcDbEntity
8
0-0
6
CONTINUOUS
62
7
100
AcDbCircle
10
255.597251510455
20
69.694427972905
30
0.0
40
0.500000000000
100
AcDbArc
50
270.000000000000
51
354.289406862500
0
ARC
5
48f
100
AcDbEntity
8
0-0
6
CONTINUOUS
62
7
100
AcDbCircle
10
248.049745291511
20
73.694427972905
30
0.0
40
5.500000000000
100
AcDbArc
50
0.000000000000
51
39.521196358643
0
ARC
5
490
100
AcDbEntity
8
0-0
6
CONTINUOUS
62
7
100
AcDbCircle
10
255.049745291511
20
70.694427972905
30
0.0
40
1.500000000000
100
AcDbArc
50
180.000000000000
51
270.000000000000
0
LINE
5
491
100
AcDbEntity
8
0-0
6
CONTINUOUS
62
7
100
AcDbLine
10
238.665606134969
20
71.694427972905
30
0.0
11
237.049745291511
21
71.694427972905
31
0.0
0
LINE
5
492
100
AcDbEntity
8
0-0
6
CONTINUOUS
62
7
100
AcDbLine
10
239.148723604770
20
72.065596647625
30
0.0
11
240.948735190501
21
78.815640094117
31
0.0
0
LINE
5
493
100
AcDbEntity
8
0-0
6
CONTINUOUS
62
7
100
AcDbLine
10
235.549745291511
20
84.194427972905
30
0.0
11
235.549745291511
21
83.194427972905
31
0.0
0
ARC
5
494
100
AcDbEntity
8
0-0
6
CONTINUOUS
62
7
100
AcDbCircle
10
238.665606134969
20
72.194427972905
30
0.0
40
0.500000000000
100
AcDbArc
50
270.000000000000
51
345.068582821862
0
LINE
5
495
100
AcDbEntity
8
0-0
6
CONTINUOUS
62
7
100
AcDbLine
10
237.049745291511
20
71.694427972905
30
0.0
11
235.549745291511
21
75.194427972905
31
0.0
0
ARC
5
496
100
AcDbEntity
8
0-0
6
CONTINUOUS
62
7
100
AcDbCircle
10
235.549745291511
20
76.694427972905
30
0.0
40
1.500000000000
100
AcDbArc
50
270.000000000000
51
407.149676308483
0
LINE
5
497
100
AcDbEntity
8
0-0
6
CONTINUOUS
62
7
100
AcDbLine
10
232.149745291511
20
81.894427972905
30
0.0
11
236.569873522608
21
77.794127200930
31
0.0
0
POLYLINE
5
498
100
AcDbEntity
8
0-0
6
CONTINUOUS
62
  7
100
AcDb2dPolyline
66
1
10
0.0
20
0.0
30
0.0
70
0
0
VERTEX
5
499
100
AcDbEntity
8
0-0
6
CONTINUOUS
62
  7
100
AcDbVertex
100
AcDb2dVertex
10
232.149745291511
20
81.894427972905
30
0.0
0
VERTEX
5
49a
100
AcDbEntity
8
0-0
6
CONTINUOUS
62
  7
100
AcDbVertex
100
AcDb2dVertex
10
232.649745291511
20
82.194427972905
30
0.0
0
VERTEX
5
49b
100
AcDbEntity
8
0-0
6
CONTINUOUS
62
  7
100
AcDbVertex
100
AcDb2dVertex
10
235.549745291511
20
83.194427972905
30
0.0
0
SEQEND
5
49c
100
AcDbEntity
8
0-0
0
LINE
5
49d
100
AcDbEntity
8
0-0
6
CONTINUOUS
62
7
100
AcDbLine
10
212.049745291511
20
25.453297102721
30
0.0
11
263.049745291511
21
25.453297102721
31
0.0
0
LINE
5
49e
100
AcDbEntity
8
0-0
6
CONTINUOUS
62
7
100
AcDbLine
10
212.049745291511
20
53.453297102721
30
0.0
11
263.049745291511
21
53.453297102721
31
0.0
0
LINE
5
49f
100
AcDbEntity
8
0-0
6
CONTINUOUS
62
7
100
AcDbLine
10
212.049745291511
20
51.953297102721
30
0.0
11
241.049745291511
21
51.953297102721
31
0.0
0
LINE
5
4a0
100
AcDbEntity
8
0-0
6
CONTINUOUS
62
7
100
AcDbLine
10
206.549745291511
20
26.953297102721
30
0.0
11
206.549745291511
21
51.953297102721
31
0.0
0
LINE
5
4a1
100
AcDbEntity
8
0-0
6
CONTINUOUS
62
7
100
AcDbLine
10
206.549745291511
20
26.953297102721
30
0.0
11
212.049745291511
21
26.953297102721
31
0.0
0
LINE
5
4a2
100
AcDbEntity
8
0-0
6
CONTINUOUS
62
7
100
AcDbLine
10
212.049745291511
20
25.453297102721
30
0.0
11
212.049745291511
21
26.953297102721
31
0.0
0
LINE
5
4a3
100
AcDbEntity
8
0-0
6
CONTINUOUS
62
7
100
AcDbLine
10
206.549745291511
20
51.953297102721
30
0.0
11
212.049745291511
21
51.953297102721
31
0.0
0
LINE
5
4a4
100
AcDbEntity
8
0-0
6
CONTINUOUS
62
7
100
AcDbLine
10
212.049745291511
20
51.953297102721
30
0.0
11
212.049745291511
21
53.453297102721
31
0.0
0
CIRCLE
5
4a5
100
AcDbEntity
8
0-0
6
CONTINUOUS
62
7
100
AcDbCircle
10
223.549745291511
20
38.953297102721
30
0.0
40
2.750000000000
0
LINE
5
4a6
100
AcDbEntity
8
0-0
6
CONTINUOUS
62
7
100
AcDbLine
10
263.049745291511
20
25.453297102721
30
0.0
11
263.049745291511
21
53.453297102721
31
0.0
0
LINE
5
4a7
100
AcDbEntity
8
0-0
6
CONTINUOUS
62
7
100
AcDbLine
10
258.049745291511
20
37.453297102721
30
0.0
11
259.049745291511
21
37.453297102721
31
0.0
0
LINE
5
4a8
100
AcDbEntity
8
0-0
6
CONTINUOUS
62
7
100
AcDbLine
10
258.049745291511
20
41.453297102721
30
0.0
11
259.049745291511
21
41.453297102721
31
0.0
0
LINE
5
4a9
100
AcDbEntity
8
0-0
6
CONTINUOUS
62
7
100
AcDbLine
10
210.749745291511
20
28.453297102721
30
0.0
11
210.749745291511
21
50.453297102721
31
0.0
0
ARC
5
4aa
100
AcDbEntity
8
0-0
6
CONTINUOUS
62
7
100
AcDbCircle
10
209.249745291511
20
50.453297102721
30
0.0
40
1.500000000000
100
AcDbArc
50
0.000000000000
51
89.999999999999
0
ARC
5
4ab
100
AcDbEntity
8
0-0
6
CONTINUOUS
62
7
100
AcDbCircle
10
209.249745291511
20
28.453297102721
30
0.0
40
1.500000000000
100
AcDbArc
50
270.000000000001
51
360.000000000000
0
LINE
5
4ac
100
AcDbEntity
8
0-0
6
CONTINUOUS
62
7
100
AcDbLine
10
238.549745291511
20
53.453297102721
30
0.0
11
238.549745291511
21
51.953297102721
31
0.0
0
LINE
5
4ad
100
AcDbEntity
8
0-0
6
CONTINUOUS
62
7
100
AcDbLine
10
259.549745291511
20
53.453297102721
30
0.0
11
259.549745291511
21
51.953297102721
31
0.0
0
LINE
5
4ae
100
AcDbEntity
8
0-0
6
CONTINUOUS
62
7
100
AcDbLine
10
241.049745291511
20
51.953297102721
30
0.0
11
241.049745291511
21
48.953297102721
31
0.0
0
LINE
5
4af
100
AcDbEntity
8
0-0
6
CONTINUOUS
62
7
100
AcDbLine
10
255.549745291511
20
51.953297102721
30
0.0
11
255.549745291511
21
48.953297102721
31
0.0
0
LINE
5
4b0
100
AcDbEntity
8
0-0
6
CONTINUOUS
62
7
100
AcDbLine
10
259.549745291511
20
26.953297102721
30
0.0
11
259.549745291511
21
25.453297102721
31
0.0
0
LINE
5
4b1
100
AcDbEntity
8
0-0
6
CONTINUOUS
62
7
100
AcDbLine
10
238.549745291511
20
26.953297102721
30
0.0
11
238.549745291511
21
25.453297102721
31
0.0
0
LINE
5
4b2
100
AcDbEntity
8
0-0
6
CONTINUOUS
62
7
100
AcDbLine
10
242.049745291511
20
47.953297102721
30
0.0
11
254.549745291511
21
47.953297102721
31
0.0
0
ARC
5
4b3
100
AcDbEntity
8
0-0
6
CONTINUOUS
62
7
100
AcDbCircle
10
242.049745291511
20
48.953297102721
30
0.0
40
1.000000000000
100
AcDbArc
50
180.000000000000
51
270.000000000000
0
ARC
5
4b4
100
AcDbEntity
8
0-0
6
CONTINUOUS
62
7
100
AcDbCircle
10
254.549745291511
20
48.953297102721
30
0.0
40
1.000000000000
100
AcDbArc
50
270.000000000000
51
360.000000000000
0
LINE
5
4b5
100
AcDbEntity
8
0-0
6
CONTINUOUS
62
7
100
AcDbLine
10
255.549745291511
20
51.953297102721
30
0.0
11
263.049745291511
21
51.953297102721
31
0.0
0
LINE
5
4b6
100
AcDbEntity
8
0-0
6
CONTINUOUS
62
7
100
AcDbLine
10
242.049745291511
20
30.953297102721
30
0.0
11
254.549745291511
21
30.953297102721
31
0.0
0
LINE
5
4b7
100
AcDbEntity
8
0-0
6
CONTINUOUS
62
7
100
AcDbLine
10
241.049745291511
20
26.953297102721
30
0.0
11
241.049745291511
21
29.953297102721
31
0.0
0
ARC
5
4b8
100
AcDbEntity
8
0-0
6
CONTINUOUS
62
7
100
AcDbCircle
10
242.049745291511
20
29.953297102721
30
0.0
40
1.000000000000
100
AcDbArc
50
90.000000000000
51
180.000000000000
0
LINE
5
4b9
100
AcDbEntity
8
0-0
6
CONTINUOUS
62
7
100
AcDbLine
10
255.549745291511
20
26.953297102721
30
0.0
11
255.549745291511
21
29.953297102721
31
0.0
0
ARC
5
4ba
100
AcDbEntity
8
0-0
6
CONTINUOUS
62
7
100
AcDbCircle
10
254.549745291511
20
29.953297102721
30
0.0
40
1.000000000000
100
AcDbArc
50
0.000000000000
51
90.000000000000
0
LINE
5
4bb
100
AcDbEntity
8
0-0
6
CONTINUOUS
62
7
100
AcDbLine
10
255.549745291511
20
26.953297102721
30
0.0
11
263.049745291511
21
26.953297102721
31
0.0
0
LINE
5
4bc
100
AcDbEntity
8
0-0
6
CONTINUOUS
62
7
100
AcDbLine
10
212.049745291511
20
26.953297102721
30
0.0
11
241.049745291511
21
26.953297102721
31
0.0
0
LINE
5
4bd
100
AcDbEntity
8
0-0
6
CONTINUOUS
62
7
100
AcDbLine
10
232.149745291511
20
51.803297102721
30
0.0
11
232.149745291511
21
27.103297102721
31
0.0
0
LINE
5
4be
100
AcDbEntity
8
0-0
6
CONTINUOUS
62
7
100
AcDbLine
10
258.049745291511
20
51.803297102721
30
0.0
11
258.049745291511
21
47.953297102721
31
0.0
0
LINE
5
4bf
100
AcDbEntity
8
0-0
6
CONTINUOUS
62
7
100
AcDbLine
10
232.149745291511
20
51.803297102721
30
0.0
11
241.049745291511
21
51.803297102721
31
0.0
0
LINE
5
4c0
100
AcDbEntity
8
0-0
6
CONTINUOUS
62
7
100
AcDbLine
10
255.549745291511
20
51.803297102721
30
0.0
11
258.049745291511
21
51.803297102721
31
0.0
0
LINE
5
4c1
100
AcDbEntity
8
0-0
6
CONTINUOUS
62
7
100
AcDbLine
10
232.149745291511
20
27.103297102721
30
0.0
11
241.049745291511
21
27.103297102721
31
0.0
0
LINE
5
4c2
100
AcDbEntity
8
0-0
6
CONTINUOUS
62
7
100
AcDbLine
10
255.549745291511
20
27.103297102721
30
0.0
11
258.049745291511
21
27.103297102721
31
0.0
0
LINE
5
4c3
100
AcDbEntity
8
0-0
6
CONTINUOUS
62
7
100
AcDbLine
10
240.633078624845
20
79.194427972905
30
0.0
11
235.060347924745
21
79.194427972905
31
0.0
0
LINE
5
4c4
100
AcDbEntity
8
0-0
6
CONTINUOUS
62
7
100
AcDbLine
10
235.060347924745
20
51.803297102721
30
0.0
11
235.060347924745
21
27.103297102721
31
0.0
0
LINE
5
4c5
100
AcDbEntity
8
0-0
6
CONTINUOUS
62
7
100
AcDbLine
10
236.049745291511
20
44.753297102721
30
0.0
11
236.549745291511
21
44.753297102721
31
0.0
0
LINE
5
4c6
100
AcDbEntity
8
0-0
6
CONTINUOUS
62
7
100
AcDbLine
10
236.049745291511
20
34.153297102721
30
0.0
11
236.549745291511
21
34.153297102721
31
0.0
0
LINE
5
4c7
100
AcDbEntity
8
0-0
6
CONTINUOUS
62
7
100
AcDbLine
10
235.549745291511
20
44.253297102721
30
0.0
11
235.549745291511
21
34.653297102721
31
0.0
0
LINE
5
4c8
100
AcDbEntity
8
0-0
6
CONTINUOUS
62
7
100
AcDbLine
10
240.633078624845
20
44.253297102721
30
0.0
11
240.633078624845
21
34.653297102721
31
0.0
0
ARC
5
4c9
100
AcDbEntity
8
0-0
6
CONTINUOUS
62
7
100
AcDbCircle
10
236.049745291511
20
44.253297102721
30
0.0
40
0.500000000000
100
AcDbArc
50
90.000000000000
51
180.000000000000
0
ARC
5
4ca
100
AcDbEntity
8
0-0
6
CONTINUOUS
62
7
100
AcDbCircle
10
236.049745291511
20
34.653297102721
30
0.0
40
0.500000000000
100
AcDbArc
50
180.000000000000
51
270.000000000000
0
ARC
5
4cb
100
AcDbEntity
8
0-0
6
CONTINUOUS
62
7
100
AcDbCircle
10
240.133078624845
20
34.653297102721
30
0.0
40
0.500000000000
100
AcDbArc
50
270.000000000000
51
360.000000000000
0
ARC
5
4cc
100
AcDbEntity
8
0-0
6
CONTINUOUS
62
7
100
AcDbCircle
10
240.133078624845
20
44.253297102721
30
0.0
40
0.500000000000
100
AcDbArc
50
0.000000000000
51
90.000000000000
0
LINE
5
4cd
100
AcDbEntity
8
0-0
6
CONTINUOUS
62
7
100
AcDbLine
10
237.049745291511
20
44.253297102721
30
0.0
11
237.049745291511
21
34.653297102721
31
0.0
0
ARC
5
4ce
100
AcDbEntity
8
0-0
6
CONTINUOUS
62
7
100
AcDbCircle
10
236.549745291511
20
34.653297102721
30
0.0
40
0.500000000000
100
AcDbArc
50
270.000000000000
51
360.000000000000
0
ARC
5
4cf
100
AcDbEntity
8
0-0
6
CONTINUOUS
62
7
100
AcDbCircle
10
236.549745291511
20
44.253297102721
30
0.0
40
0.500000000000
100
AcDbArc
50
0.000000000000
51
90.000000000000
0
ARC
5
4d0
100
AcDbEntity
8
0-0
6
CONTINUOUS
62
7
100
AcDbCircle
10
237.549745291511
20
44.253297102721
30
0.0
40
0.500000000000
100
AcDbArc
50
90.000000000000
51
180.000000000000
0
ARC
5
4d1
100
AcDbEntity
8
0-0
6
CONTINUOUS
62
7
100
AcDbCircle
10
237.549745291511
20
34.653297102721
30
0.0
40
0.500000000000
100
AcDbArc
50
180.000000000000
51
270.000000000000
0
LINE
5
4d2
100
AcDbEntity
8
0-0
6
CONTINUOUS
62
7
100
AcDbLine
10
238.665606134969
20
44.253297102721
30
0.0
11
238.665606134969
21
34.653297102721
31
0.0
0
ARC
5
4d3
100
AcDbEntity
8
0-0
6
CONTINUOUS
62
7
100
AcDbCircle
10
239.165606134969
20
34.653297102721
30
0.0
40
0.500000000000
100
AcDbArc
50
180.000000000000
51
270.000000000000
0
ARC
5
4d4
100
AcDbEntity
8
0-0
6
CONTINUOUS
62
7
100
AcDbCircle
10
238.165606134969
20
34.653297102721
30
0.0
40
0.500000000000
100
AcDbArc
50
270.000000000000
51
360.000000000000
0
ARC
5
4d5
100
AcDbEntity
8
0-0
6
CONTINUOUS
62
7
100
AcDbCircle
10
239.165606134969
20
44.253297102721
30
0.0
40
0.500000000000
100
AcDbArc
50
90.000000000000
51
180.000000000000
0
ARC
5
4d6
100
AcDbEntity
8
0-0
6
CONTINUOUS
62
7
100
AcDbCircle
10
238.165606134969
20
44.253297102721
30
0.0
40
0.500000000000
100
AcDbArc
50
0.000000000000
51
90.000000000000
0
LINE
5
4d7
100
AcDbEntity
8
0-0
6
CONTINUOUS
62
7
100
AcDbLine
10
237.549745291511
20
44.753297102721
30
0.0
11
238.165606134969
21
44.753297102721
31
0.0
0
LINE
5
4d8
100
AcDbEntity
8
0-0
6
CONTINUOUS
62
7
100
AcDbLine
10
239.165606134969
20
44.753297102721
30
0.0
11
240.133078624845
21
44.753297102721
31
0.0
0
LINE
5
4d9
100
AcDbEntity
8
0-0
6
CONTINUOUS
62
7
100
AcDbLine
10
237.549745291511
20
34.153297102721
30
0.0
11
238.165606134969
21
34.153297102721
31
0.0
0
LINE
5
4da
100
AcDbEntity
8
0-0
6
CONTINUOUS
62
7
100
AcDbLine
10
239.165606134969
20
34.153297102721
30
0.0
11
240.133078624845
21
34.153297102721
31
0.0
0
LINE
5
4db
100
AcDbEntity
8
0-0
6
CONTINUOUS
62
7
100
AcDbLine
10
249.049745291511
20
46.753297102721
30
0.0
11
258.049745291511
21
46.753297102721
31
0.0
0
LINE
5
4dc
100
AcDbEntity
8
0-0
6
CONTINUOUS
62
7
100
AcDbLine
10
249.049745291511
20
47.953297102721
30
0.0
11
258.049745291511
21
47.953297102721
31
0.0
0
LINE
5
4dd
100
AcDbEntity
8
0-0
6
CONTINUOUS
62
7
100
AcDbLine
10
249.049745291511
20
47.953297102721
30
0.0
11
249.049745291511
21
46.753297102721
31
0.0
0
LINE
5
4de
100
AcDbEntity
8
0-0
6
CONTINUOUS
62
7
100
AcDbLine
10
258.049745291511
20
46.753297102721
30
0.0
11
258.049745291511
21
32.153297102721
31
0.0
0
LINE
5
4df
100
AcDbEntity
8
0-0
6
CONTINUOUS
62
7
100
AcDbLine
10
248.049745291511
20
46.253297102721
30
0.0
11
256.549745291511
21
46.253297102721
31
0.0
0
LINE
5
4e0
100
AcDbEntity
8
0-0
6
CONTINUOUS
62
7
100
AcDbLine
10
257.049745291511
20
45.753297102721
30
0.0
11
257.049745291511
21
33.153297102721
31
0.0
0
LINE
5
4e1
100
AcDbEntity
8
0-0
6
CONTINUOUS
62
7
100
AcDbLine
10
255.597251510455
20
44.253297102721
30
0.0
11
255.597251510455
21
34.653297102721
31
0.0
0
LINE
5
4e2
100
AcDbEntity
8
0-0
6
CONTINUOUS
62
7
100
AcDbLine
10
253.549745291511
20
44.253297102721
30
0.0
11
253.549745291511
21
34.653297102721
31
0.0
0
LINE
5
4e3
100
AcDbEntity
8
0-0
6
CONTINUOUS
62
7
100
AcDbLine
10
254.049745291511
20
44.753297102721
30
0.0
11
255.097251510455
21
44.753297102721
31
0.0
0
ARC
5
4e4
100
AcDbEntity
8
0-0
6
CONTINUOUS
62
7
100
AcDbCircle
10
256.549745291511
20
45.753297102721
30
0.0
40
0.500000000000
100
AcDbArc
50
0.000000000000
51
90.000000000000
0
ARC
5
4e5
100
AcDbEntity
8
0-0
6
CONTINUOUS
62
7
100
AcDbCircle
10
255.097251510455
20
44.253297102721
30
0.0
40
0.500000000000
100
AcDbArc
50
0.000000000000
51
90.000000000000
0
ARC
5
4e6
100
AcDbEntity
8
0-0
6
CONTINUOUS
62
7
100
AcDbCircle
10
254.049745291511
20
44.253297102721
30
0.0
40
0.500000000000
100
AcDbArc
50
90.000000000000
51
180.000000000000
0
LINE
5
4e7
100
AcDbEntity
8
0-0
6
CONTINUOUS
62
7
100
AcDbLine
10
248.049745291511
20
32.653297102721
30
0.0
11
256.549745291511
21
32.653297102721
31
0.0
0
LINE
5
4e8
100
AcDbEntity
8
0-0
6
CONTINUOUS
62
7
100
AcDbLine
10
254.049745291511
20
34.153297102721
30
0.0
11
255.097251510455
21
34.153297102721
31
0.0
0
ARC
5
4e9
100
AcDbEntity
8
0-0
6
CONTINUOUS
62
7
100
AcDbCircle
10
254.049745291511
20
34.653297102721
30
0.0
40
0.500000000000
100
AcDbArc
50
180.000000000000
51
270.000000000000
0
ARC
5
4ea
100
AcDbEntity
8
0-0
6
CONTINUOUS
62
7
100
AcDbCircle
10
255.097251510455
20
34.653297102721
30
0.0
40
0.500000000000
100
AcDbArc
50
270.000000000000
51
360.000000000000
0
ARC
5
4eb
100
AcDbEntity
8
0-0
6
CONTINUOUS
62
7
100
AcDbCircle
10
256.549745291511
20
33.153297102721
30
0.0
40
0.500000000000
100
AcDbArc
50
270.000000000000
51
360.000000000000
0
LINE
5
4ec
100
AcDbEntity
8
0-0
6
CONTINUOUS
62
7
100
AcDbLine
10
249.049745291511
20
30.953297102721
30
0.0
11
258.049745291511
21
30.953297102721
31
0.0
0
LINE
5
4ed
100
AcDbEntity
8
0-0
6
CONTINUOUS
62
7
100
AcDbLine
10
258.049745291511
20
27.103297102721
30
0.0
11
258.049745291511
21
30.953297102721
31
0.0
0
LINE
5
4ee
100
AcDbEntity
8
0-0
6
CONTINUOUS
62
7
100
AcDbLine
10
249.049745291511
20
32.153297102721
30
0.0
11
258.049745291511
21
32.153297102721
31
0.0
0
LINE
5
4ef
100
AcDbEntity
8
0-0
6
CONTINUOUS
62
7
100
AcDbLine
10
249.049745291511
20
30.953297102721
30
0.0
11
249.049745291511
21
32.153297102721
31
0.0
0
LINE
5
4f0
100
AcDbEntity
8
0-0
6
CONTINUOUS
62
4
100
AcDbLine
10
210.355178610848
20
50.453297102721
30
0.0
11
210.355178610848
21
28.453297102721
31
0.0
0
ARC
5
4f1
100
AcDbEntity
8
0-0
6
CONTINUOUS
62
4
100
AcDbCircle
10
208.855178610848
20
50.453297102721
30
0.0
40
1.500000000000
100
AcDbArc
50
0.000000000000
51
89.999999999999
0
ARC
5
4f2
100
AcDbEntity
8
0-0
6
CONTINUOUS
62
4
100
AcDbCircle
10
208.855178610848
20
28.453297102721
30
0.0
40
1.500000000000
100
AcDbArc
50
270.000000000001
51
360.000000000000
0
LINE
5
4f3
100
AcDbEntity
8
0-0
6
CONTINUOUS
62
4
100
AcDbLine
10
248.049745291511
20
46.253297102721
30
0.0
11
248.049745291511
21
32.653297102721
31
0.0
0
LINE
5
4f4
100
AcDbEntity
8
0-0
6
CONTINUOUS
62
4
100
AcDbLine
10
253.798343666700
20
44.685497545851
30
0.0
11
248.049745291511
21
46.253297102721
31
0.0
0
LINE
5
4f5
100
AcDbEntity
8
0-0
6
CONTINUOUS
62
4
100
AcDbLine
10
255.453153529593
20
44.604486158321
30
0.0
11
256.905647310649
21
46.104486158321
31
0.0
0
LINE
5
4f6
100
AcDbEntity
8
0-0
6
CONTINUOUS
62
4
100
AcDbLine
10
253.798343666700
20
34.221096659590
30
0.0
11
248.049745291511
21
32.653297102721
31
0.0
0
LINE
5
4f7
100
AcDbEntity
8
0-0
6
CONTINUOUS
62
4
100
AcDbLine
10
255.453153529593
20
34.302108047120
30
0.0
11
256.905647310649
21
32.802108047120
31
0.0
0
LINE
5
4f8
100
AcDbEntity
8
0-0
6
CENTER
62
4
100
AcDbLine
10
223.549745291511
20
26.956027136473
30
0.0
11
223.549745291511
21
51.337968997492
31
0.0
0
LINE
5
4f9
100
AcDbEntity
8
0-0
6
CENTER
62
4
100
AcDbLine
10
223.549745291511
20
82.542083050013
30
0.0
11
223.549745291511
21
89.965996324283
31
0.0
0
LINE
5
4fa
100
AcDbEntity
8
0-0
6
CENTER
62
4
100
AcDbLine
10
206.549745291511
20
38.953297102721
30
0.0
11
263.049745291511
21
38.953297102721
31
0.0
0
ARC
5
4fb
100
AcDbEntity
8
0-0
6
CONTINUOUS
62
7
100
AcDbCircle
10
357.230053726897
20
26.329161305076
30
0.0
40
1.700000000000
100
AcDbArc
50
180.000000000000
51
270.000000000000
0
ARC
5
4fc
100
AcDbEntity
8
0-0
6
CONTINUOUS
62
7
100
AcDbCircle
10
357.230053726897
20
26.329161305076
30
0.0
40
0.500000000000
100
AcDbArc
50
180.000000000000
51
270.000000000000
0
LINE
5
4fd
100
AcDbEntity
8
0-0
6
CONTINUOUS
62
7
100
AcDbLine
10
363.030053726897
20
47.629161305075
30
0.0
11
363.830053726898
21
46.829161305075
31
0.0
0
LINE
5
4fe
100
AcDbEntity
8
0-0
6
CONTINUOUS
62
7
100
AcDbLine
10
358.530053726897
20
45.629161305077
30
0.0
11
358.530053726897
21
42.629161305075
31
0.0
0
LINE
5
4ff
100
AcDbEntity
8
0-0
6
CONTINUOUS
62
7
100
AcDbLine
10
361.030053726897
20
27.629161305075
30
0.0
11
361.030053726897
21
25.829161305076
31
0.0
0
LINE
5
500
100
AcDbEntity
8
0-0
6
CONTINUOUS
62
7
100
AcDbLine
10
361.030053726897
20
27.629161305075
30
0.0
11
362.115840164524
21
27.629161305075
31
0.0
0
LINE
5
501
100
AcDbEntity
8
0-0
6
CONTINUOUS
62
7
100
AcDbLine
10
363.030053726897
20
29.629161305075
30
0.0
11
363.030053726897
21
28.543374867448
31
0.0
0
ARC
5
502
100
AcDbEntity
8
0-0
6
CONTINUOUS
62
7
100
AcDbCircle
10
363.530053726897
20
27.129161305075
30
0.0
40
1.500000000000
100
AcDbArc
50
160.528779365509
51
469.471220634490
0
ARC
5
503
100
AcDbEntity
8
0-0
6
CONTINUOUS
62
7
100
AcDbCircle
10
363.530053726897
20
27.129161305075
30
0.0
40
2.500000000000
100
AcDbArc
50
270.000000000000
51
360.000000000000
0
LINE
5
504
100
AcDbEntity
8
0-0
6
CONTINUOUS
62
7
100
AcDbLine
10
357.230053726897
20
25.829161305076
30
0.0
11
361.030053726897
21
25.829161305076
31
0.0
0
LINE
5
505
100
AcDbEntity
8
0-0
6
CONTINUOUS
62
7
100
AcDbLine
10
357.230053726897
20
24.629161305075
30
0.0
11
363.530053726897
21
24.629161305075
31
0.0
0
LINE
5
506
100
AcDbEntity
8
0-0
6
CONTINUOUS
62
7
100
AcDbLine
10
355.530053726897
20
41.129161305076
30
0.0
11
355.530053726897
21
26.129161305076
31
0.0
0
LINE
5
507
100
AcDbEntity
8
0-0
6
CONTINUOUS
62
7
100
AcDbLine
10
356.730053726897
20
40.929161305076
30
0.0
11
356.730053726897
21
26.329161305076
31
0.0
0
ARC
5
508
100
AcDbEntity
8
0-0
6
CONTINUOUS
62
7
100
AcDbCircle
10
357.230053726897
20
40.929161305076
30
0.0
40
0.500000000000
100
AcDbArc
50
90.000000000000
51
180.000000000000
0
LINE
5
509
100
AcDbEntity
8
0-0
6
CONTINUOUS
62
7
100
AcDbLine
10
359.230053726897
20
41.429161305076
30
0.0
11
357.230053726897
21
41.429161305076
31
0.0
0
ARC
5
50a
100
AcDbEntity
8
0-0
6
CONTINUOUS
62
7
100
AcDbCircle
10
359.230053726897
20
41.929161305075
30
0.0
40
0.500000000000
100
AcDbArc
50
270.000000000000
51
360.000000000000
0
LINE
5
50b
100
AcDbEntity
8
0-0
6
CONTINUOUS
62
7
100
AcDbLine
10
356.030053726897
20
45.629161305077
30
0.0
11
358.530053726897
21
45.629161305077
31
0.0
0
ARC
5
50c
100
AcDbEntity
8
0-0
6
CONTINUOUS
62
7
100
AcDbCircle
10
356.030053726897
20
46.129161305076
30
0.0
40
0.500000000000
100
AcDbArc
50
180.000000000000
51
270.000000000000
0
LINE
5
50d
100
AcDbEntity
8
0-0
6
CONTINUOUS
62
7
100
AcDbLine
10
355.530053726897
20
47.129161305075
30
0.0
11
355.530053726897
21
46.129161305076
31
0.0
0
LINE
5
50e
100
AcDbEntity
8
0-0
6
CONTINUOUS
62
7
100
AcDbLine
10
356.030053726897
20
47.629161305075
30
0.0
11
363.030053726897
21
47.629161305075
31
0.0
0
ARC
5
50f
100
AcDbEntity
8
0-0
6
CONTINUOUS
62
7
100
AcDbCircle
10
356.030053726897
20
47.129161305075
30
0.0
40
0.500000000000
100
AcDbArc
50
90.000000000000
51
180.000000000000
0
LINE
5
510
100
AcDbEntity
8
0-0
6
CONTINUOUS
62
7
100
AcDbLine
10
357.230053726897
20
42.629161305075
30
0.0
11
358.530053726897
21
42.629161305075
31
0.0
0
ARC
5
511
100
AcDbEntity
8
0-0
6
CONTINUOUS
62
7
100
AcDbCircle
10
357.230053726897
20
40.929161305076
30
0.0
40
1.700000000000
100
AcDbArc
50
90.000000000000
51
180.000000000000
0
LINE
5
512
100
AcDbEntity
8
0-0
6
CONTINUOUS
62
7
100
AcDbLine
10
365.530053726897
20
29.629161305075
30
0.0
11
363.030053726897
21
29.629161305075
31
0.0
0
LINE
5
513
100
AcDbEntity
8
0-0
6
CONTINUOUS
62
7
100
AcDbLine
10
366.030053726897
20
29.129161305076
30
0.0
11
366.030053726897
21
27.129161305075
31
0.0
0
ARC
5
514
100
AcDbEntity
8
0-0
6
CONTINUOUS
62
7
100
AcDbCircle
10
365.530053726897
20
29.129161305076
30
0.0
40
0.500000000000
100
AcDbArc
50
0.000000000000
51
90.000000000000
0
LINE
5
515
100
AcDbEntity
8
0-0
6
CONTINUOUS
62
7
100
AcDbLine
10
359.730053726897
20
45.129161305075
30
0.0
11
359.730053726897
21
41.929161305075
31
0.0
0
ARC
5
516
100
AcDbEntity
8
0-0
6
CONTINUOUS
62
7
100
AcDbCircle
10
360.230053726897
20
45.129161305075
30
0.0
40
0.500000000000
100
AcDbArc
50
90.000000000000
51
180.000000000000
0
ARC
5
517
100
AcDbEntity
8
0-0
6
CONTINUOUS
62
7
100
AcDbCircle
10
383.830053726898
20
26.329161305076
30
0.0
40
1.700000000000
100
AcDbArc
50
270.000000000000
51
360.000000000000
0
ARC
5
518
100
AcDbEntity
8
0-0
6
CONTINUOUS
62
7
100
AcDbCircle
10
383.830053726898
20
26.329161305076
30
0.0
40
0.500000000000
100
AcDbArc
50
270.000000000000
51
360.000000000000
0
LINE
5
519
100
AcDbEntity
8
0-0
6
CONTINUOUS
62
7
100
AcDbLine
10
378.030053726897
20
47.629161305075
30
0.0
11
377.230053726897
21
46.829161305075
31
0.0
0
LINE
5
51a
100
AcDbEntity
8
0-0
6
CONTINUOUS
62
7
100
AcDbLine
10
382.530053726898
20
45.629161305077
30
0.0
11
382.530053726898
21
42.629161305075
31
0.0
0
LINE
5
51b
100
AcDbEntity
8
0-0
6
CONTINUOUS
62
7
100
AcDbLine
10
380.030053726898
20
27.629161305075
30
0.0
11
380.030053726898
21
25.829161305076
31
0.0
0
LINE
5
51c
100
AcDbEntity
8
0-0
6
CONTINUOUS
62
7
100
AcDbLine
10
380.030053726898
20
27.629161305075
30
0.0
11
378.944267289271
21
27.629161305075
31
0.0
0
LINE
5
51d
100
AcDbEntity
8
0-0
6
CONTINUOUS
62
7
100
AcDbLine
10
378.030053726897
20
29.629161305075
30
0.0
11
378.030053726897
21
28.543374867448
31
0.0
0
ARC
5
51e
100
AcDbEntity
8
0-0
6
CONTINUOUS
62
7
100
AcDbCircle
10
377.530053726898
20
27.129161305075
30
0.0
40
1.500000000000
100
AcDbArc
50
70.528779365509
51
379.471220634490
0
ARC
5
51f
100
AcDbEntity
8
0-0
6
CONTINUOUS
62
7
100
AcDbCircle
10
377.530053726898
20
27.129161305075
30
0.0
40
2.500000000000
100
AcDbArc
50
180.000000000000
51
270.000000000000
0
LINE
5
520
100
AcDbEntity
8
0-0
6
CONTINUOUS
62
7
100
AcDbLine
10
383.830053726898
20
25.829161305076
30
0.0
11
380.030053726898
21
25.829161305076
31
0.0
0
LINE
5
521
100
AcDbEntity
8
0-0
6
CONTINUOUS
62
7
100
AcDbLine
10
383.830053726898
20
24.629161305075
30
0.0
11
377.530053726898
21
24.629161305075
31
0.0
0
LINE
5
522
100
AcDbEntity
8
0-0
6
CONTINUOUS
62
7
100
AcDbLine
10
385.530053726897
20
41.129161305076
30
0.0
11
385.530053726897
21
26.129161305076
31
0.0
0
LINE
5
523
100
AcDbEntity
8
0-0
6
CONTINUOUS
62
7
100
AcDbLine
10
384.330053726897
20
40.929161305076
30
0.0
11
384.330053726897
21
26.329161305076
31
0.0
0
ARC
5
524
100
AcDbEntity
8
0-0
6
CONTINUOUS
62
7
100
AcDbCircle
10
383.830053726898
20
40.929161305076
30
0.0
40
0.500000000000
100
AcDbArc
50
0.000000000000
51
90.000000000000
0
LINE
5
525
100
AcDbEntity
8
0-0
6
CONTINUOUS
62
7
100
AcDbLine
10
381.830053726897
20
41.429161305076
30
0.0
11
383.830053726898
21
41.429161305076
31
0.0
0
ARC
5
526
100
AcDbEntity
8
0-0
6
CONTINUOUS
62
7
100
AcDbCircle
10
381.830053726897
20
41.929161305075
30
0.0
40
0.500000000000
100
AcDbArc
50
180.000000000000
51
270.000000000000
0
LINE
5
527
100
AcDbEntity
8
0-0
6
CONTINUOUS
62
7
100
AcDbLine
10
385.030053726898
20
45.629161305077
30
0.0
11
382.530053726898
21
45.629161305077
31
0.0
0
ARC
5
528
100
AcDbEntity
8
0-0
6
CONTINUOUS
62
7
100
AcDbCircle
10
385.030053726898
20
46.129161305076
30
0.0
40
0.500000000000
100
AcDbArc
50
270.000000000000
51
360.000000000000
0
LINE
5
529
100
AcDbEntity
8
0-0
6
CONTINUOUS
62
7
100
AcDbLine
10
385.530053726897
20
47.129161305075
30
0.0
11
385.530053726897
21
46.129161305076
31
0.0
0
LINE
5
52a
100
AcDbEntity
8
0-0
6
CONTINUOUS
62
7
100
AcDbLine
10
385.030053726898
20
47.629161305075
30
0.0
11
378.030053726897
21
47.629161305075
31
0.0
0
ARC
5
52b
100
AcDbEntity
8
0-0
6
CONTINUOUS
62
7
100
AcDbCircle
10
385.030053726898
20
47.129161305075
30
0.0
40
0.500000000000
100
AcDbArc
50
0.000000000000
51
90.000000000000
0
LINE
5
52c
100
AcDbEntity
8
0-0
6
CONTINUOUS
62
7
100
AcDbLine
10
383.830053726898
20
42.629161305075
30
0.0
11
382.530053726898
21
42.629161305075
31
0.0
0
ARC
5
52d
100
AcDbEntity
8
0-0
6
CONTINUOUS
62
7
100
AcDbCircle
10
383.830053726898
20
40.929161305076
30
0.0
40
1.700000000000
100
AcDbArc
50
0.000000000000
51
90.000000000000
0
LINE
5
52e
100
AcDbEntity
8
0-0
6
CONTINUOUS
62
7
100
AcDbLine
10
375.530053726897
20
29.629161305075
30
0.0
11
378.030053726897
21
29.629161305075
31
0.0
0
LINE
5
52f
100
AcDbEntity
8
0-0
6
CONTINUOUS
62
7
100
AcDbLine
10
375.030053726898
20
29.129161305076
30
0.0
11
375.030053726898
21
27.129161305075
31
0.0
0
ARC
5
530
100
AcDbEntity
8
0-0
6
CONTINUOUS
62
7
100
AcDbCircle
10
375.530053726897
20
29.129161305076
30
0.0
40
0.500000000000
100
AcDbArc
50
90.000000000000
51
180.000000000000
0
LINE
5
531
100
AcDbEntity
8
0-0
6
CONTINUOUS
62
7
100
AcDbLine
10
381.330053726898
20
45.129161305075
30
0.0
11
381.330053726898
21
41.929161305075
31
0.0
0
ARC
5
532
100
AcDbEntity
8
0-0
6
CONTINUOUS
62
7
100
AcDbCircle
10
380.830053726897
20
45.129161305075
30
0.0
40
0.500000000000
100
AcDbArc
50
0.000000000000
51
90.000000000000
0
POLYLINE
5
533
100
AcDbEntity
8
0-0
6
CONTINUOUS
62
  7
100
AcDb2dPolyline
66
1
10
0.0
20
0.0
30
0.0
70
0
0
VERTEX
5
534
100
AcDbEntity
8
0-0
6
CONTINUOUS
62
  7
100
AcDbVertex
100
AcDb2dVertex
10
375.030053726898
20
41.629161305076
30
0.0
0
VERTEX
5
535
100
AcDbEntity
8
0-0
6
CONTINUOUS
62
  7
100
AcDbVertex
100
AcDb2dVertex
10
380.030053726898
20
41.629161305076
30
0.0
0
VERTEX
5
536
100
AcDbEntity
8
0-0
6
CONTINUOUS
62
  7
100
AcDbVertex
100
AcDb2dVertex
10
380.030053726898
20
29.629161305075
30
0.0
0
SEQEND
5
537
100
AcDbEntity
8
0-0
0
LINE
5
538
100
AcDbEntity
8
0-0
6
CONTINUOUS
62
7
100
AcDbLine
10
375.030053726898
20
29.629161305075
30
0.0
11
380.030053726898
21
29.629161305075
31
0.0
0
LINE
5
539
100
AcDbEntity
8
0-0
6
CONTINUOUS
62
7
100
AcDbLine
10
375.030053726898
20
41.629161305076
30
0.0
11
375.030053726898
21
29.629161305075
31
0.0
0
POLYLINE
5
53a
100
AcDbEntity
8
0-0
6
CONTINUOUS
62
  7
100
AcDb2dPolyline
66
1
10
0.0
20
0.0
30
0.0
70
0
0
VERTEX
5
53b
100
AcDbEntity
8
0-0
6
CONTINUOUS
62
  7
100
AcDbVertex
100
AcDb2dVertex
10
366.030053726897
20
41.629161305076
30
0.0
0
VERTEX
5
53c
100
AcDbEntity
8
0-0
6
CONTINUOUS
62
  7
100
AcDbVertex
100
AcDb2dVertex
10
361.030053726897
20
41.629161305076
30
0.0
0
VERTEX
5
53d
100
AcDbEntity
8
0-0
6
CONTINUOUS
62
  7
100
AcDbVertex
100
AcDb2dVertex
10
361.030053726897
20
29.629161305075
30
0.0
0
SEQEND
5
53e
100
AcDbEntity
8
0-0
0
LINE
5
53f
100
AcDbEntity
8
0-0
6
CONTINUOUS
62
7
100
AcDbLine
10
366.030053726897
20
29.629161305075
30
0.0
11
361.030053726897
21
29.629161305075
31
0.0
0
LINE
5
540
100
AcDbEntity
8
0-0
6
CONTINUOUS
62
7
100
AcDbLine
10
366.030053726897
20
41.629161305076
30
0.0
11
366.030053726897
21
29.629161305075
31
0.0
0
LINE
5
541
100
AcDbEntity
8
0-0
6
CONTINUOUS
62
7
100
AcDbLine
10
366.530053726897
20
41.129161305076
30
0.0
11
374.530053726897
21
41.129161305076
31
0.0
0
POLYLINE
5
542
100
AcDbEntity
8
0-0
6
CONTINUOUS
62
  7
100
AcDb2dPolyline
66
1
10
0.0
20
0.0
30
0.0
70
0
0
VERTEX
5
543
100
AcDbEntity
8
0-0
6
CONTINUOUS
62
  7
100
AcDbVertex
100
AcDb2dVertex
10
366.530053726897
20
41.129161305076
30
0.0
0
VERTEX
5
544
100
AcDbEntity
8
0-0
6
CONTINUOUS
62
  7
100
AcDbVertex
100
AcDb2dVertex
10
366.530053726897
20
16.129161305076
30
0.0
0
VERTEX
5
545
100
AcDbEntity
8
0-0
6
CONTINUOUS
62
  7
100
AcDbVertex
100
AcDb2dVertex
10
374.530053726897
20
16.129161305076
30
0.0
0
SEQEND
5
546
100
AcDbEntity
8
0-0
0
LINE
5
547
100
AcDbEntity
8
0-0
6
CONTINUOUS
62
7
100
AcDbLine
10
374.530053726897
20
41.129161305076
30
0.0
11
374.530053726897
21
16.129161305076
31
0.0
0
ARC
5
548
100
AcDbEntity
8
0-0
6
CONTINUOUS
62
7
100
AcDbCircle
10
370.530053726897
20
13.629161305076
30
0.0
40
2.000000000000
100
AcDbArc
50
239.999999999999
51
300.000000000001
0
LINE
5
549
100
AcDbEntity
8
0-0
6
CONTINUOUS
62
7
100
AcDbLine
10
369.530053726897
20
16.129161305076
30
0.0
11
369.530053726897
21
11.897110497508
31
0.0
0
LINE
5
54a
100
AcDbEntity
8
0-0
6
CONTINUOUS
62
7
100
AcDbLine
10
371.530053726897
20
16.129161305076
30
0.0
11
371.530053726897
21
11.897110497508
31
0.0
0
ARC
5
54b
100
AcDbEntity
8
0-0
6
CONTINUOUS
62
7
100
AcDbCircle
10
370.530053726897
20
8.629161305076
30
0.0
40
7.000000000000
100
AcDbArc
50
98.213210701738
51
441.786789298262
0
ARC
5
54c
100
AcDbEntity
8
0-0
6
CONTINUOUS
62
7
100
AcDbCircle
10
370.530053726897
20
8.629161305076
30
0.0
40
5.000000000000
100
AcDbArc
50
101.536959032816
51
438.463040967184
0
LINE
5
54d
100
AcDbEntity
8
0-0
6
CONTINUOUS
62
7
100
AcDbLine
10
360.230053726897
20
45.629161305077
30
0.0
11
380.830053726897
21
45.629161305077
31
0.0
0
LINE
5
54e
100
AcDbEntity
8
0-0
6
CONTINUOUS
62
7
100
AcDbLine
10
363.830053726898
20
46.829161305075
30
0.0
11
377.230053726897
21
46.829161305075
31
0.0
0
LINE
5
54f
100
AcDbEntity
8
0-0
6
CONTINUOUS
62
7
100
AcDbLine
10
358.559747085917
20
47.629161305075
30
0.0
11
385.559747085916
21
47.629161305075
31
0.0
0
LINE
5
550
100
AcDbEntity
8
0-0
6
CONTINUOUS
62
7
100
AcDbLine
10
409.559747085917
20
46.629161305076
30
0.0
11
409.559747085917
21
51.629161305076
31
0.0
0
LINE
5
551
100
AcDbEntity
8
0-0
6
CONTINUOUS
62
7
100
AcDbLine
10
409.559747085917
20
46.629161305076
30
0.0
11
406.559747085916
21
42.629161305075
31
0.0
0
LINE
5
552
100
AcDbEntity
8
0-0
6
CONTINUOUS
62
7
100
AcDbLine
10
385.559747085916
20
46.629161305076
30
0.0
11
388.559747085917
21
42.629161305075
31
0.0
0
LINE
5
553
100
AcDbEntity
8
0-0
6
CONTINUOUS
62
7
100
AcDbLine
10
385.559747085916
20
46.629161305076
30
0.0
11
385.559747085916
21
47.629161305075
31
0.0
0
LINE
5
554
100
AcDbEntity
8
0-0
6
CONTINUOUS
62
7
100
AcDbLine
10
388.559747085917
20
40.629161305077
30
0.0
11
388.559747085917
21
42.629161305075
31
0.0
0
POLYLINE
5
555
100
AcDbEntity
8
0-0
6
CONTINUOUS
62
  7
100
AcDb2dPolyline
66
1
10
0.0
20
0.0
30
0.0
70
0
0
VERTEX
5
556
100
AcDbEntity
8
0-0
6
CONTINUOUS
62
  7
100
AcDbVertex
100
AcDb2dVertex
10
388.559747085917
20
40.629161305077
30
0.0
0
VERTEX
5
557
100
AcDbEntity
8
0-0
6
CONTINUOUS
62
  7
100
AcDbVertex
100
AcDb2dVertex
10
402.559747085916
20
40.629161305077
30
0.0
0
VERTEX
5
558
100
AcDbEntity
8
0-0
6
CONTINUOUS
62
  7
100
AcDbVertex
100
AcDb2dVertex
10
402.559747085916
20
42.629161305075
30
0.0
0
VERTEX
5
559
100
AcDbEntity
8
0-0
6
CONTINUOUS
62
  7
100
AcDbVertex
100
AcDb2dVertex
10
406.559747085916
20
42.629161305075
30
0.0
0
SEQEND
5
55a
100
AcDbEntity
8
0-0
0
LINE
5
55b
100
AcDbEntity
8
0-0
6
CONTINUOUS
62
7
100
AcDbLine
10
358.559747085917
20
49.641242529650
30
0.0
11
355.566284880815
21
47.434023163481
31
0.0
0
LINE
5
55c
100
AcDbEntity
8
0-0
6
CONTINUOUS
62
7
100
AcDbLine
10
358.030448856196
20
51.238885021938
30
0.0
11
354.616745352709
21
48.721802136971
31
0.0
0
LINE
5
55d
100
AcDbEntity
8
0-0
6
CONTINUOUS
62
7
100
AcDbLine
10
359.217373266328
20
51.629161305076
30
0.0
11
409.559747085917
21
51.629161305076
31
0.0
0
ARC
5
55e
100
AcDbEntity
8
0-0
6
CONTINUOUS
62
7
100
AcDbCircle
10
359.217373266328
20
49.629161305075
30
0.0
40
2.000000000000
100
AcDbArc
50
90.000000000000
51
126.403083654415
0
LINE
5
55f
100
AcDbEntity
8
0-0
6
CONTINUOUS
62
7
100
AcDbLine
10
358.559747085917
20
47.629161305075
30
0.0
11
358.559747085917
21
51.517951342861
31
0.0
0
ARC
5
560
100
AcDbEntity
8
0-0
6
CONTINUOUS
62
7
100
AcDbCircle
10
356.159747085916
20
46.629161305076
30
0.0
40
1.000000000000
100
AcDbArc
50
126.403083649999
51
254.999999999999
0
ARC
5
561
100
AcDbEntity
8
0-0
6
CONTINUOUS
62
7
100
AcDbCircle
10
356.159747085916
20
46.629161305076
30
0.0
40
2.600000000000
100
AcDbArc
50
126.403083655388
51
255.000000000000
0
POLYLINE
5
562
100
AcDbEntity
8
0-0
6
CONTINUOUS
62
  7
100
AcDb2dPolyline
66
1
10
0.0
20
0.0
30
0.0
70
0
0
VERTEX
5
563
100
AcDbEntity
8
0-0
6
CONTINUOUS
62
  7
100
AcDbVertex
100
AcDb2dVertex
10
355.900928040814
20
45.663235478786
30
0.0
0
VERTEX
5
564
100
AcDbEntity
8
0-0
6
CONTINUOUS
62
  7
100
AcDbVertex
100
AcDb2dVertex
10
357.832779693392
20
45.145597388581
30
0.0
0
VERTEX
5
565
100
AcDbEntity
8
0-0
6
CONTINUOUS
62
  7
100
AcDbVertex
100
AcDb2dVertex
10
357.418669221228
20
43.600116066519
30
0.0
0
SEQEND
5
566
100
AcDbEntity
8
0-0
0
LINE
5
567
100
AcDbEntity
8
0-0
6
CONTINUOUS
62
7
100
AcDbLine
10
355.486817568649
20
44.117754156724
30
0.0
11
357.418669221228
21
43.600116066519
31
0.0
0
LINE
5
568
100
AcDbEntity
8
0-0
6
CONTINUOUS
62
7
100
AcDbLine
10
405.530053726897
20
33.629161305076
30
0.0
11
407.530053726898
21
33.629161305076
31
0.0
0
LINE
5
569
100
AcDbEntity
8
0-0
6
CONTINUOUS
62
7
100
AcDbLine
10
405.530053726897
20
33.629161305076
30
0.0
11
403.118510995017
21
42.629161305075
31
0.0
0
LINE
5
56a
100
AcDbEntity
8
0-0
6
CONTINUOUS
62
7
100
AcDbLine
10
384.254321618501
20
45.629161305077
30
0.0
11
386.309747085916
21
45.629161305077
31
0.0
0
POLYLINE
5
56b
100
AcDbEntity
8
0-0
6
CONTINUOUS
62
  7
100
AcDb2dPolyline
66
1
10
0.0
20
0.0
30
0.0
70
0
0
VERTEX
5
56c
100
AcDbEntity
8
0-0
6
CONTINUOUS
62
  7
100
AcDbVertex
100
AcDb2dVertex
10
389.530053726897
20
33.629161305076
30
0.0
0
VERTEX
5
56d
100
AcDbEntity
8
0-0
6
CONTINUOUS
62
  7
100
AcDbVertex
100
AcDb2dVertex
10
387.530053726898
20
33.629161305076
30
0.0
0
VERTEX
5
56e
100
AcDbEntity
8
0-0
6
CONTINUOUS
62
  7
100
AcDbVertex
100
AcDb2dVertex
10
385.798002919328
20
36.629161305076
30
0.0
0
SEQEND
5
56f
100
AcDbEntity
8
0-0
0
LINE
5
570
100
AcDbEntity
8
0-0
6
CONTINUOUS
62
7
100
AcDbLine
10
387.530053726898
20
36.629161305076
30
0.0
11
385.798002919328
21
36.629161305076
31
0.0
0
LINE
5
571
100
AcDbEntity
8
0-0
6
CONTINUOUS
62
7
100
AcDbLine
10
387.530053726898
20
36.629161305076
30
0.0
11
384.254321618501
21
45.629161305077
31
0.0
0
LINE
5
572
100
AcDbEntity
8
0-0
6
CONTINUOUS
62
7
100
AcDbLine
10
389.530053726897
20
33.629161305076
30
0.0
11
391.405698073915
21
40.629161305077
31
0.0
0
LINE
5
573
100
AcDbEntity
8
0-0
6
CONTINUOUS
62
7
100
AcDbLine
10
409.030053726897
20
45.922903493050
30
0.0
11
409.030053726897
21
40.629161305077
31
0.0
0
LINE
5
574
100
AcDbEntity
8
0-0
6
CONTINUOUS
62
7
100
AcDbLine
10
407.030053726897
20
40.629161305077
30
0.0
11
409.030053726897
21
40.629161305077
31
0.0
0
LINE
5
575
100
AcDbEntity
8
0-0
6
CONTINUOUS
62
7
100
AcDbLine
10
407.030053726897
20
43.256236826383
30
0.0
11
407.030053726897
21
40.629161305077
31
0.0
0
LINE
5
576
100
AcDbEntity
8
0-0
6
CONTINUOUS
62
7
100
AcDbLine
10
407.530053726898
20
40.629161305077
30
0.0
11
407.530053726898
21
33.629161305076
31
0.0
0
LINE
5
577
100
AcDbEntity
8
F-F_J_ADD
6
HIDDEN
62
7
100
AcDbLine
10
375.230053536163
20
49.740716875441
30
0.0
11
375.230053536163
21
50.029161305075
31
0.0
0
LINE
5
578
100
AcDbEntity
8
F-F_J_ADD
6
HIDDEN
62
7
100
AcDbLine
10
365.830053917632
20
49.740716875441
30
0.0
11
365.830053917632
21
50.029161305075
31
0.0
0
LINE
5
579
100
AcDbEntity
8
F-F_J_ADD
6
HIDDEN
62
7
100
AcDbLine
10
368.530053726897
20
50.029161305075
30
0.0
11
368.530053726897
21
59.729161114340
31
0.0
0
LINE
5
57a
100
AcDbEntity
8
F-F_J_ADD
6
HIDDEN
62
7
100
AcDbLine
10
368.830053679214
20
60.029161305075
30
0.0
11
368.530053726897
21
59.729161114340
31
0.0
0
LINE
5
57b
100
AcDbEntity
8
F-F_J_ADD
6
HIDDEN
62
7
100
AcDbLine
10
372.230053774580
20
60.029161305075
30
0.0
11
368.830053679214
21
60.029161305075
31
0.0
0
LINE
5
57c
100
AcDbEntity
8
F-F_J_ADD
6
HIDDEN
62
7
100
AcDbLine
10
372.230053774580
20
60.029161305075
30
0.0
11
372.530053726898
21
59.729161114340
31
0.0
0
LINE
5
57d
100
AcDbEntity
8
F-F_J_ADD
6
HIDDEN
62
7
100
AcDbLine
10
368.830053679214
20
50.029161305075
30
0.0
11
368.830053679214
21
60.029161305075
31
0.0
0
LINE
5
57e
100
AcDbEntity
8
F-F_J_ADD
6
HIDDEN
62
7
100
AcDbLine
10
372.530053726898
20
59.729161114340
30
0.0
11
368.530053726897
21
59.729161114340
31
0.0
0
POLYLINE
5
57f
100
AcDbEntity
8
0-0
6
CONTINUOUS
62
  7
100
AcDb2dPolyline
66
1
10
0.0
20
0.0
30
0.0
70
0
0
VERTEX
5
580
100
AcDbEntity
8
0-0
6
CONTINUOUS
62
  7
100
AcDbVertex
100
AcDb2dVertex
10
363.030047311433
20
57.607911209708
30
0.0
0
VERTEX
5
581
100
AcDbEntity
8
0-0
6
CONTINUOUS
62
  7
100
AcDbVertex
100
AcDb2dVertex
10
364.934037311433
20
57.607911209708
30
0.0
0
VERTEX
5
582
100
AcDbEntity
8
0-0
6
CONTINUOUS
62
  7
100
AcDbVertex
100
AcDb2dVertex
10
364.934037311433
20
55.229161209708
30
0.0
0
SEQEND
5
583
100
AcDbEntity
8
0-0
0
POLYLINE
5
584
100
AcDbEntity
8
0-0
6
CONTINUOUS
62
  7
100
AcDb2dPolyline
66
1
10
0.0
20
0.0
30
0.0
70
0
0
VERTEX
5
585
100
AcDbEntity
8
0-0
6
CONTINUOUS
62
  7
100
AcDbVertex
100
AcDb2dVertex
10
375.451007311433
20
55.229161209708
30
0.0
0
VERTEX
5
586
100
AcDbEntity
8
0-0
6
CONTINUOUS
62
  7
100
AcDbVertex
100
AcDb2dVertex
10
378.030067311433
20
55.229161209708
30
0.0
0
VERTEX
5
587
100
AcDbEntity
8
0-0
6
CONTINUOUS
62
  7
100
AcDbVertex
100
AcDb2dVertex
10
378.030067311433
20
57.814967737708
30
0.0
0
VERTEX
5
588
100
AcDbEntity
8
0-0
6
CONTINUOUS
62
  7
100
AcDbVertex
100
AcDb2dVertex
10
376.615740778683
20
59.229231209708
30
0.0
0
SEQEND
5
589
100
AcDbEntity
8
0-0
0
LINE
5
58a
100
AcDbEntity
8
0-0
6
CONTINUOUS
62
7
100
AcDbLine
10
365.609157311434
20
55.229161209708
30
0.0
11
363.030047311433
21
55.229161209708
31
0.0
0
LINE
5
58b
100
AcDbEntity
8
0-0
6
CONTINUOUS
62
7
100
AcDbLine
10
363.030047311433
20
57.814911209708
30
0.0
11
363.030047311433
21
55.229161209708
31
0.0
0
LINE
5
58c
100
AcDbEntity
8
0-0
6
CONTINUOUS
62
7
100
AcDbLine
10
363.030047311433
20
57.814911209708
30
0.0
11
364.444367311433
21
59.229231209708
31
0.0
0
LINE
5
58d
100
AcDbEntity
8
0-0
6
CONTINUOUS
62
7
100
AcDbLine
10
364.934037311433
20
57.607911209708
30
0.0
11
366.555357311433
21
59.229231209708
31
0.0
0
LINE
5
58e
100
AcDbEntity
8
0-0
6
CONTINUOUS
62
7
100
AcDbLine
10
376.615740778683
20
59.229231209708
30
0.0
11
364.444367311433
21
59.229231209708
31
0.0
0
LINE
5
58f
100
AcDbEntity
8
0-0
6
CONTINUOUS
62
7
100
AcDbLine
10
376.030107311433
20
55.229161209708
30
0.0
11
374.880037080763
21
53.229101209708
31
0.0
0
LINE
5
590
100
AcDbEntity
8
0-0
6
CONTINUOUS
62
7
100
AcDbLine
10
365.030057311434
20
55.229161209708
30
0.0
11
366.180070373031
21
53.229101209708
31
0.0
0
LINE
5
591
100
AcDbEntity
8
0-0
6
CONTINUOUS
62
7
100
AcDbLine
10
374.880037080763
20
53.229101209708
30
0.0
11
366.180070373031
21
53.229101209708
31
0.0
0
LINE
5
592
100
AcDbEntity
8
F-F_J_ADD
6
HIDDEN
62
7
100
AcDbLine
10
370.530053726916
20
51.629161305095
30
0.0
11
371.237160508084
21
52.336268086262
31
0.0
0
LINE
5
593
100
AcDbEntity
8
F-F_J_ADD
6
HIDDEN
62
7
100
AcDbLine
10
369.822946945711
20
52.336268086262
30
0.0
11
370.530053726897
21
51.629161305076
31
0.0
0
LINE
5
594
100
AcDbEntity
8
0-0
6
CENTER
62
4
100
AcDbLine
10
370.530053726897
20
60.029161305075
30
0.0
11
370.530053726897
21
1.629161305076
31
0.0
0
LINE
5
595
100
AcDbEntity
8
0-0
6
CENTER
62
4
100
AcDbLine
10
361.030053726897
20
35.629161305077
30
0.0
11
380.030053726898
21
35.629161305077
31
0.0
0
LINE
5
596
100
AcDbEntity
8
0-0
6
DASHED
62
4
100
AcDbLine
10
263.049745291511
20
86.694427972905
30
0.0
11
212.049745291511
21
86.694427972905
31
0.0
0
LINE
5
597
100
AcDbEntity
8
0-0
6
DASHED
62
4
100
AcDbLine
10
255.549745291511
20
78.694427972905
30
0.0
11
241.049745291511
21
78.694427972905
31
0.0
0
LINE
5
598
100
AcDbEntity
8
0-0
6
DASHED
62
4
100
AcDbLine
10
259.049745291511
20
86.694427972905
30
0.0
11
257.755650065999
21
81.864798841460
31
0.0
0
LINE
5
599
100
AcDbEntity
8
0-0
6
DASHED
62
4
100
AcDbLine
10
257.600856552078
20
87.082656540559
30
0.0
11
256.306761326565
21
82.253027409114
31
0.0
0
LINE
5
59a
100
AcDbEntity
8
0-0
6
DASHED
62
4
100
AcDbLine
10
257.755650065999
20
81.864798841460
30
0.0
11
256.306761326565
21
82.253027409114
31
0.0
0
ARC
5
59b
100
AcDbEntity
8
0-0
6
DASHED
62
4
100
AcDbCircle
10
259.049745291511
20
86.694427972905
30
0.0
40
1.500000000000
100
AcDbArc
50
90.000000000000
51
165.000000000000
0
LINE
5
59c
100
AcDbEntity
8
0-0
6
DASHED
62
4
100
AcDbLine
10
253.829592037056
20
86.694427972905
30
0.0
11
253.829592037056
21
88.194427972905
31
0.0
0
LINE
5
59d
100
AcDbEntity
8
0-0
6
DASHED
62
4
100
AcDbLine
10
258.049745291511
20
78.694427972905
30
0.0
11
258.049745291511
21
85.194427972905
31
0.0
0
ARC
5
59e
100
AcDbEntity
8
0-0
6
DASHED
62
4
100
AcDbCircle
10
256.549745291511
20
85.194427972905
30
0.0
40
1.500000000000
100
AcDbArc
50
0.000000000000
51
90.000000000000
0
LINE
5
59f
100
AcDbEntity
8
0-0
6
DASHED
62
4
100
AcDbLine
10
249.049745291511
20
81.794427972905
30
0.0
11
249.049745291511
21
86.694427972905
31
0.0
0
LINE
5
5a0
100
AcDbEntity
8
0-0
6
DASHED
62
4
100
AcDbLine
10
258.049745291511
20
80.994427972905
30
0.0
11
249.849745291511
21
80.994427972905
31
0.0
0
ARC
5
5a1
100
AcDbEntity
8
0-0
6
DASHED
62
4
100
AcDbCircle
10
249.849745291511
20
81.794427972905
30
0.0
40
0.800000000000
100
AcDbArc
50
180.000000000000
51
270.000000000000
0
LINE
5
5a2
100
AcDbEntity
8
0-0
6
DASHED
62
4
100
AcDbLine
10
258.049745291511
20
79.194427972905
30
0.0
11
240.633078624845
21
79.194427972905
31
0.0
0
LINE
5
5a3
100
AcDbEntity
8
0-0
6
DASHED
62
4
100
AcDbLine
10
256.849745291512
20
77.194427972905
30
0.0
11
257.049745291511
21
79.194427972905
31
0.0
0
ARC
5
5a4
100
AcDbEntity
8
0-0
6
DASHED
62
4
100
AcDbCircle
10
248.049745291511
20
73.694427972905
30
0.0
40
5.500000000000
100
AcDbArc
50
39.521196358643
51
90.000000000000
0
ARC
5
5a5
100
AcDbEntity
8
0-0
6
DASHED
62
4
100
AcDbCircle
10
236.549745291511
20
85.694427972905
30
0.0
40
1.000000000000
100
AcDbArc
50
90.000000000000
51
180.000000000000
0
LINE
5
5a6
100
AcDbEntity
8
0-0
6
DASHED
62
4
100
AcDbLine
10
235.549745291511
20
84.194427972905
30
0.0
11
235.549745291511
21
85.694427972905
31
0.0
0
LINE
5
5a7
100
AcDbEntity
8
0-0
6
DASHED
62
4
100
AcDbLine
10
259.049745291511
20
37.453297102721
30
0.0
11
259.049745291511
21
41.453297102721
31
0.0
0
LINE
5
5a8
100
AcDbEntity
8
0-0
6
DASHED
62
4
100
AcDbLine
10
208.049745291511
20
26.953297102721
30
0.0
11
208.049745291511
21
51.953297102721
31
0.0
0
LINE
5
5a9
100
AcDbEntity
8
0-0
6
DASHED
62
4
100
AcDbLine
10
241.049745291511
20
51.953297102721
30
0.0
11
255.549745291511
21
51.953297102721
31
0.0
0
LINE
5
5aa
100
AcDbEntity
8
0-0
6
DASHED
62
4
100
AcDbLine
10
241.049745291511
20
26.953297102721
30
0.0
11
255.549745291511
21
26.953297102721
31
0.0
0
LINE
5
5ab
100
AcDbEntity
8
0-0
6
DASHED
62
4
100
AcDbLine
10
241.049745291511
20
51.803297102721
30
0.0
11
255.549745291511
21
51.803297102721
31
0.0
0
LINE
5
5ac
100
AcDbEntity
8
0-0
6
DASHED
62
4
100
AcDbLine
10
241.049745291511
20
27.103297102721
30
0.0
11
255.549745291511
21
27.103297102721
31
0.0
0
LINE
5
5ad
100
AcDbEntity
8
0-0
6
DASHED
62
4
100
AcDbLine
10
359.217373266328
20
50.029161305075
30
0.0
11
409.559747085917
21
50.029161305075
31
0.0
0
LINE
5
5ae
100
AcDbEntity
8
0-0
6
CENTER
62
4
100
AcDbLine
10
363.530053726897
20
8.629161305076
30
0.0
11
377.530053726898
21
8.629161305076
31
0.0
0
LINE
5
5af
100
AcDbEntity
8
F-F_J_ADD
6
HIDDEN
62
4
100
AcDbLine
10
350.530053726897
20
91.629161305076
30
0.0
11
390.530053726897
21
51.629161305076
31
0.0
0
LINE
5
5b0
100
AcDbEntity
8
F-F_J_ADD
6
HIDDEN
62
4
100
AcDbLine
10
390.530053726897
20
91.629161305076
30
0.0
11
350.530053726897
21
51.629161305076
31
0.0
0
LINE
5
5b1
100
AcDbEntity
8
0-8
6
CONTINUOUS
62
4
100
AcDbLine
10
352.190361134276
20
88.687141127234
30
0.0
11
352.638002268538
21
87.457257218009
31
0.0
0
LINE
5
5b2
100
AcDbEntity
8
0-8
6
CONTINUOUS
62
4
100
AcDbLine
10
353.472073904738
20
89.968853897696
30
0.0
11
354.701957813964
21
89.521212763434
31
0.0
0
LINE
5
5b3
100
AcDbEntity
8
0-8
6
CONTINUOUS
62
4
100
AcDbLine
10
352.190361134276
20
82.571181721335
30
0.0
11
352.638002268538
21
83.801065392142
31
0.0
0
LINE
5
5b4
100
AcDbEntity
8
0-8
6
CONTINUOUS
62
4
100
AcDbLine
10
353.472073904738
20
81.289468235618
30
0.0
11
354.701957813964
21
81.737109608298
31
0.0
0
LINE
5
5b5
100
AcDbEntity
8
0-8
6
CONTINUOUS
62
4
100
AcDbLine
10
360.869746796355
20
88.687141127234
30
0.0
11
360.422105423675
21
87.457257218009
31
0.0
0
LINE
5
5b6
100
AcDbEntity
8
0-8
6
CONTINUOUS
62
4
100
AcDbLine
10
359.588033310637
20
89.968853897696
30
0.0
11
358.358149639831
21
89.521212763434
31
0.0
0
LINE
5
5b7
100
AcDbEntity
8
0-8
6
CONTINUOUS
62
4
100
AcDbLine
10
360.869746796355
20
82.571181721335
30
0.0
11
360.422105423675
21
83.801065392142
31
0.0
0
LINE
5
5b8
100
AcDbEntity
8
0-8
6
CONTINUOUS
62
4
100
AcDbLine
10
359.588033310637
20
81.289468235618
30
0.0
11
358.358149639831
21
81.737109608298
31
0.0
0
LINE
5
5b9
100
AcDbEntity
8
0-8
6
CONTINUOUS
62
4
100
AcDbLine
10
380.190360657439
20
88.687141127234
30
0.0
11
380.638002030120
21
87.457257218009
31
0.0
0
LINE
5
5ba
100
AcDbEntity
8
0-8
6
CONTINUOUS
62
4
100
AcDbLine
10
381.472074143157
20
89.968853897696
30
0.0
11
382.701959244475
21
89.521212763434
31
0.0
0
LINE
5
5bb
100
AcDbEntity
8
0-8
6
CONTINUOUS
62
4
100
AcDbLine
10
380.190360657439
20
82.571181721335
30
0.0
11
380.638002030120
21
83.801065392142
31
0.0
0
LINE
5
5bc
100
AcDbEntity
8
0-8
6
CONTINUOUS
62
4
100
AcDbLine
10
381.472074143157
20
81.289468235618
30
0.0
11
382.701959244475
21
81.737109608298
31
0.0
0
LINE
5
5bd
100
AcDbEntity
8
0-8
6
CONTINUOUS
62
4
100
AcDbLine
10
388.869744889007
20
88.687141127234
30
0.0
11
388.422105423675
21
87.457257218009
31
0.0
0
LINE
5
5be
100
AcDbEntity
8
0-8
6
CONTINUOUS
62
4
100
AcDbLine
10
387.588033310637
20
89.968853897696
30
0.0
11
386.358148209319
21
89.521212763434
31
0.0
0
LINE
5
5bf
100
AcDbEntity
8
0-8
6
CONTINUOUS
62
4
100
AcDbLine
10
388.869744889007
20
82.571181721335
30
0.0
11
388.422105423675
21
83.801065392142
31
0.0
0
LINE
5
5c0
100
AcDbEntity
8
0-8
6
CONTINUOUS
62
4
100
AcDbLine
10
387.588033310637
20
81.289468235618
30
0.0
11
386.358148209319
21
81.737109608298
31
0.0
0
ARC
5
5c1
100
AcDbEntity
8
0-8
6
CONTINUOUS
62
4
100
AcDbCircle
10
352.030053726897
20
90.129161305076
30
0.0
40
1.500000000000
100
AcDbArc
50
90.000000000000
51
180.000000000000
0
ARC
5
5c2
100
AcDbEntity
8
0-8
6
CONTINUOUS
62
4
100
AcDbCircle
10
389.030053726897
20
90.129161305076
30
0.0
40
1.500000000000
100
AcDbArc
50
0.000000000000
51
90.000000000000
0
ARC
5
5c3
100
AcDbEntity
8
0-8
6
CONTINUOUS
62
4
100
AcDbCircle
10
353.130053631530
20
89.029161400443
30
0.0
40
1.000000000000
100
AcDbArc
50
69.999984741211
51
199.999984741211
0
ARC
5
5c4
100
AcDbEntity
8
0-8
6
CONTINUOUS
62
4
100
AcDbCircle
10
353.130053631530
20
82.229161686545
30
0.0
40
1.000000000000
100
AcDbArc
50
160.000000000000
51
290.000000000000
0
ARC
5
5c5
100
AcDbEntity
8
0-8
6
CONTINUOUS
62
4
100
AcDbCircle
10
359.930053345428
20
89.029161400443
30
0.0
40
1.000000000000
100
AcDbArc
50
340.000000000000
51
470.000000000000
0
ARC
5
5c6
100
AcDbEntity
8
0-8
6
CONTINUOUS
62
4
100
AcDbCircle
10
359.930053345428
20
82.229161686545
30
0.0
40
1.000000000000
100
AcDbArc
50
249.999984741211
51
379.999984741211
0
ARC
5
5c7
100
AcDbEntity
8
0-8
6
CONTINUOUS
62
4
100
AcDbCircle
10
356.530053726897
20
85.629161305076
30
0.0
40
4.300000190735
100
AcDbArc
50
154.840560913086
51
205.159423828125
0
ARC
5
5c8
100
AcDbEntity
8
0-8
6
CONTINUOUS
62
4
100
AcDbCircle
10
356.530053726897
20
85.629161305076
30
0.0
40
4.300000190735
100
AcDbArc
50
64.840560913086
51
115.159423828125
0
ARC
5
5c9
100
AcDbEntity
8
0-8
6
CONTINUOUS
62
4
100
AcDbCircle
10
356.530053726897
20
85.629161305076
30
0.0
40
4.300000190735
100
AcDbArc
50
244.840560913086
51
295.159423828125
0
ARC
5
5ca
100
AcDbEntity
8
0-8
6
CONTINUOUS
62
4
100
AcDbCircle
10
356.530053726897
20
85.629161305076
30
0.0
40
4.300000190735
100
AcDbArc
50
334.840560913086
51
385.159423828125
0
ARC
5
5cb
100
AcDbEntity
8
0-8
6
CONTINUOUS
62
4
100
AcDbCircle
10
381.130054108367
20
89.029161400443
30
0.0
40
1.000000000000
100
AcDbArc
50
69.999984741211
51
199.999984741211
0
ARC
5
5cc
100
AcDbEntity
8
0-8
6
CONTINUOUS
62
4
100
AcDbCircle
10
381.130054108367
20
82.229161686545
30
0.0
40
1.000000000000
100
AcDbArc
50
160.000000000000
51
290.000000000000
0
ARC
5
5cd
100
AcDbEntity
8
0-8
6
CONTINUOUS
62
4
100
AcDbCircle
10
387.930055252776
20
89.029161400443
30
0.0
40
1.000000000000
100
AcDbArc
50
340.000000000000
51
470.000000000000
0
ARC
5
5ce
100
AcDbEntity
8
0-8
6
CONTINUOUS
62
4
100
AcDbCircle
10
387.930055252776
20
82.229161686545
30
0.0
40
1.000000000000
100
AcDbArc
50
249.999984741211
51
379.999984741211
0
ARC
5
5cf
100
AcDbEntity
8
0-8
6
CONTINUOUS
62
4
100
AcDbCircle
10
384.530053726897
20
85.629161305076
30
0.0
40
4.300000190735
100
AcDbArc
50
154.840560913086
51
205.159423828125
0
ARC
5
5d0
100
AcDbEntity
8
0-8
6
CONTINUOUS
62
4
100
AcDbCircle
10
384.530053726897
20
85.629161305076
30
0.0
40
4.300000190735
100
AcDbArc
50
64.840560913086
51
115.159423828125
0
ARC
5
5d1
100
AcDbEntity
8
0-8
6
CONTINUOUS
62
4
100
AcDbCircle
10
384.530053726897
20
85.629161305076
30
0.0
40
4.300000190735
100
AcDbArc
50
244.840560913086
51
295.159423828125
0
ARC
5
5d2
100
AcDbEntity
8
0-8
6
CONTINUOUS
62
4
100
AcDbCircle
10
384.530053726897
20
85.629161305076
30
0.0
40
4.300000190735
100
AcDbArc
50
334.840560913086
51
385.159423828125
0
LINE
5
5d3
100
AcDbEntity
8
0-8
6
CONTINUOUS
62
4
100
AcDbLine
10
365.430053345428
20
89.229160102188
30
0.0
11
364.830053120196
21
88.029161400443
31
0.0
0
LINE
5
5d4
100
AcDbEntity
8
0-8
6
CONTINUOUS
62
4
100
AcDbLine
10
365.430053345428
20
89.229160102188
30
0.0
11
365.430053345428
21
91.629161305076
31
0.0
0
LINE
5
5d5
100
AcDbEntity
8
0-8
6
CONTINUOUS
62
4
100
AcDbLine
10
352.030053726897
20
91.629161305076
30
0.0
11
365.430053345428
21
91.629161305076
31
0.0
0
POLYLINE
5
5d6
100
AcDbEntity
8
0-8
6
CONTINUOUS
62
  4
100
AcDb2dPolyline
66
1
10
0.0
20
0.0
30
0.0
70
0
0
VERTEX
5
5d7
100
AcDbEntity
8
0-8
6
CONTINUOUS
62
  4
100
AcDbVertex
100
AcDb2dVertex
10
364.830053120196
20
88.029161400443
30
0.0
0
VERTEX
5
5d8
100
AcDbEntity
8
0-8
6
CONTINUOUS
62
  4
100
AcDbVertex
100
AcDb2dVertex
10
362.530053726897
20
88.029161400443
30
0.0
0
VERTEX
5
5d9
100
AcDbEntity
8
0-8
6
CONTINUOUS
62
  4
100
AcDbVertex
100
AcDb2dVertex
10
362.530053726897
20
83.129161305076
30
0.0
0
VERTEX
5
5da
100
AcDbEntity
8
0-8
6
CONTINUOUS
62
  4
100
AcDbVertex
100
AcDb2dVertex
10
364.030053726897
20
81.629161305076
30
0.0
0
VERTEX
5
5db
100
AcDbEntity
8
0-8
6
CONTINUOUS
62
  4
100
AcDbVertex
100
AcDb2dVertex
10
377.030053726897
20
81.629161305076
30
0.0
0
VERTEX
5
5dc
100
AcDbEntity
8
0-8
6
CONTINUOUS
62
  4
100
AcDbVertex
100
AcDb2dVertex
10
378.530053726897
20
83.129161305076
30
0.0
0
VERTEX
5
5dd
100
AcDbEntity
8
0-8
6
CONTINUOUS
62
  4
100
AcDbVertex
100
AcDb2dVertex
10
378.530053726897
20
88.029161400443
30
0.0
0
VERTEX
5
5de
100
AcDbEntity
8
0-8
6
CONTINUOUS
62
  4
100
AcDbVertex
100
AcDb2dVertex
10
376.230054333598
20
88.029161400443
30
0.0
0
VERTEX
5
5df
100
AcDbEntity
8
0-8
6
CONTINUOUS
62
  4
100
AcDbVertex
100
AcDb2dVertex
10
375.630054108367
20
89.229160102188
30
0.0
0
SEQEND
5
5e0
100
AcDbEntity
8
0-8
0
LINE
5
5e1
100
AcDbEntity
8
0-8
6
CONTINUOUS
62
4
100
AcDbLine
10
389.030053726897
20
91.629161305076
30
0.0
11
375.630054108367
21
91.629161305076
31
0.0
0
LINE
5
5e2
100
AcDbEntity
8
0-8
6
CONTINUOUS
62
4
100
AcDbLine
10
375.630054108367
20
89.229160102188
30
0.0
11
375.630054108367
21
91.629161305076
31
0.0
0
POLYLINE
5
5e3
100
AcDbEntity
8
0-8
6
CONTINUOUS
62
  4
100
AcDb2dPolyline
66
1
10
0.0
20
0.0
30
0.0
70
0
0
VERTEX
5
5e4
100
AcDbEntity
8
0-8
6
CONTINUOUS
62
  4
100
AcDbVertex
100
AcDb2dVertex
10
390.530053726897
20
90.129161305076
30
0.0
0
VERTEX
5
5e5
100
AcDbEntity
8
0-8
6
CONTINUOUS
62
  4
100
AcDbVertex
100
AcDb2dVertex
10
390.530053726897
20
76.729161686545
30
0.0
0
VERTEX
5
5e6
100
AcDbEntity
8
0-8
6
CONTINUOUS
62
  4
100
AcDbVertex
100
AcDb2dVertex
10
388.130052201018
20
76.729161686545
30
0.0
0
VERTEX
5
5e7
100
AcDbEntity
8
0-8
6
CONTINUOUS
62
  4
100
AcDbVertex
100
AcDb2dVertex
10
386.930055252776
20
77.329160160666
30
0.0
0
VERTEX
5
5e8
100
AcDbEntity
8
0-8
6
CONTINUOUS
62
  4
100
AcDbVertex
100
AcDb2dVertex
10
386.930055252776
20
79.629161305076
30
0.0
0
VERTEX
5
5e9
100
AcDbEntity
8
0-8
6
CONTINUOUS
62
  4
100
AcDbVertex
100
AcDb2dVertex
10
382.030053726897
20
79.629161305076
30
0.0
0
VERTEX
5
5ea
100
AcDbEntity
8
0-8
6
CONTINUOUS
62
  4
100
AcDbVertex
100
AcDb2dVertex
10
380.530053726897
20
78.129161305076
30
0.0
0
VERTEX
5
5eb
100
AcDbEntity
8
0-8
6
CONTINUOUS
62
  4
100
AcDbVertex
100
AcDb2dVertex
10
380.530053726897
20
65.129161305076
30
0.0
0
SEQEND
5
5ec
100
AcDbEntity
8
0-8
0
LINE
5
5ed
100
AcDbEntity
8
0-8
6
CONTINUOUS
62
4
100
AcDbLine
10
386.930055252776
20
65.929162449485
30
0.0
11
388.130052201018
21
66.529160923606
31
0.0
0
POLYLINE
5
5ee
100
AcDbEntity
8
0-8
6
CONTINUOUS
62
  4
100
AcDb2dPolyline
66
1
10
0.0
20
0.0
30
0.0
70
0
0
VERTEX
5
5ef
100
AcDbEntity
8
0-8
6
CONTINUOUS
62
  4
100
AcDbVertex
100
AcDb2dVertex
10
360.530053726897
20
65.129161305076
30
0.0
0
VERTEX
5
5f0
100
AcDbEntity
8
0-8
6
CONTINUOUS
62
  4
100
AcDbVertex
100
AcDb2dVertex
10
360.530053726897
20
78.129161305076
30
0.0
0
VERTEX
5
5f1
100
AcDbEntity
8
0-8
6
CONTINUOUS
62
  4
100
AcDbVertex
100
AcDb2dVertex
10
359.030053726897
20
79.629161305076
30
0.0
0
VERTEX
5
5f2
100
AcDbEntity
8
0-8
6
CONTINUOUS
62
  4
100
AcDbVertex
100
AcDb2dVertex
10
354.130053631530
20
79.629161305076
30
0.0
0
VERTEX
5
5f3
100
AcDbEntity
8
0-8
6
CONTINUOUS
62
  4
100
AcDbVertex
100
AcDb2dVertex
10
354.130053631530
20
77.329161911776
30
0.0
0
VERTEX
5
5f4
100
AcDbEntity
8
0-8
6
CONTINUOUS
62
  4
100
AcDbVertex
100
AcDb2dVertex
10
352.930054929785
20
76.729161686545
30
0.0
0
SEQEND
5
5f5
100
AcDbEntity
8
0-8
0
LINE
5
5f6
100
AcDbEntity
8
0-8
6
CONTINUOUS
62
4
100
AcDbLine
10
350.530053726897
20
90.129161305076
30
0.0
11
350.530053726897
21
76.729161686545
31
0.0
0
LINE
5
5f7
100
AcDbEntity
8
0-8
6
CONTINUOUS
62
4
100
AcDbLine
10
352.930054929785
20
76.729161686545
30
0.0
11
350.530053726897
21
76.729161686545
31
0.0
0
POLYLINE
5
5f8
100
AcDbEntity
8
0-8
6
CONTINUOUS
62
  4
100
AcDb2dPolyline
66
1
10
0.0
20
0.0
30
0.0
70
0
0
VERTEX
5
5f9
100
AcDbEntity
8
0-8
6
CONTINUOUS
62
  4
100
AcDbVertex
100
AcDb2dVertex
10
363.030053726897
20
79.529160923606
30
0.0
0
VERTEX
5
5fa
100
AcDbEntity
8
0-8
6
CONTINUOUS
62
  4
100
AcDbVertex
100
AcDb2dVertex
10
363.030053726897
20
77.592151969767
30
0.0
0
VERTEX
5
5fb
100
AcDbEntity
8
0-8
6
CONTINUOUS
62
  4
100
AcDbVertex
100
AcDb2dVertex
10
366.430053345428
20
75.629161401188
30
0.0
0
VERTEX
5
5fc
100
AcDbEntity
8
0-8
6
CONTINUOUS
62
  4
100
AcDbVertex
100
AcDb2dVertex
10
366.430053345428
20
67.629162244851
30
0.0
0
SEQEND
5
5fd
100
AcDbEntity
8
0-8
0
LINE
5
5fe
100
AcDbEntity
8
0-8
6
CONTINUOUS
62
4
100
AcDbLine
10
374.630054108367
20
67.629162244851
30
0.0
11
374.630054108367
21
75.629161401188
31
0.0
0
LINE
5
5ff
100
AcDbEntity
8
0-8
6
CONTINUOUS
62
4
100
AcDbLine
10
363.030053726897
20
79.529160923606
30
0.0
11
378.030053726897
21
79.529160923606
31
0.0
0
POLYLINE
5
600
100
AcDbEntity
8
0-8
6
CONTINUOUS
62
  4
100
AcDb2dPolyline
66
1
10
0.0
20
0.0
30
0.0
70
0
0
VERTEX
5
601
100
AcDbEntity
8
0-8
6
CONTINUOUS
62
  4
100
AcDbVertex
100
AcDb2dVertex
10
374.630054108367
20
75.629161401188
30
0.0
0
VERTEX
5
602
100
AcDbEntity
8
0-8
6
CONTINUOUS
62
  4
100
AcDbVertex
100
AcDb2dVertex
10
378.030053726897
20
77.592151969767
30
0.0
0
VERTEX
5
603
100
AcDbEntity
8
0-8
6
CONTINUOUS
62
  4
100
AcDbVertex
100
AcDb2dVertex
10
378.030053726897
20
79.529160923606
30
0.0
0
SEQEND
5
604
100
AcDbEntity
8
0-8
0
LINE
5
605
100
AcDbEntity
8
0-8
6
CONTINUOUS
62
4
100
AcDbLine
10
352.190361134276
20
60.687140888816
30
0.0
11
352.638002268538
21
59.457255787498
31
0.0
0
LINE
5
606
100
AcDbEntity
8
0-8
6
CONTINUOUS
62
4
100
AcDbLine
10
352.190361134276
20
54.571181721335
30
0.0
11
352.638002268538
21
55.801066822654
31
0.0
0
LINE
5
607
100
AcDbEntity
8
0-8
6
CONTINUOUS
62
4
100
AcDbLine
10
353.472073904738
20
53.289470142966
30
0.0
11
354.701957813964
21
53.737109608298
31
0.0
0
LINE
5
608
100
AcDbEntity
8
0-8
6
CONTINUOUS
62
4
100
AcDbLine
10
360.869746796355
20
60.687140888816
30
0.0
11
360.422105423675
21
59.457255787498
31
0.0
0
LINE
5
609
100
AcDbEntity
8
0-8
6
CONTINUOUS
62
4
100
AcDbLine
10
360.869746796355
20
54.571181721335
30
0.0
11
360.422105423675
21
55.801066822654
31
0.0
0
LINE
5
60a
100
AcDbEntity
8
0-8
6
CONTINUOUS
62
4
100
AcDbLine
10
359.588033310637
20
53.289470142966
30
0.0
11
358.358149639831
21
53.737109608298
31
0.0
0
ARC
5
60b
100
AcDbEntity
8
0-8
6
CONTINUOUS
62
4
100
AcDbCircle
10
353.130053631530
20
61.029160923606
30
0.0
40
1.000000000000
100
AcDbArc
50
69.999984741211
51
199.999984741211
0
ARC
5
60c
100
AcDbEntity
8
0-8
6
CONTINUOUS
62
4
100
AcDbCircle
10
353.130053631530
20
54.229159779197
30
0.0
40
1.000000000000
100
AcDbArc
50
160.000000000000
51
290.000000000000
0
ARC
5
60d
100
AcDbEntity
8
0-8
6
CONTINUOUS
62
4
100
AcDbCircle
10
359.930053345428
20
54.229159779197
30
0.0
40
1.000000000000
100
AcDbArc
50
249.999984741211
51
379.999984741211
0
ARC
5
60e
100
AcDbEntity
8
0-8
6
CONTINUOUS
62
4
100
AcDbCircle
10
356.530053726897
20
57.629161305076
30
0.0
40
4.300000190735
100
AcDbArc
50
154.840560913086
51
205.159423828125
0
ARC
5
60f
100
AcDbEntity
8
0-8
6
CONTINUOUS
62
4
100
AcDbCircle
10
356.530053726897
20
57.629161305076
30
0.0
40
4.300000190735
100
AcDbArc
50
244.840560913086
51
295.159423828125
0
ARC
5
610
100
AcDbEntity
8
0-8
6
CONTINUOUS
62
4
100
AcDbCircle
10
356.530053726897
20
57.629161305076
30
0.0
40
4.300000190735
100
AcDbArc
50
334.840560913086
51
385.159423828125
0
ARC
5
611
100
AcDbEntity
8
0-8
6
CONTINUOUS
62
4
100
AcDbCircle
10
359.930053345428
20
61.029160923606
30
0.0
40
1.000000000000
100
AcDbArc
50
340.000000000000
51
470.000000000000
0
LINE
5
612
100
AcDbEntity
8
0-8
6
CONTINUOUS
62
4
100
AcDbLine
10
353.472073904738
20
61.968854374534
30
0.0
11
354.701957813964
21
61.521213001853
31
0.0
0
LINE
5
613
100
AcDbEntity
8
0-8
6
CONTINUOUS
62
4
100
AcDbLine
10
359.588033310637
20
61.968854374534
30
0.0
11
358.358149639831
21
61.521213001853
31
0.0
0
ARC
5
614
100
AcDbEntity
8
0-8
6
CONTINUOUS
62
4
100
AcDbCircle
10
356.530053726897
20
57.629161305076
30
0.0
40
4.300000190735
100
AcDbArc
50
64.840560913086
51
115.159423828125
0
ARC
5
615
100
AcDbEntity
8
0-8
6
CONTINUOUS
62
4
100
AcDbCircle
10
352.030053726897
20
53.129161305076
30
0.0
40
1.500000000000
100
AcDbArc
50
180.000000000000
51
270.000000000000
0
LINE
5
616
100
AcDbEntity
8
0-8
6
CONTINUOUS
62
4
100
AcDbLine
10
352.030053726897
20
51.629161305076
30
0.0
11
365.430053345428
21
51.629161305076
31
0.0
0
LINE
5
617
100
AcDbEntity
8
0-8
6
CONTINUOUS
62
4
100
AcDbLine
10
362.530053726897
20
60.129161305076
30
0.0
11
362.530053726897
21
55.229159779197
31
0.0
0
LINE
5
618
100
AcDbEntity
8
0-8
6
CONTINUOUS
62
4
100
AcDbLine
10
364.030053726897
20
61.629161305076
30
0.0
11
362.530053726897
21
60.129161305076
31
0.0
0
POLYLINE
5
619
100
AcDbEntity
8
0-8
6
CONTINUOUS
62
  4
100
AcDb2dPolyline
66
1
10
0.0
20
0.0
30
0.0
70
0
0
VERTEX
5
61a
100
AcDbEntity
8
0-8
6
CONTINUOUS
62
  4
100
AcDbVertex
100
AcDb2dVertex
10
362.530053726897
20
55.229159779197
30
0.0
0
VERTEX
5
61b
100
AcDbEntity
8
0-8
6
CONTINUOUS
62
  4
100
AcDbVertex
100
AcDb2dVertex
10
364.830054871306
20
55.229159779197
30
0.0
0
VERTEX
5
61c
100
AcDbEntity
8
0-8
6
CONTINUOUS
62
  4
100
AcDbVertex
100
AcDb2dVertex
10
365.430053345428
20
54.029162830955
30
0.0
0
VERTEX
5
61d
100
AcDbEntity
8
0-8
6
CONTINUOUS
62
  4
100
AcDbVertex
100
AcDb2dVertex
10
365.430053345428
20
51.629161305076
30
0.0
0
SEQEND
5
61e
100
AcDbEntity
8
0-8
0
LINE
5
61f
100
AcDbEntity
8
0-8
6
CONTINUOUS
62
4
100
AcDbLine
10
375.630054108367
20
54.029162830955
30
0.0
11
376.230052582488
21
55.229159779197
31
0.0
0
LINE
5
620
100
AcDbEntity
8
0-8
6
CONTINUOUS
62
4
100
AcDbLine
10
375.630054108367
20
51.629161305076
30
0.0
11
375.630054108367
21
54.029162830955
31
0.0
0
POLYLINE
5
621
100
AcDbEntity
8
0-8
6
CONTINUOUS
62
  4
100
AcDb2dPolyline
66
1
10
0.0
20
0.0
30
0.0
70
0
0
VERTEX
5
622
100
AcDbEntity
8
0-8
6
CONTINUOUS
62
  4
100
AcDbVertex
100
AcDb2dVertex
10
376.230052582488
20
55.229159779197
30
0.0
0
VERTEX
5
623
100
AcDbEntity
8
0-8
6
CONTINUOUS
62
  4
100
AcDbVertex
100
AcDb2dVertex
10
378.530053726897
20
55.229159779197
30
0.0
0
VERTEX
5
624
100
AcDbEntity
8
0-8
6
CONTINUOUS
62
  4
100
AcDbVertex
100
AcDb2dVertex
10
378.530053726897
20
60.129161305076
30
0.0
0
VERTEX
5
625
100
AcDbEntity
8
0-8
6
CONTINUOUS
62
  4
100
AcDbVertex
100
AcDb2dVertex
10
377.030053726897
20
61.629161305076
30
0.0
0
SEQEND
5
626
100
AcDbEntity
8
0-8
0
LINE
5
627
100
AcDbEntity
8
0-8
6
CONTINUOUS
62
4
100
AcDbLine
10
380.190360657439
20
60.687140888816
30
0.0
11
380.638002030120
21
59.457255787498
31
0.0
0
LINE
5
628
100
AcDbEntity
8
0-8
6
CONTINUOUS
62
4
100
AcDbLine
10
380.190360657439
20
54.571181721335
30
0.0
11
380.638002030120
21
55.801066822654
31
0.0
0
LINE
5
629
100
AcDbEntity
8
0-8
6
CONTINUOUS
62
4
100
AcDbLine
10
381.472074143157
20
53.289470142966
30
0.0
11
382.701959244475
21
53.737109608298
31
0.0
0
LINE
5
62a
100
AcDbEntity
8
0-8
6
CONTINUOUS
62
4
100
AcDbLine
10
388.869744889007
20
60.687140888816
30
0.0
11
388.422105423675
21
59.457255787498
31
0.0
0
LINE
5
62b
100
AcDbEntity
8
0-8
6
CONTINUOUS
62
4
100
AcDbLine
10
388.869744889007
20
54.571181721335
30
0.0
11
388.422105423675
21
55.801066822654
31
0.0
0
LINE
5
62c
100
AcDbEntity
8
0-8
6
CONTINUOUS
62
4
100
AcDbLine
10
387.588033310637
20
53.289470142966
30
0.0
11
386.358148209319
21
53.737109608298
31
0.0
0
ARC
5
62d
100
AcDbEntity
8
0-8
6
CONTINUOUS
62
4
100
AcDbCircle
10
381.130054108367
20
61.029160923606
30
0.0
40
1.000000000000
100
AcDbArc
50
69.999984741211
51
199.999984741211
0
ARC
5
62e
100
AcDbEntity
8
0-8
6
CONTINUOUS
62
4
100
AcDbCircle
10
381.130054108367
20
54.229159779197
30
0.0
40
1.000000000000
100
AcDbArc
50
160.000000000000
51
290.000000000000
0
ARC
5
62f
100
AcDbEntity
8
0-8
6
CONTINUOUS
62
4
100
AcDbCircle
10
387.930055252776
20
61.029160923606
30
0.0
40
1.000000000000
100
AcDbArc
50
340.000000000000
51
470.000000000000
0
ARC
5
630
100
AcDbEntity
8
0-8
6
CONTINUOUS
62
4
100
AcDbCircle
10
387.930055252776
20
54.229159779197
30
0.0
40
1.000000000000
100
AcDbArc
50
249.999984741211
51
379.999984741211
0
ARC
5
631
100
AcDbEntity
8
0-8
6
CONTINUOUS
62
4
100
AcDbCircle
10
384.530053726897
20
57.629161305076
30
0.0
40
4.300000190735
100
AcDbArc
50
154.840560913086
51
205.159423828125
0
ARC
5
632
100
AcDbEntity
8
0-8
6
CONTINUOUS
62
4
100
AcDbCircle
10
384.530053726897
20
57.629161305076
30
0.0
40
4.300000190735
100
AcDbArc
50
244.840560913086
51
295.159423828125
0
ARC
5
633
100
AcDbEntity
8
0-8
6
CONTINUOUS
62
4
100
AcDbCircle
10
384.530053726897
20
57.629161305076
30
0.0
40
4.300000190735
100
AcDbArc
50
334.840560913086
51
385.159423828125
0
LINE
5
634
100
AcDbEntity
8
0-8
6
CONTINUOUS
62
4
100
AcDbLine
10
381.472074143157
20
61.968854374534
30
0.0
11
382.701959244475
21
61.521213001853
31
0.0
0
LINE
5
635
100
AcDbEntity
8
0-8
6
CONTINUOUS
62
4
100
AcDbLine
10
387.588033310637
20
61.968854374534
30
0.0
11
386.358148209319
21
61.521213001853
31
0.0
0
ARC
5
636
100
AcDbEntity
8
0-8
6
CONTINUOUS
62
4
100
AcDbCircle
10
384.530053726897
20
57.629161305076
30
0.0
40
4.300000190735
100
AcDbArc
50
64.840560913086
51
115.159423828125
0
ARC
5
637
100
AcDbEntity
8
0-8
6
CONTINUOUS
62
4
100
AcDbCircle
10
389.030053726897
20
53.129161305076
30
0.0
40
1.500000000000
100
AcDbArc
50
270.000000000000
51
360.000000000000
0
LINE
5
638
100
AcDbEntity
8
0-8
6
CONTINUOUS
62
4
100
AcDbLine
10
390.530053726897
20
53.129161305076
30
0.0
11
390.530053726897
21
66.529160923606
31
0.0
0
LINE
5
639
100
AcDbEntity
8
0-8
6
CONTINUOUS
62
4
100
AcDbLine
10
388.130052201018
20
66.529160923606
30
0.0
11
390.530053726897
21
66.529160923606
31
0.0
0
LINE
5
63a
100
AcDbEntity
8
0-8
6
CONTINUOUS
62
4
100
AcDbLine
10
350.530053726897
20
66.529160923606
30
0.0
11
352.930054929785
21
66.529160923606
31
0.0
0
LINE
5
63b
100
AcDbEntity
8
0-8
6
CONTINUOUS
62
4
100
AcDbLine
10
350.530053726897
20
53.129161305076
30
0.0
11
350.530053726897
21
66.529160923606
31
0.0
0
LINE
5
63c
100
AcDbEntity
8
0-8
6
CONTINUOUS
62
4
100
AcDbLine
10
386.930055252776
20
63.629161305076
30
0.0
11
386.930055252776
21
65.929162449485
31
0.0
0
LINE
5
63d
100
AcDbEntity
8
0-8
6
CONTINUOUS
62
4
100
AcDbLine
10
382.030053726897
20
63.629161305076
30
0.0
11
386.930055252776
21
63.629161305076
31
0.0
0
LINE
5
63e
100
AcDbEntity
8
0-8
6
CONTINUOUS
62
4
100
AcDbLine
10
380.530053726897
20
65.129161305076
30
0.0
11
382.030053726897
21
63.629161305076
31
0.0
0
LINE
5
63f
100
AcDbEntity
8
0-8
6
CONTINUOUS
62
4
100
AcDbLine
10
359.030053726897
20
63.629161305076
30
0.0
11
360.530053726897
21
65.129161305076
31
0.0
0
LINE
5
640
100
AcDbEntity
8
0-8
6
CONTINUOUS
62
4
100
AcDbLine
10
354.130053631530
20
63.629161305076
30
0.0
11
359.030053726897
21
63.629161305076
31
0.0
0
LINE
5
641
100
AcDbEntity
8
0-8
6
CONTINUOUS
62
4
100
AcDbLine
10
354.130053631530
20
65.929160698375
30
0.0
11
354.130053631530
21
63.629161305076
31
0.0
0
LINE
5
642
100
AcDbEntity
8
0-8
6
CONTINUOUS
62
4
100
AcDbLine
10
352.930054929785
20
66.529160923606
30
0.0
11
354.130053631530
21
65.929160698375
31
0.0
0
LINE
5
643
100
AcDbEntity
8
0-8
6
CONTINUOUS
62
4
100
AcDbLine
10
363.030053726897
20
63.729161686545
30
0.0
11
378.030053726897
21
63.729161686545
31
0.0
0
LINE
5
644
100
AcDbEntity
8
0-8
6
CONTINUOUS
62
4
100
AcDbLine
10
363.030053726897
20
65.666170558171
30
0.0
11
363.030053726897
21
63.729161686545
31
0.0
0
LINE
5
645
100
AcDbEntity
8
0-8
6
CONTINUOUS
62
4
100
AcDbLine
10
366.430053345428
20
67.629162244851
30
0.0
11
363.030053726897
21
65.666170558171
31
0.0
0
LINE
5
646
100
AcDbEntity
8
0-8
6
CONTINUOUS
62
4
100
AcDbLine
10
378.030053726897
20
65.666170558171
30
0.0
11
374.630054108367
21
67.629162244851
31
0.0
0
LINE
5
647
100
AcDbEntity
8
0-8
6
CONTINUOUS
62
4
100
AcDbLine
10
378.030053726897
20
63.729161686545
30
0.0
11
378.030053726897
21
65.666170558171
31
0.0
0
LINE
5
648
100
AcDbEntity
8
0-8
6
CONTINUOUS
62
4
100
AcDbLine
10
377.030053726897
20
61.629161305076
30
0.0
11
364.030053726897
21
61.629161305076
31
0.0
0
LINE
5
649
100
AcDbEntity
8
0-8
6
CONTINUOUS
62
4
100
AcDbLine
10
389.030053726897
20
51.629161305076
30
0.0
11
375.630054108367
21
51.629161305076
31
0.0
0
LINE
5
64a
100
AcDbEntity
8
0-0
6
CONTINUOUS
62
7
100
AcDbLine
10
506.216064689744
20
36.602149494042
30
0.0
11
523.216064689744
21
36.602149494042
31
0.0
0
LINE
5
64b
100
AcDbEntity
8
0-0
6
CONTINUOUS
62
7
100
AcDbLine
10
506.216064689744
20
34.102149494042
30
0.0
11
510.416064689744
21
34.102149494042
31
0.0
0
LINE
5
64c
100
AcDbEntity
8
0-0
6
CONTINUOUS
62
7
100
AcDbLine
10
506.216064689744
20
36.602149494042
30
0.0
11
506.216064689744
21
34.102149494042
31
0.0
0
LINE
5
64d
100
AcDbEntity
8
0-0
6
CONTINUOUS
62
7
100
AcDbLine
10
523.216064689744
20
36.602149494042
30
0.0
11
523.216064689744
21
34.102149494042
31
0.0
0
ARC
5
64e
100
AcDbEntity
8
0-0
6
CONTINUOUS
62
7
100
AcDbCircle
10
514.716064689744
20
12.102149494042
30
0.0
40
7.500000000000
100
AcDbArc
50
124.982997869223
51
415.017002130777
0
CIRCLE
5
64f
100
AcDbEntity
8
0-0
6
CONTINUOUS
62
7
100
AcDbCircle
10
514.716064689744
20
12.102149494042
30
0.0
40
4.000000000000
0
LINE
5
650
100
AcDbEntity
8
0-0
6
CONTINUOUS
62
7
100
AcDbLine
10
510.416064689744
20
36.602149494042
30
0.0
11
510.416064689744
21
18.247066092336
31
0.0
0
LINE
5
651
100
AcDbEntity
8
0-0
6
CONTINUOUS
62
7
100
AcDbLine
10
519.016064689744
20
36.602149494042
30
0.0
11
519.016064689744
21
18.247066092336
31
0.0
0
LINE
5
652
100
AcDbEntity
8
0-0
6
CONTINUOUS
62
7
100
AcDbLine
10
519.016064689744
20
34.102149494042
30
0.0
11
523.216064689744
21
34.102149494042
31
0.0
0
LINE
5
653
100
AcDbEntity
8
0-0
6
CONTINUOUS
62
7
100
AcDbLine
10
510.416064689744
20
34.102149494042
30
0.0
11
519.016064689744
21
34.102149494042
31
0.0
0
LINE
5
654
100
AcDbEntity
8
0-0
6
CONTINUOUS
62
7
100
AcDbLine
10
510.416064689744
20
27.602149494042
30
0.0
11
519.016064689744
21
27.602149494042
31
0.0
0
LINE
5
655
100
AcDbEntity
8
0-0
6
CONTINUOUS
62
7
100
AcDbLine
10
517.216064689744
20
27.602149494042
30
0.0
11
517.216064689744
21
36.602149494042
31
0.0
0
LINE
5
656
100
AcDbEntity
8
0-0
6
CONTINUOUS
62
7
100
AcDbLine
10
512.216064689744
20
27.602149494042
30
0.0
11
512.216064689744
21
36.602149494042
31
0.0
0
LINE
5
657
100
AcDbEntity
8
0-0
6
CONTINUOUS
62
7
100
AcDbLine
10
510.416064689744
20
26.602149494042
30
0.0
11
519.016064689744
21
26.602149494042
31
0.0
0
POLYLINE
5
658
100
AcDbEntity
8
0-0
6
CONTINUOUS
62
  7
100
AcDb2dPolyline
66
1
10
0.0
20
0.0
30
0.0
70
0
0
VERTEX
5
659
100
AcDbEntity
8
0-0
6
CONTINUOUS
62
  7
100
AcDbVertex
100
AcDb2dVertex
10
454.046760333703
20
36.602149494042
30
0.0
0
VERTEX
5
65a
100
AcDbEntity
8
0-0
6
CONTINUOUS
62
  7
100
AcDbVertex
100
AcDb2dVertex
10
471.046760333703
20
36.602149494042
30
0.0
0
VERTEX
5
65b
100
AcDbEntity
8
0-0
6
CONTINUOUS
62
  7
100
AcDbVertex
100
AcDb2dVertex
10
471.046760333703
20
4.602149494042
30
0.0
0
SEQEND
5
65c
100
AcDbEntity
8
0-0
0
LINE
5
65d
100
AcDbEntity
8
0-0
6
CONTINUOUS
62
7
100
AcDbLine
10
454.046760333703
20
36.602149494042
30
0.0
11
454.046760333703
21
34.102149494042
31
0.0
0
LINE
5
65e
100
AcDbEntity
8
0-0
6
CONTINUOUS
62
7
100
AcDbLine
10
471.046760333703
20
4.602149494042
30
0.0
11
473.546760333703
21
4.602149494042
31
0.0
0
LINE
5
65f
100
AcDbEntity
8
0-0
6
CONTINUOUS
62
7
100
AcDbLine
10
473.546760333703
20
34.102149494042
30
0.0
11
473.546760333703
21
4.602149494042
31
0.0
0
LINE
5
660
100
AcDbEntity
8
0-0
6
CONTINUOUS
62
7
100
AcDbLine
10
471.046760333703
20
16.102149494042
30
0.0
11
473.546760333703
21
16.102149494042
31
0.0
0
LINE
5
661
100
AcDbEntity
8
0-0
6
CONTINUOUS
62
7
100
AcDbLine
10
471.046760333703
20
8.102149494042
30
0.0
11
473.546760333703
21
8.102149494042
31
0.0
0
LINE
5
662
100
AcDbEntity
8
0-0
6
CONTINUOUS
62
7
100
AcDbLine
10
451.546760333703
20
29.102149494042
30
0.0
11
469.446760333703
21
29.102149494042
31
0.0
0
LINE
5
663
100
AcDbEntity
8
0-0
6
CONTINUOUS
62
7
100
AcDbLine
10
453.046760333703
20
27.602149494042
30
0.0
11
471.046760333703
21
27.602149494042
31
0.0
0
LINE
5
664
100
AcDbEntity
8
0-0
6
CONTINUOUS
62
7
100
AcDbLine
10
451.546760333703
20
52.102149494042
30
0.0
11
451.546760333703
21
29.102149494042
31
0.0
0
POLYLINE
5
665
100
AcDbEntity
8
0-0
6
CONTINUOUS
62
  7
100
AcDb2dPolyline
66
1
10
0.0
20
0.0
30
0.0
70
0
0
VERTEX
5
666
100
AcDbEntity
8
0-0
6
CONTINUOUS
62
  7
100
AcDbVertex
100
AcDb2dVertex
10
451.546760333703
20
52.102149494042
30
0.0
0
VERTEX
5
667
100
AcDbEntity
8
0-0
6
CONTINUOUS
62
  7
100
AcDbVertex
100
AcDb2dVertex
10
453.046760333703
20
52.102149494042
30
0.0
0
VERTEX
5
668
100
AcDbEntity
8
0-0
6
CONTINUOUS
62
  7
100
AcDbVertex
100
AcDb2dVertex
10
453.046760333703
20
29.102149494042
30
0.0
0
SEQEND
5
669
100
AcDbEntity
8
0-0
0
LINE
5
66a
100
AcDbEntity
8
0-0
6
CONTINUOUS
62
7
100
AcDbLine
10
458.546760333703
20
27.602149494041
30
0.0
11
458.546760333703
21
29.102149494042
31
0.0
0
LINE
5
66b
100
AcDbEntity
8
0-0
6
CONTINUOUS
62
7
100
AcDbLine
10
463.546760333703
20
27.602149494041
30
0.0
11
463.546760333703
21
29.102149494042
31
0.0
0
LINE
5
66c
100
AcDbEntity
8
0-0
6
CONTINUOUS
62
7
100
AcDbLine
10
458.546760333703
20
34.102149494042
30
0.0
11
458.546760333703
21
36.602149494042
31
0.0
0
LINE
5
66d
100
AcDbEntity
8
0-0
6
CONTINUOUS
62
7
100
AcDbLine
10
463.546760333703
20
34.102149494042
30
0.0
11
463.546760333703
21
36.602149494042
31
0.0
0
ARC
5
66e
100
AcDbEntity
8
0-0
6
CONTINUOUS
62
7
100
AcDbCircle
10
453.046760333703
20
29.102149494042
30
0.0
40
1.500000000000
100
AcDbArc
50
180.000000000000
51
270.000000000000
0
LINE
5
66f
100
AcDbEntity
8
0-0
6
CONTINUOUS
62
7
100
AcDbLine
10
469.446760333703
20
33.102149494042
30
0.0
11
469.446760333703
21
29.102149494042
31
0.0
0
ARC
5
670
100
AcDbEntity
8
0-0
6
CONTINUOUS
62
7
100
AcDbCircle
10
469.546760333703
20
29.102149494042
30
0.0
40
1.500000000000
100
AcDbArc
50
270.000000000000
51
360.000000000000
0
LINE
5
671
100
AcDbEntity
8
0-0
6
CONTINUOUS
62
7
100
AcDbLine
10
464.446760333703
20
29.102149494042
30
0.0
11
464.446760333703
21
27.602149494042
31
0.0
0
LINE
5
672
100
AcDbEntity
8
0-0
6
CONTINUOUS
62
7
100
AcDbLine
10
457.646760333703
20
29.102149494042
30
0.0
11
457.646760333703
21
27.602149494042
31
0.0
0
LINE
5
673
100
AcDbEntity
8
0-0
6
CONTINUOUS
62
7
100
AcDbLine
10
469.446760333703
20
33.102149494042
30
0.0
11
471.046760333703
21
33.102149494042
31
0.0
0
LINE
5
674
100
AcDbEntity
8
0-0
6
CONTINUOUS
62
7
100
AcDbLine
10
510.416064689744
20
29.102149494041
30
0.0
11
519.016064689744
21
29.102149494041
31
0.0
0
LINE
5
675
100
AcDbEntity
8
0-0
6
CONTINUOUS
62
7
100
AcDbLine
10
510.416064689744
20
31.602149494041
30
0.0
11
519.016064689744
21
31.602149494041
31
0.0
0
LINE
5
676
100
AcDbEntity
8
0-0
6
CONTINUOUS
62
7
100
AcDbLine
10
454.046760333703
20
34.102149494042
30
0.0
11
471.046760333703
21
34.102149494042
31
0.0
0
ARC
5
677
100
AcDbEntity
8
0-0
6
CONTINUOUS
62
7
100
AcDbCircle
10
471.046760333703
20
34.102149494042
30
0.0
40
2.500000000000
100
AcDbArc
50
0.000000000000
51
90.000000000000
0
LINE
5
678
100
AcDbEntity
8
0-0
6
CONTINUOUS
62
7
100
AcDbLine
10
529.716064689744
20
52.102149494042
30
0.0
11
529.716064689744
21
31.302149494042
31
0.0
0
LINE
5
679
100
AcDbEntity
8
0-0
6
CONTINUOUS
62
7
100
AcDbLine
10
526.716064689744
20
29.102149494042
30
0.0
11
526.716064689744
21
27.602149494042
31
0.0
0
LINE
5
67a
100
AcDbEntity
8
0-0
6
CONTINUOUS
62
7
100
AcDbLine
10
527.516064689744
20
29.102149494042
30
0.0
11
526.716064689744
21
29.102149494042
31
0.0
0
ARC
5
67b
100
AcDbEntity
8
0-0
6
CONTINUOUS
62
7
100
AcDbCircle
10
527.516064689744
20
31.302149494042
30
0.0
40
2.200000000000
100
AcDbArc
50
270.000000000000
51
360.000000000000
0
LINE
5
67c
100
AcDbEntity
8
0-0
6
CONTINUOUS
62
7
100
AcDbLine
10
526.716064689744
20
29.102149494042
30
0.0
11
519.016064689744
21
29.102149494042
31
0.0
0
LINE
5
67d
100
AcDbEntity
8
0-0
6
CONTINUOUS
62
7
100
AcDbLine
10
526.716064689744
20
27.602149494042
30
0.0
11
519.016064689744
21
27.602149494042
31
0.0
0
LINE
5
67e
100
AcDbEntity
8
0-0
6
CONTINUOUS
62
7
100
AcDbLine
10
499.716064689744
20
52.102149494042
30
0.0
11
499.716064689744
21
31.302149494042
31
0.0
0
LINE
5
67f
100
AcDbEntity
8
0-0
6
CONTINUOUS
62
7
100
AcDbLine
10
502.716064689744
20
29.102149494042
30
0.0
11
502.716064689744
21
27.602149494042
31
0.0
0
LINE
5
680
100
AcDbEntity
8
0-0
6
CONTINUOUS
62
7
100
AcDbLine
10
501.916064689744
20
29.102149494042
30
0.0
11
502.716064689744
21
29.102149494042
31
0.0
0
ARC
5
681
100
AcDbEntity
8
0-0
6
CONTINUOUS
62
7
100
AcDbCircle
10
501.916064689744
20
31.302149494042
30
0.0
40
2.200000000000
100
AcDbArc
50
180.000000000000
51
270.000000000000
0
LINE
5
682
100
AcDbEntity
8
0-0
6
CONTINUOUS
62
7
100
AcDbLine
10
529.716064689744
20
52.102149494042
30
0.0
11
499.716064689744
21
52.102149494042
31
0.0
0
LINE
5
683
100
AcDbEntity
8
0-0
6
CONTINUOUS
62
7
100
AcDbLine
10
510.416064689744
20
29.102149494042
30
0.0
11
502.716064689744
21
29.102149494042
31
0.0
0
LINE
5
684
100
AcDbEntity
8
0-0
6
CONTINUOUS
62
7
100
AcDbLine
10
510.416064689744
20
27.602149494042
30
0.0
11
502.716064689744
21
27.602149494042
31
0.0
0
LINE
5
685
100
AcDbEntity
8
0-2
6
CONTINUOUS
62
4
100
AcDbLine
10
508.466064689744
20
26.602149494042
30
0.0
11
510.416064689744
21
26.602149494042
31
0.0
0
LINE
5
686
100
AcDbEntity
8
0-2
6
CONTINUOUS
62
4
100
AcDbLine
10
508.466064689744
20
27.602149494042
30
0.0
11
510.416064689744
21
27.602149494042
31
0.0
0
LINE
5
687
100
AcDbEntity
8
0-2
6
CONTINUOUS
62
4
100
AcDbLine
10
509.716064689744
20
21.602149494042
30
0.0
11
510.416064689744
21
21.602149494042
31
0.0
0
LINE
5
688
100
AcDbEntity
8
0-2
6
CONTINUOUS
62
4
100
AcDbLine
10
508.966064689744
20
22.035161494042
30
0.0
11
508.966064689744
21
26.602149494042
31
0.0
0
ARC
5
689
100
AcDbEntity
8
0-2
6
CONTINUOUS
62
4
100
AcDbCircle
10
510.403564689744
20
24.204735494042
30
0.0
40
2.602587000000
100
AcDbArc
50
236.472642000000
51
270.275187725705
0
LINE
5
68a
100
AcDbEntity
8
0-2
6
CONTINUOUS
62
4
100
AcDbLine
10
509.716064689744
20
21.602149494042
30
0.0
11
508.966064689744
21
22.035161494042
31
0.0
0
LINE
5
68b
100
AcDbEntity
8
0-2
6
CONTINUOUS
62
4
100
AcDbLine
10
508.466064689744
20
27.602149494042
30
0.0
11
508.466064689744
21
26.602149494042
31
0.0
0
LINE
5
68c
100
AcDbEntity
8
0-2
6
CONTINUOUS
62
4
100
AcDbLine
10
520.466064689744
20
22.035161494042
30
0.0
11
520.466064689744
21
26.602149494042
31
0.0
0
ARC
5
68d
100
AcDbEntity
8
0-2
6
CONTINUOUS
62
4
100
AcDbCircle
10
519.028564689744
20
24.204735494042
30
0.0
40
2.602587000000
100
AcDbArc
50
269.724812274295
51
303.527358000000
0
LINE
5
68e
100
AcDbEntity
8
0-2
6
CONTINUOUS
62
4
100
AcDbLine
10
519.716064689744
20
21.602149494042
30
0.0
11
520.466064689744
21
22.035161494042
31
0.0
0
LINE
5
68f
100
AcDbEntity
8
0-2
6
CONTINUOUS
62
4
100
AcDbLine
10
520.966064689744
20
27.602149494042
30
0.0
11
520.966064689744
21
26.602149494042
31
0.0
0
LINE
5
690
100
AcDbEntity
8
0-2
6
CONTINUOUS
62
4
100
AcDbLine
10
517.216064689744
20
39.506464494042
30
0.0
11
512.216064689744
21
38.166718494042
31
0.0
0
LINE
5
691
100
AcDbEntity
8
0-2
6
CONTINUOUS
62
4
100
AcDbLine
10
517.216064689744
20
41.991126494042
30
0.0
11
512.216064689744
21
40.651380494042
31
0.0
0
LINE
5
692
100
AcDbEntity
8
0-2
6
CONTINUOUS
62
4
100
AcDbLine
10
517.216064689744
20
40.748795494042
30
0.0
11
512.216064689744
21
39.409049494042
31
0.0
0
LINE
5
693
100
AcDbEntity
8
0-2
6
CONTINUOUS
62
4
100
AcDbLine
10
514.859991225072
20
42.602149494042
30
0.0
11
512.216064689744
21
41.893711494042
31
0.0
0
LINE
5
694
100
AcDbEntity
8
0-2
6
CONTINUOUS
62
4
100
AcDbLine
10
512.216064689744
20
42.602149494042
30
0.0
11
512.216064689744
21
36.602149494042
31
0.0
0
LINE
5
695
100
AcDbEntity
8
0-2
6
CONTINUOUS
62
4
100
AcDbLine
10
512.716064689744
20
42.602149494042
30
0.0
11
512.716064689744
21
36.602149494042
31
0.0
0
LINE
5
696
100
AcDbEntity
8
0-2
6
CONTINUOUS
62
4
100
AcDbLine
10
517.216064689744
20
42.602149494042
30
0.0
11
517.216064689744
21
36.602149494042
31
0.0
0
LINE
5
697
100
AcDbEntity
8
0-2
6
CONTINUOUS
62
4
100
AcDbLine
10
516.716064689744
20
42.602149494042
30
0.0
11
516.716064689744
21
36.602149494042
31
0.0
0
LINE
5
698
100
AcDbEntity
8
0-2
6
CONTINUOUS
62
4
100
AcDbLine
10
517.216064689744
20
38.264133494041
30
0.0
11
512.216064689744
21
36.924387494041
31
0.0
0
LINE
5
699
100
AcDbEntity
8
0-2
6
CONTINUOUS
62
4
100
AcDbLine
10
519.016064689744
20
27.602149494042
30
0.0
11
520.966064689744
21
27.602149494042
31
0.0
0
LINE
5
69a
100
AcDbEntity
8
0-2
6
CONTINUOUS
62
4
100
AcDbLine
10
519.016064689744
20
26.602149494042
30
0.0
11
520.966064689744
21
26.602149494042
31
0.0
0
LINE
5
69b
100
AcDbEntity
8
0-2
6
CONTINUOUS
62
4
100
AcDbLine
10
519.016064689744
20
21.602149494042
30
0.0
11
519.716064689744
21
21.602149494042
31
0.0
0
LINE
5
69c
100
AcDbEntity
8
0-2
6
CONTINUOUS
62
4
100
AcDbLine
10
458.546760333703
20
42.602149494042
30
0.0
11
458.546760333703
21
36.602149494042
31
0.0
0
LINE
5
69d
100
AcDbEntity
8
0-2
6
CONTINUOUS
62
4
100
AcDbLine
10
459.046760333703
20
42.602149494042
30
0.0
11
459.046760333703
21
36.602149494042
31
0.0
0
LINE
5
69e
100
AcDbEntity
8
0-2
6
CONTINUOUS
62
4
100
AcDbLine
10
463.046760333703
20
42.602149494042
30
0.0
11
463.046760333703
21
36.602149494042
31
0.0
0
LINE
5
69f
100
AcDbEntity
8
0-2
6
CONTINUOUS
62
4
100
AcDbLine
10
463.546760333703
20
42.602149494042
30
0.0
11
463.546760333703
21
36.602149494042
31
0.0
0
LINE
5
6a0
100
AcDbEntity
8
0-2
6
CONTINUOUS
62
4
100
AcDbLine
10
463.546760333703
20
41.264133494041
30
0.0
11
458.546760333703
21
39.924387494041
31
0.0
0
LINE
5
6a1
100
AcDbEntity
8
0-2
6
CONTINUOUS
62
4
100
AcDbLine
10
463.546760333703
20
42.506464494041
30
0.0
11
458.546760333703
21
41.166718494041
31
0.0
0
LINE
5
6a2
100
AcDbEntity
8
0-2
6
CONTINUOUS
62
4
100
AcDbLine
10
454.796760333703
20
26.602149494042
30
0.0
11
467.296760333703
21
26.602149494042
31
0.0
0
LINE
5
6a3
100
AcDbEntity
8
0-2
6
CONTINUOUS
62
4
100
AcDbLine
10
454.796760333703
20
27.602149494042
30
0.0
11
467.296760333703
21
27.602149494042
31
0.0
0
LINE
5
6a4
100
AcDbEntity
8
0-2
6
CONTINUOUS
62
4
100
AcDbLine
10
456.046760333703
20
21.602149494042
30
0.0
11
466.046760333703
21
21.602149494042
31
0.0
0
ARC
5
6a5
100
AcDbEntity
8
0-2
6
CONTINUOUS
62
4
100
AcDbCircle
10
461.046760333703
20
31.362977494042
30
0.0
40
9.760828000000
100
AcDbArc
50
252.869763000000
51
287.130237000000
0
LINE
5
6a6
100
AcDbEntity
8
0-2
6
CONTINUOUS
62
4
100
AcDbLine
10
458.171760333703
20
22.035161494042
30
0.0
11
458.171760333703
21
26.602149494042
31
0.0
0
LINE
5
6a7
100
AcDbEntity
8
0-2
6
CONTINUOUS
62
4
100
AcDbLine
10
455.296760333703
20
22.035161494042
30
0.0
11
455.296760333703
21
26.602149494042
31
0.0
0
ARC
5
6a8
100
AcDbEntity
8
0-2
6
CONTINUOUS
62
4
100
AcDbCircle
10
456.734260333703
20
24.204735494042
30
0.0
40
2.602587000000
100
AcDbArc
50
236.472642000000
51
303.527358000000
0
LINE
5
6a9
100
AcDbEntity
8
0-2
6
CONTINUOUS
62
4
100
AcDbLine
10
456.046760333703
20
21.602149494042
30
0.0
11
455.296760333703
21
22.035161494042
31
0.0
0
LINE
5
6aa
100
AcDbEntity
8
0-2
6
CONTINUOUS
62
4
100
AcDbLine
10
454.796760333703
20
27.602149494042
30
0.0
11
454.796760333703
21
26.602149494042
31
0.0
0
LINE
5
6ab
100
AcDbEntity
8
0-2
6
CONTINUOUS
62
4
100
AcDbLine
10
463.921760333703
20
22.035161494042
30
0.0
11
463.921760333703
21
26.602149494042
31
0.0
0
LINE
5
6ac
100
AcDbEntity
8
0-2
6
CONTINUOUS
62
4
100
AcDbLine
10
466.796760333703
20
22.035161494042
30
0.0
11
466.796760333703
21
26.602149494042
31
0.0
0
ARC
5
6ad
100
AcDbEntity
8
0-2
6
CONTINUOUS
62
4
100
AcDbCircle
10
465.359260333703
20
24.204735494042
30
0.0
40
2.602587000000
100
AcDbArc
50
236.472642000000
51
303.527358000000
0
LINE
5
6ae
100
AcDbEntity
8
0-2
6
CONTINUOUS
62
4
100
AcDbLine
10
466.046760333703
20
21.602149494042
30
0.0
11
466.796760333703
21
22.035161494042
31
0.0
0
LINE
5
6af
100
AcDbEntity
8
0-2
6
CONTINUOUS
62
4
100
AcDbLine
10
467.296760333703
20
27.602149494042
30
0.0
11
467.296760333703
21
26.602149494042
31
0.0
0
LINE
5
6b0
100
AcDbEntity
8
0-2
6
CONTINUOUS
62
4
100
AcDbLine
10
458.546760333703
20
34.102149494042
30
0.0
11
458.546760333703
21
29.102149494042
31
0.0
0
LINE
5
6b1
100
AcDbEntity
8
0-2
6
CONTINUOUS
62
4
100
AcDbLine
10
459.046760333703
20
34.102149494042
30
0.0
11
459.046760333703
21
29.102149494042
31
0.0
0
LINE
5
6b2
100
AcDbEntity
8
0-2
6
CONTINUOUS
62
4
100
AcDbLine
10
463.546760333703
20
34.102149494042
30
0.0
11
463.546760333703
21
29.102149494042
31
0.0
0
LINE
5
6b3
100
AcDbEntity
8
0-2
6
CONTINUOUS
62
4
100
AcDbLine
10
463.046760333703
20
34.102149494042
30
0.0
11
463.046760333703
21
29.102149494042
31
0.0
0
LINE
5
6b4
100
AcDbEntity
8
0-2
6
CONTINUOUS
62
4
100
AcDbLine
10
463.546760333703
20
31.475790352062
30
0.0
11
458.546760333703
21
30.136044352062
31
0.0
0
LINE
5
6b5
100
AcDbEntity
8
0-2
6
CONTINUOUS
62
4
100
AcDbLine
10
463.546760333703
20
30.233459352062
30
0.0
11
459.324654583733
21
29.102149494042
31
0.0
0
LINE
5
6b6
100
AcDbEntity
8
0-2
6
CONTINUOUS
62
4
100
AcDbLine
10
463.546760333703
20
32.718121352062
30
0.0
11
458.546760333703
21
31.378375352062
31
0.0
0
LINE
5
6b7
100
AcDbEntity
8
0-2
6
CONTINUOUS
62
4
100
AcDbLine
10
463.546760333703
20
33.960452352062
30
0.0
11
458.546760333703
21
32.620706352062
31
0.0
0
LINE
5
6b8
100
AcDbEntity
8
0-2
6
CONTINUOUS
62
4
100
AcDbLine
10
453.046760333703
20
30.723469837601
30
0.0
11
454.668080677263
21
29.102149494042
31
0.0
0
LINE
5
6b9
100
AcDbEntity
8
0-2
6
CONTINUOUS
62
4
100
AcDbLine
10
459.439138971071
20
34.102149494042
30
0.0
11
458.546760333703
21
33.863037352062
31
0.0
0
LINE
5
6ba
100
AcDbEntity
8
0-2
6
CONTINUOUS
62
4
100
AcDbLine
10
463.546760333703
20
40.021802494041
30
0.0
11
458.546760333703
21
38.682056494041
31
0.0
0
LINE
5
6bb
100
AcDbEntity
8
0-2
6
CONTINUOUS
62
4
100
AcDbLine
10
463.546760333703
20
37.537140494041
30
0.0
11
460.057326515653
21
36.602149494042
31
0.0
0
LINE
5
6bc
100
AcDbEntity
8
0-2
6
CONTINUOUS
62
4
100
AcDbLine
10
463.546760333703
20
38.779471494041
30
0.0
11
458.546760333703
21
37.439725494041
31
0.0
0
LINE
5
6bd
100
AcDbEntity
8
0-2
6
CONTINUOUS
62
4
100
AcDbLine
10
517.216064689744
20
37.021802494041
30
0.0
11
515.649898416436
21
36.602149494042
31
0.0
0
LINE
5
6be
100
AcDbEntity
8
0-2
6
CONTINUOUS
62
4
100
AcDbLine
10
458.546760333703
20
42.602149494042
30
0.0
11
463.546760333703
21
42.602149494042
31
0.0
0
LINE
5
6bf
100
AcDbEntity
8
0-2
6
CONTINUOUS
62
4
100
AcDbLine
10
512.216064689744
20
42.602149494042
30
0.0
11
517.216064689744
21
42.602149494042
31
0.0
0
LINE
5
6c0
100
AcDbEntity
8
0-2
6
CONTINUOUS
62
4
100
AcDbLine
10
510.416064689744
20
21.602149494042
30
0.0
11
519.016064689744
21
21.602149494042
31
0.0
0
LINE
5
6c1
100
AcDbEntity
8
0-1
6
CENTER
62
4
100
AcDbLine
10
504.716064689744
20
12.102149494042
30
0.0
11
524.716064689744
21
12.102149494042
31
0.0
0
LINE
5
6c2
100
AcDbEntity
8
0-1
6
CENTER
62
4
100
AcDbLine
10
514.716064689744
20
1.452947104185
30
0.0
11
514.716064689744
21
52.102149494042
31
0.0
0
LINE
5
6c3
100
AcDbEntity
8
0-1
6
CENTER
62
4
100
AcDbLine
10
468.479189073119
20
12.102149494042
30
0.0
11
476.574776988095
21
12.102149494042
31
0.0
0
LINE
5
6c4
100
AcDbEntity
8
0-1
6
CENTER
62
4
100
AcDbLine
10
461.046760333703
20
45.051061187963
30
0.0
11
461.046760333703
21
17.947753391859
31
0.0
0
LINE
5
6c5
100
AcDbEntity
8
0-0
6
CONTINUOUS
62
7
100
AcDbLine
10
717.973982696112
20
40.042597863073
30
0.0
11
712.073982696112
21
40.042597863073
31
0.0
0
LINE
5
6c6
100
AcDbEntity
8
0-0
6
CONTINUOUS
62
7
100
AcDbLine
10
711.273982696112
20
36.634418154941
30
0.0
11
711.273982696112
21
18.042597863073
31
0.0
0
LINE
5
6c7
100
AcDbEntity
8
0-0
6
CONTINUOUS
62
7
100
AcDbLine
10
711.773982696112
20
36.634418154941
30
0.0
11
711.273982696112
21
36.634418154941
31
0.0
0
LINE
5
6c8
100
AcDbEntity
8
0-0
6
CONTINUOUS
62
7
100
AcDbLine
10
711.773982696112
20
39.742597863073
30
0.0
11
711.773982696112
21
36.634418154941
31
0.0
0
LINE
5
6c9
100
AcDbEntity
8
0-0
6
CONTINUOUS
62
7
100
AcDbLine
10
710.773982696112
20
38.742597863073
30
0.0
11
710.773982696112
21
33.342597863073
31
0.0
0
LINE
5
6ca
100
AcDbEntity
8
0-0
6
CONTINUOUS
62
7
100
AcDbLine
10
711.773982696112
20
39.042597863073
30
0.0
11
711.073982696112
21
39.042597863073
31
0.0
0
ARC
5
6cb
100
AcDbEntity
8
0-0
6
CONTINUOUS
62
7
100
AcDbCircle
10
711.073982696112
20
38.742597863073
30
0.0
40
0.300000000000
100
AcDbArc
50
90.000000000000
51
180.000000000000
0
ARC
5
6cc
100
AcDbEntity
8
0-0
6
CONTINUOUS
62
7
100
AcDbCircle
10
712.073982696112
20
39.742597863073
30
0.0
40
0.300000000000
100
AcDbArc
50
90.000000000000
51
180.000000000000
0
LINE
5
6cd
100
AcDbEntity
8
0-0
6
CONTINUOUS
62
7
100
AcDbLine
10
711.273982696112
20
33.042597863073
30
0.0
11
711.073982696112
21
33.042597863073
31
0.0
0
ARC
5
6ce
100
AcDbEntity
8
0-0
6
CONTINUOUS
62
7
100
AcDbCircle
10
711.073982696112
20
33.342597863073
30
0.0
40
0.300000000000
100
AcDbArc
50
180.000000000000
51
270.000000000000
0
LINE
5
6cf
100
AcDbEntity
8
0-0
6
CONTINUOUS
62
7
100
AcDbLine
10
720.723982696112
20
18.042597863073
30
0.0
11
709.323982696112
21
18.042597863073
31
0.0
0
LINE
5
6d0
100
AcDbEntity
8
0-0
6
CONTINUOUS
62
7
100
AcDbLine
10
711.273982696112
20
22.042597863073
30
0.0
11
709.323982696112
21
22.042597863073
31
0.0
0
LINE
5
6d1
100
AcDbEntity
8
0-0
6
CONTINUOUS
62
7
100
AcDbLine
10
709.023982696112
20
21.742597863073
30
0.0
11
709.023982696112
21
18.342597863073
31
0.0
0
ARC
5
6d2
100
AcDbEntity
8
0-0
6
CONTINUOUS
62
7
100
AcDbCircle
10
709.323982696112
20
21.742597863073
30
0.0
40
0.300000000000
100
AcDbArc
50
90.000000000000
51
180.000000000000
0
ARC
5
6d3
100
AcDbEntity
8
0-0
6
CONTINUOUS
62
7
100
AcDbCircle
10
709.323982696112
20
18.342597863073
30
0.0
40
0.300000000000
100
AcDbArc
50
180.000000000000
51
270.000000000000
0
ARC
5
6d4
100
AcDbEntity
8
0-0
6
CONTINUOUS
62
7
100
AcDbCircle
10
705.123982696112
20
41.942597863073
30
0.0
40
0.100000000000
100
AcDbArc
50
90.000000000000
51
180.000000000000
0
LINE
5
6d5
100
AcDbEntity
8
0-0
6
CONTINUOUS
62
7
100
AcDbLine
10
705.123982696112
20
42.042597863073
30
0.0
11
710.423982696112
21
42.042597863073
31
0.0
0
ARC
5
6d6
100
AcDbEntity
8
0-0
6
CONTINUOUS
62
7
100
AcDbCircle
10
710.423982696112
20
41.942597863073
30
0.0
40
0.100000000000
100
AcDbArc
50
0.000000000008
51
90.000000000008
0
LINE
5
6d7
100
AcDbEntity
8
0-0
6
CONTINUOUS
62
7
100
AcDbLine
10
710.523982696112
20
41.942597863073
30
0.0
11
710.523982696112
21
30.142597863073
31
0.0
0
ARC
5
6d8
100
AcDbEntity
8
0-0
6
CONTINUOUS
62
7
100
AcDbCircle
10
710.423982696112
20
30.142597863073
30
0.0
40
0.100000000000
100
AcDbArc
50
269.999999999992
51
359.999999999992
0
LINE
5
6d9
100
AcDbEntity
8
0-0
6
CONTINUOUS
62
7
100
AcDbLine
10
710.423982696112
20
30.042597863073
30
0.0
11
705.123982696112
21
30.042597863073
31
0.0
0
ARC
5
6da
100
AcDbEntity
8
0-0
6
CONTINUOUS
62
7
100
AcDbCircle
10
705.123982696112
20
30.142597863073
30
0.0
40
0.100000000000
100
AcDbArc
50
180.000000000000
51
270.000000000000
0
LINE
5
6db
100
AcDbEntity
8
0-0
6
CONTINUOUS
62
7
100
AcDbLine
10
705.023982696112
20
30.142597863073
30
0.0
11
705.023982696112
21
41.942597863073
31
0.0
0
LINE
5
6dc
100
AcDbEntity
8
0-0
6
CONTINUOUS
62
7
100
AcDbLine
10
710.773982696112
20
37.542597863073
30
0.0
11
710.523982696112
21
37.542597863073
31
0.0
0
LINE
5
6dd
100
AcDbEntity
8
0-0
6
CONTINUOUS
62
7
100
AcDbLine
10
710.773982696112
20
34.542597863073
30
0.0
11
710.523982696112
21
34.542597863073
31
0.0
0
ARC
5
6de
100
AcDbEntity
8
0-0
6
CONTINUOUS
62
7
100
AcDbCircle
10
708.546204918335
20
36.042597863073
30
0.0
40
3.922222222222
100
AcDbArc
50
153.898622323433
51
206.101377676567
0
LINE
5
6df
100
AcDbEntity
8
0-0
6
CONTINUOUS
62
7
100
AcDbLine
10
718.773982696112
20
36.634418154941
30
0.0
11
718.773982696112
21
18.042597863073
31
0.0
0
LINE
5
6e0
100
AcDbEntity
8
0-0
6
CONTINUOUS
62
7
100
AcDbLine
10
718.773982696112
20
22.042597863073
30
0.0
11
720.723982696112
21
22.042597863073
31
0.0
0
ARC
5
6e1
100
AcDbEntity
8
0-0
6
CONTINUOUS
62
7
100
AcDbCircle
10
720.723982696112
20
18.342597863073
30
0.0
40
0.300000000000
100
AcDbArc
50
270.000000000000
51
360.000000000000
0
ARC
5
6e2
100
AcDbEntity
8
0-0
6
CONTINUOUS
62
7
100
AcDbCircle
10
720.723982696112
20
21.742597863073
30
0.0
40
0.300000000000
100
AcDbArc
50
360.000000000000
51
450.000000000000
0
LINE
5
6e3
100
AcDbEntity
8
0-0
6
CONTINUOUS
62
7
100
AcDbLine
10
721.023982696112
20
21.742597863073
30
0.0
11
721.023982696112
21
18.342597863073
31
0.0
0
ARC
5
6e4
100
AcDbEntity
8
0-0
6
CONTINUOUS
62
7
100
AcDbCircle
10
724.923982696112
20
41.942597863073
30
0.0
40
0.100000000000
100
AcDbArc
50
359.999999999976
51
449.999999999976
0
LINE
5
6e5
100
AcDbEntity
8
0-0
6
CONTINUOUS
62
7
100
AcDbLine
10
724.923982696112
20
42.042597863073
30
0.0
11
719.623982696112
21
42.042597863073
31
0.0
0
ARC
5
6e6
100
AcDbEntity
8
0-0
6
CONTINUOUS
62
7
100
AcDbCircle
10
719.623982696112
20
41.942597863073
30
0.0
40
0.100000000000
100
AcDbArc
50
90.000000000000
51
180.000000000000
0
LINE
5
6e7
100
AcDbEntity
8
0-0
6
CONTINUOUS
62
7
100
AcDbLine
10
719.523982696112
20
41.942597863073
30
0.0
11
719.523982696112
21
30.142597863073
31
0.0
0
ARC
5
6e8
100
AcDbEntity
8
0-0
6
CONTINUOUS
62
7
100
AcDbCircle
10
719.623982696112
20
30.142597863073
30
0.0
40
0.100000000000
100
AcDbArc
50
180.000000000000
51
270.000000000000
0
LINE
5
6e9
100
AcDbEntity
8
0-0
6
CONTINUOUS
62
7
100
AcDbLine
10
719.623982696112
20
30.042597863073
30
0.0
11
724.923982696112
21
30.042597863073
31
0.0
0
ARC
5
6ea
100
AcDbEntity
8
0-0
6
CONTINUOUS
62
7
100
AcDbCircle
10
724.923982696112
20
30.142597863073
30
0.0
40
0.100000000000
100
AcDbArc
50
270.000000000025
51
360.000000000025
0
LINE
5
6eb
100
AcDbEntity
8
0-0
6
CONTINUOUS
62
7
100
AcDbLine
10
725.023982696112
20
30.142597863073
30
0.0
11
725.023982696112
21
41.942597863073
31
0.0
0
LINE
5
6ec
100
AcDbEntity
8
0-0
6
CONTINUOUS
62
7
100
AcDbLine
10
719.273982696112
20
38.742597863073
30
0.0
11
719.273982696112
21
33.342597863073
31
0.0
0
LINE
5
6ed
100
AcDbEntity
8
0-0
6
CONTINUOUS
62
7
100
AcDbLine
10
719.273982696112
20
34.542597863073
30
0.0
11
719.523982696112
21
34.542597863073
31
0.0
0
LINE
5
6ee
100
AcDbEntity
8
0-0
6
CONTINUOUS
62
7
100
AcDbLine
10
718.773982696112
20
33.042597863073
30
0.0
11
718.973982696112
21
33.042597863073
31
0.0
0
ARC
5
6ef
100
AcDbEntity
8
0-0
6
CONTINUOUS
62
7
100
AcDbCircle
10
718.973982696112
20
33.342597863073
30
0.0
40
0.300000000000
100
AcDbArc
50
270.000000000000
51
360.000000000000
0
LINE
5
6f0
100
AcDbEntity
8
0-0
6
CONTINUOUS
62
7
100
AcDbLine
10
719.273982696112
20
37.542597863073
30
0.0
11
719.523982696112
21
37.542597863073
31
0.0
0
LINE
5
6f1
100
AcDbEntity
8
0-0
6
CONTINUOUS
62
7
100
AcDbLine
10
718.273982696112
20
39.042597863073
30
0.0
11
718.973982696112
21
39.042597863073
31
0.0
0
LINE
5
6f2
100
AcDbEntity
8
0-0
6
CONTINUOUS
62
7
100
AcDbLine
10
718.273982696112
20
39.742597863073
30
0.0
11
718.273982696112
21
36.634418154941
31
0.0
0
ARC
5
6f3
100
AcDbEntity
8
0-0
6
CONTINUOUS
62
7
100
AcDbCircle
10
717.973982696112
20
39.742597863073
30
0.0
40
0.300000000000
100
AcDbArc
50
0.000000000000
51
90.000000000000
0
ARC
5
6f4
100
AcDbEntity
8
0-0
6
CONTINUOUS
62
7
100
AcDbCircle
10
718.973982696112
20
38.742597863073
30
0.0
40
0.300000000000
100
AcDbArc
50
360.000000000000
51
450.000000000000
0
LINE
5
6f5
100
AcDbEntity
8
0-0
6
CONTINUOUS
62
7
100
AcDbLine
10
718.273982696112
20
36.634418154941
30
0.0
11
718.773982696112
21
36.634418154941
31
0.0
0
LINE
5
6f6
100
AcDbEntity
8
0-0
6
CONTINUOUS
62
7
100
AcDbLine
10
717.923982696112
20
18.042597863073
30
0.0
11
717.923982696112
21
17.742597863073
31
0.0
0
LINE
5
6f7
100
AcDbEntity
8
0-0
6
CONTINUOUS
62
7
100
AcDbLine
10
712.123982696112
20
18.042597863073
30
0.0
11
712.123982696112
21
17.742597863073
31
0.0
0
ARC
5
6f8
100
AcDbEntity
8
0-0
6
CONTINUOUS
62
7
100
AcDbCircle
10
715.023982696112
20
15.142597863073
30
0.0
40
3.894868418830
100
AcDbArc
50
138.122130462116
51
255.122807996824
0
ARC
5
6f9
100
AcDbEntity
8
0-0
6
CONTINUOUS
62
7
100
AcDbCircle
10
715.023982696112
20
15.142597863073
30
0.0
40
1.400000000000
100
AcDbArc
50
100.286560611473
51
224.415308597191
0
LINE
5
6fa
100
AcDbEntity
8
0-0
6
CONTINUOUS
62
7
100
AcDbLine
10
714.773982696112
20
18.042597863073
30
0.0
11
714.773982696112
21
16.520095594468
31
0.0
0
LINE
5
6fb
100
AcDbEntity
8
0-0
6
CONTINUOUS
62
7
100
AcDbLine
10
715.273982696112
20
18.042597863073
30
0.0
11
715.273982696112
21
16.520095594468
31
0.0
0
LINE
5
6fc
100
AcDbEntity
8
0-0
6
CONTINUOUS
62
7
100
AcDbLine
10
715.523982696112
20
16.042597863073
30
0.0
11
714.523982696112
21
16.042597863073
31
0.0
0
LINE
5
6fd
100
AcDbEntity
8
0-0
6
CONTINUOUS
62
7
100
AcDbLine
10
714.023982696112
20
15.542597863073
30
0.0
11
714.023982696112
21
2.542597863073
31
0.0
0
ARC
5
6fe
100
AcDbEntity
8
0-0
6
CONTINUOUS
62
7
100
AcDbCircle
10
714.523982696112
20
15.542597863073
30
0.0
40
0.500000000000
100
AcDbArc
50
90.000000000000
51
180.000000000000
0
ARC
5
6ff
100
AcDbEntity
8
0-0
6
CONTINUOUS
62
7
100
AcDbCircle
10
715.523982696112
20
15.542597863073
30
0.0
40
0.500000000000
100
AcDbArc
50
360.000000000000
51
450.000000000000
0
LINE
5
700
100
AcDbEntity
8
0-0
6
CONTINUOUS
62
7
100
AcDbLine
10
716.023982696112
20
15.542597863073
30
0.0
11
716.023982696112
21
2.542597863073
31
0.0
0
ARC
5
701
100
AcDbEntity
8
0-0
6
CONTINUOUS
62
7
100
AcDbCircle
10
715.023982696112
20
15.142597863073
30
0.0
40
1.400000000000
100
AcDbArc
50
315.584691402821
51
439.713439388524
0
ARC
5
702
100
AcDbEntity
8
0-0
6
CONTINUOUS
62
7
100
AcDbCircle
10
715.023982696112
20
15.142597863073
30
0.0
40
3.894868418830
100
AcDbArc
50
284.877192003176
51
401.877869537885
0
LINE
5
703
100
AcDbEntity
8
0-0
6
CONTINUOUS
62
7
100
AcDbLine
10
715.523982696112
20
2.042597863073
30
0.0
11
714.523982696112
21
2.042597863073
31
0.0
0
ARC
5
704
100
AcDbEntity
8
0-0
6
CONTINUOUS
62
7
100
AcDbCircle
10
715.523982696112
20
2.542597863073
30
0.0
40
0.500000000000
100
AcDbArc
50
270.000000000000
51
360.000000000000
0
ARC
5
705
100
AcDbEntity
8
0-0
6
CONTINUOUS
62
7
100
AcDbCircle
10
714.523982696112
20
2.542597863073
30
0.0
40
0.500000000000
100
AcDbArc
50
180.000000000000
51
270.000000000000
0
LINE
5
706
100
AcDbEntity
8
0-0
6
CONTINUOUS
62
7
100
AcDbLine
10
710.523982696112
20
22.542597863073
30
0.0
11
710.523982696112
21
22.042597863073
31
0.0
0
LINE
5
707
100
AcDbEntity
8
0-0
6
CONTINUOUS
62
7
100
AcDbLine
10
711.273982696112
20
22.542597863073
30
0.0
11
710.523982696112
21
22.542597863073
31
0.0
0
LINE
5
708
100
AcDbEntity
8
0-0
6
CONTINUOUS
62
7
100
AcDbLine
10
719.523982696112
20
22.542597863073
30
0.0
11
719.523982696112
21
22.042597863073
31
0.0
0
LINE
5
709
100
AcDbEntity
8
0-0
6
CONTINUOUS
62
7
100
AcDbLine
10
718.773982696112
20
22.542597863073
30
0.0
11
719.523982696112
21
22.542597863073
31
0.0
0
CIRCLE
5
70a
100
AcDbEntity
8
0-0
6
CONTINUOUS
62
7
100
AcDbCircle
10
751.465303131450
20
36.042597863073
30
0.0
40
6.000000000000
0
CIRCLE
5
70b
100
AcDbEntity
8
0-0
6
CONTINUOUS
62
7
100
AcDbCircle
10
751.465303131450
20
36.042597863073
30
0.0
40
2.500000000000
0
LINE
5
70c
100
AcDbEntity
8
0-0
6
CONTINUOUS
62
7
100
AcDbLine
10
743.465303131450
20
35.176572459288
30
0.0
11
743.465303131450
21
21.042597863073
31
0.0
0
LINE
5
70d
100
AcDbEntity
8
0-0
6
CONTINUOUS
62
7
100
AcDbLine
10
744.215303131450
20
36.475610564965
30
0.0
11
745.592319785243
21
37.270631500711
31
0.0
0
ARC
5
70e
100
AcDbEntity
8
0-0
6
CONTINUOUS
62
7
100
AcDbCircle
10
744.965303131450
20
35.176572459288
30
0.0
40
1.500000000000
100
AcDbArc
50
120.000000000000
51
180.000000000000
0
LINE
5
70f
100
AcDbEntity
8
0-0
6
CONTINUOUS
62
7
100
AcDbLine
10
756.465303131450
20
18.042597863073
30
0.0
11
746.465303131450
21
18.042597863073
31
0.0
0
ARC
5
710
100
AcDbEntity
8
0-0
6
CONTINUOUS
62
7
100
AcDbCircle
10
746.465303131450
20
21.042597863073
30
0.0
40
3.000000000000
100
AcDbArc
50
180.000000000000
51
270.000000000000
0
LINE
5
711
100
AcDbEntity
8
0-0
6
CONTINUOUS
62
7
100
AcDbLine
10
746.465303131450
20
30.680695215691
30
0.0
11
746.465303131450
21
22.042597863073
31
0.0
0
LINE
5
712
100
AcDbEntity
8
0-0
6
CONTINUOUS
62
7
100
AcDbLine
10
756.465303131450
20
22.042597863073
30
0.0
11
746.465303131450
21
22.042597863073
31
0.0
0
LINE
5
713
100
AcDbEntity
8
0-0
6
CONTINUOUS
62
7
100
AcDbLine
10
756.465303131450
20
27.042597863073
30
0.0
11
746.465303131450
21
27.042597863073
31
0.0
0
LINE
5
714
100
AcDbEntity
8
0-0
6
CONTINUOUS
62
7
100
AcDbLine
10
746.781554632651
20
21.742597863073
30
0.0
11
746.781554632651
21
18.342597863073
31
0.0
0
ARC
5
715
100
AcDbEntity
8
0-0
6
CONTINUOUS
62
7
100
AcDbCircle
10
747.081554632651
20
21.742597863073
30
0.0
40
0.300000000000
100
AcDbArc
50
90.000000000000
51
180.000000000000
0
ARC
5
716
100
AcDbEntity
8
0-0
6
CONTINUOUS
62
7
100
AcDbCircle
10
747.081554632651
20
18.342597863073
30
0.0
40
0.300000000000
100
AcDbArc
50
179.999999999999
51
270.000000000000
0
ARC
5
717
100
AcDbEntity
8
0-0
6
CONTINUOUS
62
7
100
AcDbCircle
10
751.465303131450
20
36.042597863073
30
0.0
40
6.500000000000
100
AcDbArc
50
229.994799115140
51
310.005200884860
0
ARC
5
718
100
AcDbEntity
8
0-0
6
CONTINUOUS
62
7
100
AcDbCircle
10
746.965303131450
20
30.680695215691
30
0.0
40
0.500000000000
100
AcDbArc
50
49.994799115141
51
180.000000000000
0
ARC
5
719
100
AcDbEntity
8
0-0
6
CONTINUOUS
62
7
100
AcDbCircle
10
757.965303131450
20
35.176572459288
30
0.0
40
1.500000000000
100
AcDbArc
50
0.000000000000
51
60.000000000000
0
ARC
5
71a
100
AcDbEntity
8
0-0
6
CONTINUOUS
62
7
100
AcDbCircle
10
755.965303131450
20
30.680695215691
30
0.0
40
0.500000000000
100
AcDbArc
50
0.000000000000
51
130.005200884859
0
LINE
5
71b
100
AcDbEntity
8
0-0
6
CONTINUOUS
62
7
100
AcDbLine
10
756.465303131450
20
30.680695215691
30
0.0
11
756.465303131450
21
22.042597863073
31
0.0
0
ARC
5
71c
100
AcDbEntity
8
0-0
6
CONTINUOUS
62
7
100
AcDbCircle
10
756.465303131450
20
21.042597863073
30
0.0
40
3.000000000000
100
AcDbArc
50
270.000000000000
51
360.000000000000
0
ARC
5
71d
100
AcDbEntity
8
0-0
6
CONTINUOUS
62
7
100
AcDbCircle
10
755.849051630249
20
18.342597863073
30
0.0
40
0.300000000000
100
AcDbArc
50
270.000000000000
51
360.000000000001
0
ARC
5
71e
100
AcDbEntity
8
0-0
6
CONTINUOUS
62
7
100
AcDbCircle
10
755.849051630249
20
21.742597863073
30
0.0
40
0.300000000000
100
AcDbArc
50
0.000000000000
51
90.000000000000
0
LINE
5
71f
100
AcDbEntity
8
0-0
6
CONTINUOUS
62
7
100
AcDbLine
10
756.149051630249
20
21.742597863073
30
0.0
11
756.149051630249
21
18.342597863073
31
0.0
0
LINE
5
720
100
AcDbEntity
8
0-0
6
CONTINUOUS
62
7
100
AcDbLine
10
759.465303131450
20
35.176572459288
30
0.0
11
759.465303131450
21
21.042597863073
31
0.0
0
LINE
5
721
100
AcDbEntity
8
0-0
6
CONTINUOUS
62
7
100
AcDbLine
10
758.715303131450
20
36.475610564965
30
0.0
11
757.338286477658
21
37.270631500711
31
0.0
0
LINE
5
722
100
AcDbEntity
8
0-0
6
CONTINUOUS
62
7
100
AcDbLine
10
748.565303131450
20
25.142597863073
30
0.0
11
748.565303131450
21
23.242597863073
31
0.0
0
LINE
5
723
100
AcDbEntity
8
0-0
6
CONTINUOUS
62
7
100
AcDbLine
10
754.365303131450
20
25.142597863073
30
0.0
11
754.365303131450
21
23.242597863073
31
0.0
0
LINE
5
724
100
AcDbEntity
8
0-0
6
CONTINUOUS
62
7
100
AcDbLine
10
754.065303131450
20
25.442597863073
30
0.0
11
748.865303131450
21
25.442597863073
31
0.0
0
ARC
5
725
100
AcDbEntity
8
0-0
6
CONTINUOUS
62
7
100
AcDbCircle
10
748.865303131450
20
25.142597863073
30
0.0
40
0.300000000000
100
AcDbArc
50
90.000000000000
51
180.000000000000
0
ARC
5
726
100
AcDbEntity
8
0-0
6
CONTINUOUS
62
7
100
AcDbCircle
10
754.065303131450
20
25.142597863073
30
0.0
40
0.300000000000
100
AcDbArc
50
0.000000000000
51
90.000000000000
0
LINE
5
727
100
AcDbEntity
8
0-0
6
CONTINUOUS
62
7
100
AcDbLine
10
754.365303131450
20
17.742597863073
30
0.0
11
748.565303131450
21
17.742597863073
31
0.0
0
LINE
5
728
100
AcDbEntity
8
0-0
6
CONTINUOUS
62
7
100
AcDbLine
10
748.565303131450
20
18.042597863073
30
0.0
11
748.565303131450
21
17.742597863073
31
0.0
0
LINE
5
729
100
AcDbEntity
8
0-0
6
CONTINUOUS
62
7
100
AcDbLine
10
754.365303131450
20
18.042597863073
30
0.0
11
754.365303131450
21
17.742597863073
31
0.0
0
LINE
5
72a
100
AcDbEntity
8
0-0
6
CONTINUOUS
62
7
100
AcDbLine
10
749.715303131450
20
17.742597863073
30
0.0
11
749.715303131450
21
11.835263228273
31
0.0
0
LINE
5
72b
100
AcDbEntity
8
0-0
6
CONTINUOUS
62
7
100
AcDbLine
10
753.215303131450
20
17.742597863073
30
0.0
11
753.215303131450
21
11.835263228273
31
0.0
0
ARC
5
72c
100
AcDbEntity
8
0-0
6
CONTINUOUS
62
7
100
AcDbCircle
10
751.465303131450
20
14.147729444242
30
0.0
40
2.900000000000
100
AcDbArc
50
232.882736532821
51
307.117263467180
0
ARC
5
72d
100
AcDbEntity
8
0-0
6
CONTINUOUS
62
7
100
AcDbCircle
10
751.465303131450
20
9.042597863073
30
0.0
40
5.000000000000
100
AcDbArc
50
110.487315114723
51
429.512684885277
0
ARC
5
72e
100
AcDbEntity
8
0-0
6
CONTINUOUS
62
7
100
AcDbCircle
10
751.465303131450
20
9.042597863073
30
0.0
40
7.000000000000
100
AcDbArc
50
104.477512185930
51
435.522487814070
0
LINE
5
72f
100
AcDbEntity
8
0-0
6
CONTINUOUS
62
7
100
AcDbLine
10
747.965303131450
20
23.242597863073
30
0.0
11
754.965303131450
21
23.242597863073
31
0.0
0
LINE
5
730
100
AcDbEntity
8
0-0
6
CONTINUOUS
62
7
100
AcDbLine
10
747.965303131450
20
23.242597863073
30
0.0
11
747.965303131450
21
22.542597863073
31
0.0
0
LINE
5
731
100
AcDbEntity
8
0-0
6
CONTINUOUS
62
7
100
AcDbLine
10
754.965303131450
20
23.242597863073
30
0.0
11
754.965303131450
21
22.542597863073
31
0.0
0
POLYLINE
5
732
100
AcDbEntity
8
0-0
6
CONTINUOUS
62
  7
100
AcDb2dPolyline
66
1
10
0.0
20
0.0
30
0.0
70
0
0
VERTEX
5
733
100
AcDbEntity
8
0-0
6
CONTINUOUS
62
  7
100
AcDbVertex
100
AcDb2dVertex
10
746.965303131450
20
22.542597863073
30
0.0
0
VERTEX
5
734
100
AcDbEntity
8
0-0
6
CONTINUOUS
62
  7
100
AcDbVertex
100
AcDb2dVertex
10
755.965303131450
20
22.542597863073
30
0.0
0
VERTEX
5
735
100
AcDbEntity
8
0-0
6
CONTINUOUS
62
  7
100
AcDbVertex
100
AcDb2dVertex
10
755.965303131450
20
22.042597863073
30
0.0
0
SEQEND
5
736
100
AcDbEntity
8
0-0
0
LINE
5
737
100
AcDbEntity
8
0-0
6
CONTINUOUS
62
7
100
AcDbLine
10
746.965303131450
20
22.542597863073
30
0.0
11
746.965303131450
21
22.042597863073
31
0.0
0
LINE
5
738
100
AcDbEntity
8
0-1
6
CENTER
62
4
100
AcDbLine
10
725.023982696112
20
36.042597863073
30
0.0
11
704.623982696112
21
36.042597863073
31
0.0
0
LINE
5
739
100
AcDbEntity
8
0-1
6
CENTER
62
4
100
AcDbLine
10
759.465303131450
20
36.042597863073
30
0.0
11
743.465303131450
21
36.042597863073
31
0.0
0
LINE
5
73a
100
AcDbEntity
8
0-1
6
CENTER
62
4
100
AcDbLine
10
751.465303131450
20
42.042597863073
30
0.0
11
751.465303131450
21
2.042597863073
31
0.0
0
LINE
5
73b
100
AcDbEntity
8
0-1
6
CENTER
62
4
100
AcDbLine
10
753.215303131450
20
15.142597863073
30
0.0
11
749.715303131450
21
15.142597863073
31
0.0
0
LINE
5
73c
100
AcDbEntity
8
0-1
6
CENTER
62
4
100
AcDbLine
10
718.918851114943
20
15.142597863073
30
0.0
11
711.129114277282
21
15.142597863073
31
0.0
0
LINE
5
73d
100
AcDbEntity
8
0-1
6
CENTER
62
4
100
AcDbLine
10
715.023982696112
20
42.042597863073
30
0.0
11
715.023982696112
21
2.042597863073
31
0.0
0
LINE
5
73e
100
AcDbEntity
8
0-1
6
CENTER
62
4
100
AcDbLine
10
744.465303131450
20
9.042597863073
30
0.0
11
758.465303131450
21
9.042597863073
31
0.0
0
LINE
5
73f
100
AcDbEntity
8
0-1
6
CENTER
62
4
100
AcDbLine
10
717.314788122183
20
9.042597863073
30
0.0
11
713.042051953576
21
9.042597863073
31
0.0
0
LINE
5
740
100
AcDbEntity
8
0-2
6
DASHED
62
4
100
AcDbLine
10
710.523982696112
20
34.542597863073
30
0.0
11
705.623982696112
21
34.542597863073
31
0.0
0
LINE
5
741
100
AcDbEntity
8
0-2
6
DASHED
62
4
100
AcDbLine
10
710.523982696112
20
37.542597863073
30
0.0
11
705.623982696112
21
37.542597863073
31
0.0
0
LINE
5
742
100
AcDbEntity
8
0-2
6
DASHED
62
4
100
AcDbLine
10
705.623982696112
20
38.542597863073
30
0.0
11
705.523982696112
21
38.542597863073
31
0.0
0
ARC
5
743
100
AcDbEntity
8
0-2
6
DASHED
62
4
100
AcDbCircle
10
708.546204918335
20
36.042597863073
30
0.0
40
3.922222222222
100
AcDbArc
50
140.402247290950
51
153.898622323433
0
LINE
5
744
100
AcDbEntity
8
0-2
6
DASHED
62
4
100
AcDbLine
10
705.623982696112
20
32.792597863073
30
0.0
11
705.623982696112
21
39.292597863073
31
0.0
0
LINE
5
745
100
AcDbEntity
8
0-2
6
DASHED
62
4
100
AcDbLine
10
706.023982696112
20
39.292597863073
30
0.0
11
705.623982696112
21
39.292597863073
31
0.0
0
POLYLINE
5
746
100
AcDbEntity
8
0-2
6
DASHED
62
  4
100
AcDb2dPolyline
66
1
10
0.0
20
0.0
30
0.0
70
0
0
VERTEX
5
747
100
AcDbEntity
8
0-2
6
DASHED
62
  4
100
AcDbVertex
100
AcDb2dVertex
10
706.023982696112
20
39.292597863073
30
0.0
0
VERTEX
5
748
100
AcDbEntity
8
0-2
6
DASHED
62
  4
100
AcDbVertex
100
AcDb2dVertex
10
706.023982696112
20
39.792597863073
30
0.0
0
VERTEX
5
749
100
AcDbEntity
8
0-2
6
DASHED
62
  4
100
AcDbVertex
100
AcDb2dVertex
10
705.023982696112
20
39.792597863073
30
0.0
0
SEQEND
5
74a
100
AcDbEntity
8
0-2
0
ARC
5
74b
100
AcDbEntity
8
0-2
6
DASHED
62
4
100
AcDbCircle
10
708.546204918335
20
36.042597863073
30
0.0
40
3.922222222222
100
AcDbArc
50
206.101377676567
51
219.597752709050
0
LINE
5
74c
100
AcDbEntity
8
0-2
6
DASHED
62
4
100
AcDbLine
10
706.023982696112
20
32.292597863073
30
0.0
11
705.023982696112
21
32.292597863073
31
0.0
0
LINE
5
74d
100
AcDbEntity
8
0-2
6
DASHED
62
4
100
AcDbLine
10
706.023982696112
20
32.792597863073
30
0.0
11
706.023982696112
21
32.292597863073
31
0.0
0
LINE
5
74e
100
AcDbEntity
8
0-2
6
DASHED
62
4
100
AcDbLine
10
706.023982696112
20
32.792597863073
30
0.0
11
705.623982696112
21
32.792597863073
31
0.0
0
LINE
5
74f
100
AcDbEntity
8
0-2
6
DASHED
62
4
100
AcDbLine
10
705.623982696112
20
33.542597863073
30
0.0
11
705.523982696112
21
33.542597863073
31
0.0
0
LINE
5
750
100
AcDbEntity
8
0-2
6
DASHED
62
4
100
AcDbLine
10
724.423982696112
20
32.792597863073
30
0.0
11
724.423982696112
21
39.292597863073
31
0.0
0
LINE
5
751
100
AcDbEntity
8
0-2
6
DASHED
62
4
100
AcDbLine
10
719.523982696112
20
34.542597863073
30
0.0
11
724.423982696112
21
34.542597863073
31
0.0
0
LINE
5
752
100
AcDbEntity
8
0-2
6
DASHED
62
4
100
AcDbLine
10
724.023982696112
20
32.792597863073
30
0.0
11
724.423982696112
21
32.792597863073
31
0.0
0
POLYLINE
5
753
100
AcDbEntity
8
0-2
6
DASHED
62
  4
100
AcDb2dPolyline
66
1
10
0.0
20
0.0
30
0.0
70
0
0
VERTEX
5
754
100
AcDbEntity
8
0-2
6
DASHED
62
  4
100
AcDbVertex
100
AcDb2dVertex
10
724.023982696112
20
32.792597863073
30
0.0
0
VERTEX
5
755
100
AcDbEntity
8
0-2
6
DASHED
62
  4
100
AcDbVertex
100
AcDb2dVertex
10
724.023982696112
20
32.292597863073
30
0.0
0
VERTEX
5
756
100
AcDbEntity
8
0-2
6
DASHED
62
  4
100
AcDbVertex
100
AcDb2dVertex
10
725.023982696112
20
32.292597863073
30
0.0
0
SEQEND
5
757
100
AcDbEntity
8
0-2
0
LINE
5
758
100
AcDbEntity
8
0-2
6
DASHED
62
4
100
AcDbLine
10
719.523982696112
20
37.542597863073
30
0.0
11
724.423982696112
21
37.542597863073
31
0.0
0
LINE
5
759
100
AcDbEntity
8
0-2
6
DASHED
62
4
100
AcDbLine
10
724.023982696112
20
39.792597863073
30
0.0
11
725.023982696112
21
39.792597863073
31
0.0
0
LINE
5
75a
100
AcDbEntity
8
0-2
6
DASHED
62
4
100
AcDbLine
10
724.023982696112
20
39.292597863073
30
0.0
11
724.023982696112
21
39.792597863073
31
0.0
0
LINE
5
75b
100
AcDbEntity
8
0-2
6
DASHED
62
4
100
AcDbLine
10
724.023982696112
20
39.292597863073
30
0.0
11
724.423982696112
21
39.292597863073
31
0.0
0
LINE
5
75c
100
AcDbEntity
8
0-2
6
DASHED
62
4
100
AcDbLine
10
724.923982696112
20
38.292597863073
30
0.0
11
724.423982696112
21
38.292597863073
31
0.0
0
LINE
5
75d
100
AcDbEntity
8
0-2
6
DASHED
62
4
100
AcDbLine
10
724.923982696112
20
33.792597863073
30
0.0
11
724.423982696112
21
33.792597863073
31
0.0
0
LINE
5
75e
100
AcDbEntity
8
0-2
6
DASHED
62
4
100
AcDbLine
10
724.923982696112
20
33.792597863073
30
0.0
11
724.923982696112
21
38.292597863073
31
0.0
0
LINE
5
75f
100
AcDbEntity
8
0-2
6
DASHED
62
4
100
AcDbLine
10
717.623982696112
20
25.442597863073
30
0.0
11
712.423982696112
21
25.442597863073
31
0.0
0
LINE
5
760
100
AcDbEntity
8
0-2
6
DASHED
62
4
100
AcDbLine
10
718.773982696112
20
22.042597863073
30
0.0
11
711.273982696112
21
22.042597863073
31
0.0
0
LINE
5
761
100
AcDbEntity
8
0-2
6
DASHED
62
4
100
AcDbLine
10
711.523982696112
20
23.242597863073
30
0.0
11
718.523982696112
21
23.242597863073
31
0.0
0
LINE
5
762
100
AcDbEntity
8
0-2
6
DASHED
62
4
100
AcDbLine
10
712.123982696112
20
25.142597863073
30
0.0
11
712.123982696112
21
23.242597863073
31
0.0
0
LINE
5
763
100
AcDbEntity
8
0-2
6
DASHED
62
4
100
AcDbLine
10
712.773982696112
20
23.242597863073
30
0.0
11
712.773982696112
21
22.442597863073
31
0.0
0
LINE
5
764
100
AcDbEntity
8
0-2
6
DASHED
62
4
100
AcDbLine
10
712.123982696112
20
21.942597863073
30
0.0
11
712.123982696112
21
18.042597863073
31
0.0
0
LINE
5
765
100
AcDbEntity
8
0-2
6
DASHED
62
4
100
AcDbLine
10
711.523982696112
20
23.242597863073
30
0.0
11
711.523982696112
21
22.542597863073
31
0.0
0
ARC
5
766
100
AcDbEntity
8
0-2
6
DASHED
62
4
100
AcDbCircle
10
712.423982696112
20
25.142597863073
30
0.0
40
0.300000000000
100
AcDbArc
50
90.000000000000
51
180.000000000000
0
LINE
5
767
100
AcDbEntity
8
0-2
6
DASHED
62
4
100
AcDbLine
10
717.923982696112
20
25.142597863073
30
0.0
11
717.923982696112
21
23.242597863073
31
0.0
0
LINE
5
768
100
AcDbEntity
8
0-2
6
DASHED
62
4
100
AcDbLine
10
718.523982696112
20
23.242597863073
30
0.0
11
718.523982696112
21
22.542597863073
31
0.0
0
LINE
5
769
100
AcDbEntity
8
0-2
6
DASHED
62
4
100
AcDbLine
10
717.273982696112
20
23.242597863073
30
0.0
11
717.273982696112
21
22.442597863073
31
0.0
0
LINE
5
76a
100
AcDbEntity
8
0-2
6
DASHED
62
4
100
AcDbLine
10
717.923982696112
20
21.942597863073
30
0.0
11
717.923982696112
21
18.042597863073
31
0.0
0
ARC
5
76b
100
AcDbEntity
8
0-2
6
DASHED
62
4
100
AcDbCircle
10
717.623982696112
20
25.142597863073
30
0.0
40
0.300000000000
100
AcDbArc
50
0.000000000000
51
90.000000000000
0
LINE
5
76c
100
AcDbEntity
8
0-2
6
DASHED
62
4
100
AcDbLine
10
715.523982696112
20
14.042597863073
30
0.0
11
714.523982696112
21
14.042597863073
31
0.0
0
ARC
5
76d
100
AcDbEntity
8
0-2
6
DASHED
62
4
100
AcDbCircle
10
715.523982696112
20
14.542597863073
30
0.0
40
0.500000000000
100
AcDbArc
50
270.000000000000
51
360.000000000000
0
ARC
5
76e
100
AcDbEntity
8
0-2
6
DASHED
62
4
100
AcDbCircle
10
714.523982696112
20
14.542597863073
30
0.0
40
0.500000000000
100
AcDbArc
50
180.000000000000
51
270.000000000000
0
ARC
5
76f
100
AcDbEntity
8
0-2
6
DASHED
62
4
100
AcDbCircle
10
715.023982696112
20
15.142597863073
30
0.0
40
1.400000000000
100
AcDbArc
50
224.415308597179
51
315.584691402809
0
ARC
5
770
100
AcDbEntity
8
0-2
6
DASHED
62
4
100
AcDbCircle
10
715.023982696112
20
15.142597863073
30
0.0
40
3.894868418830
100
AcDbArc
50
255.122807996823
51
284.877192003177
0
LINE
5
771
100
AcDbEntity
8
0-2
6
DASHED
62
4
100
AcDbLine
10
715.523982696112
20
4.042597863073
30
0.0
11
714.523982696112
21
4.042597863073
31
0.0
0
ARC
5
772
100
AcDbEntity
8
0-2
6
DASHED
62
4
100
AcDbCircle
10
715.523982696112
20
3.542597863073
30
0.0
40
0.500000000000
100
AcDbArc
50
360.000000000000
51
450.000000000000
0
ARC
5
773
100
AcDbEntity
8
0-2
6
DASHED
62
4
100
AcDbCircle
10
714.523982696112
20
3.542597863073
30
0.0
40
0.500000000000
100
AcDbArc
50
90.000000000000
51
180.000000000000
0
LINE
5
774
100
AcDbEntity
8
0-2
6
DASHED
62
4
100
AcDbLine
10
712.123982696112
20
21.942597863073
30
0.0
11
717.923982696112
21
21.942597863073
31
0.0
0
LINE
5
775
100
AcDbEntity
8
0-2
6
DASHED
62
4
100
AcDbLine
10
710.773982696112
20
37.542597863073
30
0.0
11
719.273982696112
21
37.542597863073
31
0.0
0
LINE
5
776
100
AcDbEntity
8
0-2
6
DASHED
62
4
100
AcDbLine
10
710.773982696112
20
34.542597863073
30
0.0
11
719.273982696112
21
34.542597863073
31
0.0
0
LINE
5
777
100
AcDbEntity
8
0-2
6
DASHED
62
4
100
AcDbLine
10
711.273982696112
20
22.542597863073
30
0.0
11
718.773982696112
21
22.542597863073
31
0.0
0
ARC
5
778
100
AcDbEntity
8
0-2
6
DASHED
62
4
100
AcDbCircle
10
751.465303131450
20
36.042597863073
30
0.0
40
4.000000000000
100
AcDbArc
50
60.000000000000
51
120.000000000000
0
LINE
5
779
100
AcDbEntity
8
0-2
6
DASHED
62
4
100
AcDbLine
10
745.592319785243
20
37.270631500711
30
0.0
11
749.465303131450
21
39.506699478211
31
0.0
0
LINE
5
77a
100
AcDbEntity
8
0-2
6
DASHED
62
4
100
AcDbLine
10
757.338286477658
20
37.270631500711
30
0.0
11
753.465303131450
21
39.506699478211
31
0.0
0
LINE
5
77b
100
AcDbEntity
8
0-2
6
DASHED
62
4
100
AcDbLine
10
748.565303131450
20
21.942597863073
30
0.0
11
748.565303131450
21
18.042597863073
31
0.0
0
LINE
5
77c
100
AcDbEntity
8
0-2
6
DASHED
62
4
100
AcDbLine
10
754.365303131450
20
21.942597863073
30
0.0
11
754.365303131450
21
18.042597863073
31
0.0
0
LINE
5
77d
100
AcDbEntity
8
0-2
6
DASHED
62
4
100
AcDbLine
10
754.365303131450
20
21.942597863073
30
0.0
11
748.565303131450
21
21.942597863073
31
0.0
0
LINE
5
77e
100
AcDbEntity
8
0-2
6
DASHED
62
4
100
AcDbLine
10
749.215303131450
20
23.242597863073
30
0.0
11
749.215303131450
21
21.942597863073
31
0.0
0
LINE
5
77f
100
AcDbEntity
8
0-2
6
DASHED
62
4
100
AcDbLine
10
753.715303131450
20
23.242597863073
30
0.0
11
753.715303131450
21
21.942597863073
31
0.0
0
LINE
5
780
100
AcDbEntity
8
0-2
6
DASHED
62
4
100
AcDbLine
10
753.215303131450
20
13.742597863073
30
0.0
11
749.715303131450
21
13.742597863073
31
0.0
0
LINE
5
781
100
AcDbEntity
8
0-2
6
DASHED
62
4
100
AcDbLine
10
753.215303131450
20
16.542597863073
30
0.0
11
749.715303131450
21
16.542597863073
31
0.0
0
CIRCLE
5
782
100
AcDbEntity
8
0-3
6
CONTINUOUS
62
4
100
AcDbCircle
10
751.465303131450
20
36.042597863073
30
0.0
40
3.750000000000
0
CIRCLE
5
783
100
AcDbEntity
8
0-3
6
CONTINUOUS
62
4
100
AcDbCircle
10
751.465303131450
20
36.042597863073
30
0.0
40
3.250000000000
0
ARC
5
784
100
AcDbEntity
8
0-0
6
CONTINUOUS
62
7
100
AcDbCircle
10
751.465303131450
20
36.042597863073
30
0.0
40
7.000000000000
100
AcDbArc
50
314.098627080205
51
364.849904579046
0
ARC
5
785
100
AcDbEntity
8
0-0
6
CONTINUOUS
62
7
100
AcDbCircle
10
751.465303131450
20
36.042597863073
30
0.0
40
7.000000000000
100
AcDbArc
50
175.150095420954
51
225.901372919795
0
ARC
5
786
100
AcDbEntity
8
0-0
6
CONTINUOUS
62
7
100
AcDbCircle
10
715.023982696112
20
15.142597863073
30
0.0
40
3.307334634800
100
AcDbArc
50
287.599301875229
51
411.825451366040
0
ARC
5
787
100
AcDbEntity
8
0-0
6
CONTINUOUS
62
7
100
AcDbCircle
10
715.023982696112
20
15.142597863073
30
0.0
40
3.307334634800
100
AcDbArc
50
128.174548633960
51
252.400698124771
0
LINE
5
788
100
AcDbEntity
8
0-0
6
CONTINUOUS
62
7
100
AcDbLine
10
717.923982696112
20
17.742597863073
30
0.0
11
715.273982696112
21
17.742597863073
31
0.0
0
LINE
5
789
100
AcDbEntity
8
0-0
6
CONTINUOUS
62
7
100
AcDbLine
10
714.773982696112
20
17.742597863073
30
0.0
11
712.123982696112
21
17.742597863073
31
0.0
0
LINE
5
78a
100
AcDbEntity
8
F-F_J_ADD
6
HIDDEN
62
253
100
AcDbLine
10
200.000000000000
20
301.386715679631
30
0.0
11
200.000000000000
21
0.000000000000
31
0.0
0
LINE
5
78b
100
AcDbEntity
8
F-F_J_ADD
6
HIDDEN
62
253
100
AcDbLine
10
450.000000000000
20
301.386715679631
30
0.0
11
450.000000000000
21
0.000000000000
31
0.0
0
LINE
5
78c
100
AcDbEntity
8
F-F_J_ADD
6
HIDDEN
62
253
100
AcDbLine
10
700.000000000000
20
301.386715679631
30
0.0
11
700.000000000000
21
0.000000000000
31
0.0
0
LINE
5
78d
100
AcDbEntity
8
F-F_J_ADD
6
HIDDEN
62
253
100
AcDbLine
10
1126.953106789538
20
0.000000000000
30
0.0
11
0.000000000000
21
0.000000000000
31
0.0
0
LINE
5
78e
100
AcDbEntity
8
0-1
6
PHANTOM
62
4
100
AcDbLine
10
6.474610743068
20
219.978527273477
30
0.0
11
2.883411216089
21
219.194700881172
31
0.0
0
ARC
5
78f
100
AcDbEntity
8
0-1
6
PHANTOM
62
4
100
AcDbCircle
10
6.367989297299
20
220.467026881770
30
0.0
40
0.500000000000
100
AcDbArc
50
282.312462001559
51
318.510472529826
0
ARC
5
790
100
AcDbEntity
8
0-1
6
PHANTOM
62
4
100
AcDbCircle
10
7.491604530380
20
219.473302167380
30
0.0
40
1.000000000000
100
AcDbArc
50
233.518645285983
51
498.510472529823
0
ARC
5
791
100
AcDbEntity
8
0-1
6
PHANTOM
62
4
100
AcDbCircle
10
6.599762786104
20
218.267226588004
30
0.0
40
0.500000000000
100
AcDbArc
50
53.518645285973
51
104.842907696767
0
LINE
5
792
100
AcDbEntity
8
0-1
6
PHANTOM
62
4
100
AcDbLine
10
3.291088930433
20
217.907645976999
30
0.0
11
6.471677925354
21
218.750542497577
31
0.0
0
LINE
5
793
100
AcDbEntity
8
0-1
6
PHANTOM
62
4
100
AcDbLine
10
14.399999618530
20
240.000000000000
30
0.0
11
1.500000000000
21
240.000000000000
31
0.0
0
LINE
5
794
100
AcDbEntity
8
0-1
6
PHANTOM
62
4
100
AcDbLine
10
25.600000381470
20
240.000000000000
30
0.0
11
38.500000000000
21
240.000000000000
31
0.0
0
LINE
5
795
100
AcDbEntity
8
0-1
6
PHANTOM
62
4
100
AcDbLine
10
40.000000000000
20
225.600000381470
30
0.0
11
40.000000000000
21
238.500000000000
31
0.0
0
LINE
5
796
100
AcDbEntity
8
0-1
6
PHANTOM
62
4
100
AcDbLine
10
40.000000000000
20
214.399999618530
30
0.0
11
40.000000000000
21
201.500000000000
31
0.0
0
LINE
5
797
100
AcDbEntity
8
0-1
6
PHANTOM
62
4
100
AcDbLine
10
25.600000381470
20
200.000000000000
30
0.0
11
38.500000000000
21
200.000000000000
31
0.0
0
LINE
5
798
100
AcDbEntity
8
0-1
6
PHANTOM
62
4
100
AcDbLine
10
14.399999618530
20
200.000000000000
30
0.0
11
1.500000000000
21
200.000000000000
31
0.0
0
LINE
5
799
100
AcDbEntity
8
0-1
6
PHANTOM
62
4
100
AcDbLine
10
2.281965970993
20
214.899999618530
30
0.0
11
0.500000000000
21
214.899999618530
31
0.0
0
LINE
5
79a
100
AcDbEntity
8
0-1
6
PHANTOM
62
4
100
AcDbLine
10
2.505572795868
20
214.847213745117
30
0.0
11
3.323606729507
21
214.438196182251
31
0.0
0
LINE
5
79b
100
AcDbEntity
8
0-1
6
PHANTOM
62
4
100
AcDbLine
10
2.281965970993
20
225.100000381470
30
0.0
11
0.500000000000
21
225.100000381470
31
0.0
0
LINE
5
79c
100
AcDbEntity
8
0-1
6
PHANTOM
62
4
100
AcDbLine
10
2.505572795868
20
225.152786254883
30
0.0
11
3.323606729507
21
225.561803817749
31
0.0
0
LINE
5
79d
100
AcDbEntity
8
0-1
6
PHANTOM
62
4
100
AcDbLine
10
3.599999904633
20
227.500000000000
30
0.0
11
3.599999904633
21
226.009016990662
31
0.0
0
LINE
5
79e
100
AcDbEntity
8
0-1
6
PHANTOM
62
4
100
AcDbLine
10
3.599999904633
20
212.500000000000
30
0.0
11
3.599999904633
21
213.990982055664
31
0.0
0
LINE
5
79f
100
AcDbEntity
8
0-1
6
PHANTOM
62
4
100
AcDbLine
10
14.899999618530
20
237.718034029007
30
0.0
11
14.899999618530
21
239.500000000000
31
0.0
0
LINE
5
7a0
100
AcDbEntity
8
0-1
6
PHANTOM
62
4
100
AcDbLine
10
14.847213745117
20
237.494427204132
30
0.0
11
14.438196182251
21
236.676393270493
31
0.0
0
LINE
5
7a1
100
AcDbEntity
8
0-1
6
PHANTOM
62
4
100
AcDbLine
10
12.500000000000
20
236.400000095367
30
0.0
11
13.990983009338
21
236.400000095367
31
0.0
0
LINE
5
7a2
100
AcDbEntity
8
0-1
6
PHANTOM
62
4
100
AcDbLine
10
27.500000000000
20
236.400000095367
30
0.0
11
26.009017944336
21
236.400000095367
31
0.0
0
LINE
5
7a3
100
AcDbEntity
8
0-1
6
PHANTOM
62
4
100
AcDbLine
10
25.152786254883
20
237.494427204132
30
0.0
11
25.561803817749
21
236.676393270493
31
0.0
0
LINE
5
7a4
100
AcDbEntity
8
0-1
6
PHANTOM
62
4
100
AcDbLine
10
25.100000381470
20
237.718034029007
30
0.0
11
25.100000381470
21
239.500000000000
31
0.0
0
LINE
5
7a5
100
AcDbEntity
8
0-1
6
PHANTOM
62
4
100
AcDbLine
10
37.718032836914
20
214.899999618530
30
0.0
11
39.500000000000
21
214.899999618530
31
0.0
0
LINE
5
7a6
100
AcDbEntity
8
0-1
6
PHANTOM
62
4
100
AcDbLine
10
37.494426727295
20
214.847213745117
30
0.0
11
36.676391601563
21
214.438196182251
31
0.0
0
LINE
5
7a7
100
AcDbEntity
8
0-1
6
PHANTOM
62
4
100
AcDbLine
10
36.400001525879
20
212.500000000000
30
0.0
11
36.400001525879
21
213.990982055664
31
0.0
0
LINE
5
7a8
100
AcDbEntity
8
0-1
6
PHANTOM
62
4
100
AcDbLine
10
36.400001525879
20
227.500000000000
30
0.0
11
36.400001525879
21
226.009016990662
31
0.0
0
LINE
5
7a9
100
AcDbEntity
8
0-1
6
PHANTOM
62
4
100
AcDbLine
10
37.494426727295
20
225.152786254883
30
0.0
11
36.676391601563
21
225.561803817749
31
0.0
0
LINE
5
7aa
100
AcDbEntity
8
0-1
6
PHANTOM
62
4
100
AcDbLine
10
37.718032836914
20
225.100000381470
30
0.0
11
39.500000000000
21
225.100000381470
31
0.0
0
LINE
5
7ab
100
AcDbEntity
8
0-1
6
PHANTOM
62
4
100
AcDbLine
10
14.899999618530
20
202.281967163086
30
0.0
11
14.899999618530
21
200.500000000000
31
0.0
0
LINE
5
7ac
100
AcDbEntity
8
0-1
6
PHANTOM
62
4
100
AcDbLine
10
14.847213745117
20
202.505573272705
30
0.0
11
14.438196182251
21
203.323608398438
31
0.0
0
LINE
5
7ad
100
AcDbEntity
8
0-1
6
PHANTOM
62
4
100
AcDbLine
10
12.500000000000
20
203.599998474121
30
0.0
11
13.990983009338
21
203.599998474121
31
0.0
0
LINE
5
7ae
100
AcDbEntity
8
0-1
6
PHANTOM
62
4
100
AcDbLine
10
27.500000000000
20
203.599998474121
30
0.0
11
26.009017944336
21
203.599998474121
31
0.0
0
LINE
5
7af
100
AcDbEntity
8
0-1
6
PHANTOM
62
4
100
AcDbLine
10
25.152786254883
20
202.505573272705
30
0.0
11
25.561803817749
21
203.323608398438
31
0.0
0
LINE
5
7b0
100
AcDbEntity
8
0-1
6
PHANTOM
62
4
100
AcDbLine
10
25.100000381470
20
202.281967163086
30
0.0
11
25.100000381470
21
200.500000000000
31
0.0
0
LINE
5
7b1
100
AcDbEntity
8
0-1
6
PHANTOM
62
4
100
AcDbLine
10
12.000000000000
20
208.292892456055
30
0.0
11
12.000000000000
21
204.099998474121
31
0.0
0
LINE
5
7b2
100
AcDbEntity
8
0-1
6
PHANTOM
62
4
100
AcDbLine
10
13.353553771973
20
209.853553771973
30
0.0
11
12.146446228027
21
208.646446228027
31
0.0
0
LINE
5
7b3
100
AcDbEntity
8
0-1
6
PHANTOM
62
4
100
AcDbLine
10
26.292892456055
20
210.000000000000
30
0.0
11
13.707106590271
21
210.000000000000
31
0.0
0
LINE
5
7b4
100
AcDbEntity
8
0-1
6
PHANTOM
62
4
100
AcDbLine
10
27.853553771973
20
208.646446228027
30
0.0
11
26.646446228027
21
209.853553771973
31
0.0
0
LINE
5
7b5
100
AcDbEntity
8
0-1
6
PHANTOM
62
4
100
AcDbLine
10
28.000000000000
20
208.292892456055
30
0.0
11
28.000000000000
21
204.099998474121
31
0.0
0
LINE
5
7b6
100
AcDbEntity
8
0-1
6
PHANTOM
62
4
100
AcDbLine
10
31.707107543945
20
212.000000000000
30
0.0
11
35.900001525879
21
212.000000000000
31
0.0
0
LINE
5
7b7
100
AcDbEntity
8
0-1
6
PHANTOM
62
4
100
AcDbLine
10
30.146446228027
20
213.353553771973
30
0.0
11
31.353553771973
21
212.146446228027
31
0.0
0
LINE
5
7b8
100
AcDbEntity
8
0-1
6
PHANTOM
62
4
100
AcDbLine
10
31.353553771973
20
227.853553771973
30
0.0
11
30.146446228027
21
226.646446228027
31
0.0
0
LINE
5
7b9
100
AcDbEntity
8
0-1
6
PHANTOM
62
4
100
AcDbLine
10
31.707107543945
20
228.000000000000
30
0.0
11
35.900001525879
21
228.000000000000
31
0.0
0
LINE
5
7ba
100
AcDbEntity
8
0-1
6
PHANTOM
62
4
100
AcDbLine
10
28.000000000000
20
231.707106590271
30
0.0
11
28.000000000000
21
235.900000095367
31
0.0
0
LINE
5
7bb
100
AcDbEntity
8
0-1
6
PHANTOM
62
4
100
AcDbLine
10
26.646446228027
20
230.146446228027
30
0.0
11
27.853553771973
21
231.353553771973
31
0.0
0
LINE
5
7bc
100
AcDbEntity
8
0-1
6
PHANTOM
62
4
100
AcDbLine
10
13.707106590271
20
230.000000000000
30
0.0
11
26.292892456055
21
230.000000000000
31
0.0
0
LINE
5
7bd
100
AcDbEntity
8
0-1
6
PHANTOM
62
4
100
AcDbLine
10
12.146446228027
20
231.353553771973
30
0.0
11
13.353553771973
21
230.146446228027
31
0.0
0
LINE
5
7be
100
AcDbEntity
8
0-1
6
PHANTOM
62
4
100
AcDbLine
10
12.000000000000
20
231.707106590271
30
0.0
11
12.000000000000
21
235.900000095367
31
0.0
0
LINE
5
7bf
100
AcDbEntity
8
0-1
6
PHANTOM
62
4
100
AcDbLine
10
8.292893409729
20
212.000000000000
30
0.0
11
4.099999904633
21
212.000000000000
31
0.0
0
LINE
5
7c0
100
AcDbEntity
8
0-1
6
PHANTOM
62
4
100
AcDbLine
10
9.853553771973
20
213.353553771973
30
0.0
11
8.646446228027
21
212.146446228027
31
0.0
0
LINE
5
7c1
100
AcDbEntity
8
0-1
6
PHANTOM
62
4
100
AcDbLine
10
8.646446228027
20
227.853553771973
30
0.0
11
9.853553771973
21
226.646446228027
31
0.0
0
LINE
5
7c2
100
AcDbEntity
8
0-1
6
PHANTOM
62
4
100
AcDbLine
10
8.292893409729
20
228.000000000000
30
0.0
11
4.099999904633
21
228.000000000000
31
0.0
0
ARC
5
7c3
100
AcDbEntity
8
0-1
6
PHANTOM
62
4
100
AcDbCircle
10
13.990983009338
20
236.900000095367
30
0.0
40
0.500000000000
100
AcDbArc
50
270.000000000000
51
333.434936523438
0
ARC
5
7c4
100
AcDbEntity
8
0-1
6
PHANTOM
62
4
100
AcDbCircle
10
26.009017944336
20
236.900000095367
30
0.0
40
0.500000000000
100
AcDbArc
50
206.565048217773
51
270.000000000000
0
ARC
5
7c5
100
AcDbEntity
8
0-1
6
PHANTOM
62
4
100
AcDbCircle
10
26.009017944336
20
203.099998474121
30
0.0
40
0.500000000000
100
AcDbArc
50
90.000000000000
51
153.434936523438
0
ARC
5
7c6
100
AcDbEntity
8
0-1
6
PHANTOM
62
4
100
AcDbCircle
10
13.990983009338
20
203.099998474121
30
0.0
40
0.500000000000
100
AcDbArc
50
26.565048217773
51
90.000000000000
0
ARC
5
7c7
100
AcDbEntity
8
0-1
6
PHANTOM
62
4
100
AcDbCircle
10
36.900001525879
20
226.009016990662
30
0.0
40
0.500000000000
100
AcDbArc
50
180.000000000000
51
243.434936523438
0
ARC
5
7c8
100
AcDbEntity
8
0-1
6
PHANTOM
62
4
100
AcDbCircle
10
36.900001525879
20
213.990982055664
30
0.0
40
0.500000000000
100
AcDbArc
50
116.565048217773
51
180.000000000000
0
ARC
5
7c9
100
AcDbEntity
8
0-1
6
PHANTOM
62
4
100
AcDbCircle
10
3.099999904633
20
213.990982055664
30
0.0
40
0.500000000000
100
AcDbArc
50
0.000000000000
51
63.434936523437
0
ARC
5
7ca
100
AcDbEntity
8
0-1
6
PHANTOM
62
4
100
AcDbCircle
10
3.099999904633
20
226.009016990662
30
0.0
40
0.500000000000
100
AcDbArc
50
296.565048217773
51
360.000000000000
0
ARC
5
7cb
100
AcDbEntity
8
0-1
6
PHANTOM
62
4
100
AcDbCircle
10
1.500000000000
20
201.500000000000
30
0.0
40
1.500000000000
100
AcDbArc
50
180.000000000000
51
270.000000000000
0
ARC
5
7cc
100
AcDbEntity
8
0-1
6
PHANTOM
62
4
100
AcDbCircle
10
1.500000000000
20
238.500000000000
30
0.0
40
1.500000000000
100
AcDbArc
50
90.000000000000
51
180.000000000000
0
ARC
5
7cd
100
AcDbEntity
8
0-1
6
PHANTOM
62
4
100
AcDbCircle
10
38.500000000000
20
238.500000000000
30
0.0
40
1.500000000000
100
AcDbArc
50
0.000000000000
51
90.000000000000
0
ARC
5
7ce
100
AcDbEntity
8
0-1
6
PHANTOM
62
4
100
AcDbCircle
10
38.500000000000
20
201.500000000000
30
0.0
40
1.500000000000
100
AcDbArc
50
270.000000000000
51
360.000000000000
0
ARC
5
7cf
100
AcDbEntity
8
0-1
6
PHANTOM
62
4
100
AcDbCircle
10
0.500000000000
20
214.399999618530
30
0.0
40
0.500000000000
100
AcDbArc
50
90.000000000000
51
180.000000000000
0
ARC
5
7d0
100
AcDbEntity
8
0-1
6
PHANTOM
62
4
100
AcDbCircle
10
0.500000000000
20
225.600000381470
30
0.0
40
0.500000000000
100
AcDbArc
50
180.000000000000
51
270.000000000000
0
ARC
5
7d1
100
AcDbEntity
8
0-1
6
PHANTOM
62
4
100
AcDbCircle
10
14.399999618530
20
239.500000000000
30
0.0
40
0.500000000000
100
AcDbArc
50
0.000000000000
51
90.000000000000
0
ARC
5
7d2
100
AcDbEntity
8
0-1
6
PHANTOM
62
4
100
AcDbCircle
10
25.600000381470
20
239.500000000000
30
0.0
40
0.500000000000
100
AcDbArc
50
90.000000000000
51
180.000000000000
0
ARC
5
7d3
100
AcDbEntity
8
0-1
6
PHANTOM
62
4
100
AcDbCircle
10
39.500000000000
20
225.600000381470
30
0.0
40
0.500000000000
100
AcDbArc
50
270.000000000000
51
360.000000000000
0
ARC
5
7d4
100
AcDbEntity
8
0-1
6
PHANTOM
62
4
100
AcDbCircle
10
39.500000000000
20
214.399999618530
30
0.0
40
0.500000000000
100
AcDbArc
50
0.000000000000
51
90.000000000000
0
ARC
5
7d5
100
AcDbEntity
8
0-1
6
PHANTOM
62
4
100
AcDbCircle
10
25.600000381470
20
200.500000000000
30
0.0
40
0.500000000000
100
AcDbArc
50
180.000000000000
51
270.000000000000
0
ARC
5
7d6
100
AcDbEntity
8
0-1
6
PHANTOM
62
4
100
AcDbCircle
10
14.399999618530
20
200.500000000000
30
0.0
40
0.500000000000
100
AcDbArc
50
270.000000000000
51
359.999984741211
0
ARC
5
7d7
100
AcDbEntity
8
0-1
6
PHANTOM
62
4
100
AcDbCircle
10
2.281965970993
20
214.399999618530
30
0.0
40
0.500000000000
100
AcDbArc
50
63.434936523438
51
90.000000000000
0
ARC
5
7d8
100
AcDbEntity
8
0-1
6
PHANTOM
62
4
100
AcDbCircle
10
2.281965970993
20
225.600000381470
30
0.0
40
0.500000000000
100
AcDbArc
50
270.000000000000
51
296.565048217773
0
ARC
5
7d9
100
AcDbEntity
8
0-1
6
PHANTOM
62
4
100
AcDbCircle
10
4.099999904633
20
227.500000000000
30
0.0
40
0.500000000000
100
AcDbArc
50
90.000000000000
51
180.000000000000
0
ARC
5
7da
100
AcDbEntity
8
0-1
6
PHANTOM
62
4
100
AcDbCircle
10
4.099999904633
20
212.500000000000
30
0.0
40
0.500000000000
100
AcDbArc
50
180.000000000000
51
270.000000000000
0
ARC
5
7db
100
AcDbEntity
8
0-1
6
PHANTOM
62
4
100
AcDbCircle
10
14.399999618530
20
237.718034029007
30
0.0
40
0.500000000000
100
AcDbArc
50
333.434936523438
51
360.000000000000
0
ARC
5
7dc
100
AcDbEntity
8
0-1
6
PHANTOM
62
4
100
AcDbCircle
10
12.500000000000
20
235.900000095367
30
0.0
40
0.500000000000
100
AcDbArc
50
90.000000000000
51
180.000000000000
0
ARC
5
7dd
100
AcDbEntity
8
0-1
6
PHANTOM
62
4
100
AcDbCircle
10
27.500000000000
20
235.900000095367
30
0.0
40
0.500000000000
100
AcDbArc
50
0.000000000000
51
90.000000000000
0
ARC
5
7de
100
AcDbEntity
8
0-1
6
PHANTOM
62
4
100
AcDbCircle
10
25.600000381470
20
237.718034029007
30
0.0
40
0.500000000000
100
AcDbArc
50
180.000000000000
51
206.565048217773
0
ARC
5
7df
100
AcDbEntity
8
0-1
6
PHANTOM
62
4
100
AcDbCircle
10
37.718032836914
20
214.399999618530
30
0.0
40
0.500000000000
100
AcDbArc
50
90.000000000000
51
116.565048217773
0
ARC
5
7e0
100
AcDbEntity
8
0-1
6
PHANTOM
62
4
100
AcDbCircle
10
35.900001525879
20
212.500000000000
30
0.0
40
0.500000000000
100
AcDbArc
50
270.000000000000
51
360.000000000000
0
ARC
5
7e1
100
AcDbEntity
8
0-1
6
PHANTOM
62
4
100
AcDbCircle
10
35.900001525879
20
227.500000000000
30
0.0
40
0.500000000000
100
AcDbArc
50
0.000000000000
51
90.000000000000
0
ARC
5
7e2
100
AcDbEntity
8
0-1
6
PHANTOM
62
4
100
AcDbCircle
10
37.718032836914
20
225.600000381470
30
0.0
40
0.500000000000
100
AcDbArc
50
243.434936523438
51
270.000000000000
0
ARC
5
7e3
100
AcDbEntity
8
0-1
6
PHANTOM
62
4
100
AcDbCircle
10
14.399999618530
20
202.281967163086
30
0.0
40
0.500000000000
100
AcDbArc
50
359.999984741211
51
386.565048217773
0
ARC
5
7e4
100
AcDbEntity
8
0-1
6
PHANTOM
62
4
100
AcDbCircle
10
12.500000000000
20
204.099998474121
30
0.0
40
0.500000000000
100
AcDbArc
50
180.000000000000
51
270.000000000000
0
ARC
5
7e5
100
AcDbEntity
8
0-1
6
PHANTOM
62
4
100
AcDbCircle
10
27.500000000000
20
204.099998474121
30
0.0
40
0.500000000000
100
AcDbArc
50
270.000000000000
51
360.000000000000
0
ARC
5
7e6
100
AcDbEntity
8
0-1
6
PHANTOM
62
4
100
AcDbCircle
10
25.600000381470
20
202.281967163086
30
0.0
40
0.500000000000
100
AcDbArc
50
153.434936523438
51
180.000000000000
0
ARC
5
7e7
100
AcDbEntity
8
0-1
6
PHANTOM
62
4
100
AcDbCircle
10
12.500000000000
20
208.292892456055
30
0.0
40
0.500000000000
100
AcDbArc
50
135.000000000000
51
180.000000000000
0
ARC
5
7e8
100
AcDbEntity
8
0-1
6
PHANTOM
62
4
100
AcDbCircle
10
13.707106590271
20
209.500000000000
30
0.0
40
0.500000000000
100
AcDbArc
50
90.000000000000
51
135.000000000000
0
ARC
5
7e9
100
AcDbEntity
8
0-1
6
PHANTOM
62
4
100
AcDbCircle
10
26.292892456055
20
209.500000000000
30
0.0
40
0.500000000000
100
AcDbArc
50
45.000000000000
51
90.000000000000
0
ARC
5
7ea
100
AcDbEntity
8
0-1
6
PHANTOM
62
4
100
AcDbCircle
10
27.500000000000
20
208.292892456055
30
0.0
40
0.500000000000
100
AcDbArc
50
0.000000000000
51
45.000000000000
0
ARC
5
7eb
100
AcDbEntity
8
0-1
6
PHANTOM
62
4
100
AcDbCircle
10
31.707107543945
20
212.500000000000
30
0.0
40
0.500000000000
100
AcDbArc
50
225.000000000000
51
270.000000000000
0
ARC
5
7ec
100
AcDbEntity
8
0-1
6
PHANTOM
62
4
100
AcDbCircle
10
30.500000000000
20
213.707107543945
30
0.0
40
0.500000000000
100
AcDbArc
50
180.000000000000
51
224.999984741211
0
ARC
5
7ed
100
AcDbEntity
8
0-1
6
PHANTOM
62
4
100
AcDbCircle
10
30.500000000000
20
226.292893409729
30
0.0
40
0.500000000000
100
AcDbArc
50
135.000000000000
51
180.000000000000
0
ARC
5
7ee
100
AcDbEntity
8
0-1
6
PHANTOM
62
4
100
AcDbCircle
10
31.707107543945
20
227.500000000000
30
0.0
40
0.500000000000
100
AcDbArc
50
90.000000000000
51
135.000000000000
0
ARC
5
7ef
100
AcDbEntity
8
0-1
6
PHANTOM
62
4
100
AcDbCircle
10
27.500000000000
20
231.707106590271
30
0.0
40
0.500000000000
100
AcDbArc
50
315.000000000000
51
360.000000000000
0
ARC
5
7f0
100
AcDbEntity
8
0-1
6
PHANTOM
62
4
100
AcDbCircle
10
26.292892456055
20
230.500000000000
30
0.0
40
0.500000000000
100
AcDbArc
50
270.000000000000
51
315.000000000000
0
ARC
5
7f1
100
AcDbEntity
8
0-1
6
PHANTOM
62
4
100
AcDbCircle
10
13.707106590271
20
230.500000000000
30
0.0
40
0.500000000000
100
AcDbArc
50
225.000000000000
51
270.000000000000
0
ARC
5
7f2
100
AcDbEntity
8
0-1
6
PHANTOM
62
4
100
AcDbCircle
10
12.500000000000
20
231.707106590271
30
0.0
40
0.500000000000
100
AcDbArc
50
180.000000000000
51
225.000000000000
0
ARC
5
7f3
100
AcDbEntity
8
0-1
6
PHANTOM
62
4
100
AcDbCircle
10
8.292893409729
20
212.500000000000
30
0.0
40
0.500000000000
100
AcDbArc
50
270.000000000000
51
315.000000000000
0
ARC
5
7f4
100
AcDbEntity
8
0-1
6
PHANTOM
62
4
100
AcDbCircle
10
9.500000000000
20
213.707107543945
30
0.0
40
0.500000000000
100
AcDbArc
50
315.000000000000
51
360.000000000000
0
ARC
5
7f5
100
AcDbEntity
8
0-1
6
PHANTOM
62
4
100
AcDbCircle
10
9.500000000000
20
226.292893409729
30
0.0
40
0.500000000000
100
AcDbArc
50
0.000000000000
51
45.000000000000
0
ARC
5
7f6
100
AcDbEntity
8
0-1
6
PHANTOM
62
4
100
AcDbCircle
10
8.292893409729
20
227.500000000000
30
0.0
40
0.500000000000
100
AcDbArc
50
45.000000000000
51
90.000000000000
0
LINE
5
7f7
100
AcDbEntity
8
0-1
6
PHANTOM
62
4
100
AcDbLine
10
30.000000000000
20
213.707107543945
30
0.0
11
30.000000000000
21
226.292893409729
31
0.0
0
LINE
5
7f8
100
AcDbEntity
8
0-1
6
PHANTOM
62
4
100
AcDbLine
10
10.000000000000
20
213.707107543945
30
0.0
11
10.000000000000
21
226.292893409729
31
0.0
0
LINE
5
7f9
100
AcDbEntity
8
0-0
6
CONTINUOUS
62
7
100
AcDbLine
10
-2.119742541288
20
227.771010301803
30
0.0
11
-3.969846310393
21
222.687891972540
31
0.0
0
LINE
5
7fa
100
AcDbEntity
8
0-0
6
CONTINUOUS
62
7
100
AcDbLine
10
-4.000000000000
20
222.516881900876
30
0.0
11
-4.000000000000
21
215.834632107730
31
0.0
0
LINE
5
7fb
100
AcDbEntity
8
0-0
6
CONTINUOUS
62
7
100
AcDbLine
10
-3.969846310393
20
215.663622036067
30
0.0
11
-2.719742541288
21
212.228990158477
31
0.0
0
LINE
5
7fc
100
AcDbEntity
8
0-0
6
CONTINUOUS
62
7
100
AcDbLine
10
-2.249896230895
20
211.900000230140
30
0.0
11
-1.600000000000
21
211.900000230140
31
0.0
0
LINE
5
7fd
100
AcDbEntity
8
0-0
6
CONTINUOUS
62
7
100
AcDbLine
10
-0.600000000000
20
212.900000230140
30
0.0
11
-0.600000000000
21
214.192893448934
31
0.0
0
LINE
5
7fe
100
AcDbEntity
8
0-0
6
CONTINUOUS
62
7
100
AcDbLine
10
-0.746446609407
20
214.546446839528
30
0.0
11
-1.338746796937
21
215.138747027058
31
0.0
0
LINE
5
7ff
100
AcDbEntity
8
0-0
6
CONTINUOUS
62
7
100
AcDbLine
10
-0.821314991799
20
216.827700743088
30
0.0
11
6.533173159721
21
218.248454135995
31
0.0
0
LINE
5
800
100
AcDbEntity
8
0-0
6
CONTINUOUS
62
7
100
AcDbLine
10
6.619815283215
20
219.473382033342
30
0.0
11
-0.853858766241
21
218.369316548763
31
0.0
0
LINE
5
801
100
AcDbEntity
8
0-0
6
CONTINUOUS
62
7
100
AcDbLine
10
-2.000000000000
20
219.358580284981
30
0.0
11
-2.000000000000
21
221.597318395067
31
0.0
0
LINE
5
802
100
AcDbEntity
8
0-0
6
CONTINUOUS
62
7
100
AcDbLine
10
-1.102028865499
20
222.592099833678
30
0.0
11
1.776751364268
21
222.887359344424
31
0.0
0
LINE
5
803
100
AcDbEntity
8
0-0
6
CONTINUOUS
62
7
100
AcDbLine
10
2.003087029631
20
222.968724916560
30
0.0
11
4.977350098113
21
224.951566962215
31
0.0
0
LINE
5
804
100
AcDbEntity
8
0-0
6
CONTINUOUS
62
7
100
AcDbLine
10
5.200000000000
20
225.367592109384
30
0.0
11
5.200000000000
21
225.900000230140
31
0.0
0
LINE
5
805
100
AcDbEntity
8
0-0
6
CONTINUOUS
62
7
100
AcDbLine
10
4.700000000000
20
226.400000230140
30
0.0
11
4.300000000000
21
226.400000230140
31
0.0
0
POLYLINE
5
806
100
AcDbEntity
8
0-0
6
CONTINUOUS
62
  7
100
AcDb2dPolyline
66
1
10
0.0
20
0.0
30
0.0
70
0
0
VERTEX
5
807
100
AcDbEntity
8
0-0
6
CONTINUOUS
62
  7
100
AcDbVertex
100
AcDb2dVertex
10
3.800000000000
20
225.900000230140
30
0.0
0
VERTEX
5
808
100
AcDbEntity
8
0-0
6
CONTINUOUS
62
  7
100
AcDbVertex
100
AcDb2dVertex
10
3.800000000000
20
225.800000230140
30
0.0
0
VERTEX
5
809
100
AcDbEntity
8
0-0
6
CONTINUOUS
62
  7
100
AcDbVertex
100
AcDb2dVertex
10
1.505572809000
20
224.652786634640
30
0.0
0
SEQEND
5
80a
100
AcDbEntity
8
0-0
0
LINE
5
80b
100
AcDbEntity
8
0-0
6
CONTINUOUS
62
7
100
AcDbLine
10
1.281966011250
20
224.600000230140
30
0.0
11
0.500000000000
21
224.600000230140
31
0.0
0
LINE
5
80c
100
AcDbEntity
8
0-0
6
CONTINUOUS
62
7
100
AcDbLine
10
0.000000000000
20
225.100000230140
30
0.0
11
0.000000000000
21
227.100000230140
31
0.0
0
LINE
5
80d
100
AcDbEntity
8
0-0
6
CONTINUOUS
62
7
100
AcDbLine
10
-1.000000000000
20
228.100000230140
30
0.0
11
-1.649896230895
21
228.100000230140
31
0.0
0
ARC
5
80e
100
AcDbEntity
8
0-0
6
CONTINUOUS
62
7
100
AcDbCircle
10
4.300000000000
20
225.900000230140
30
0.0
40
0.500000000000
100
AcDbArc
50
90.000000000000
51
180.000000000000
0
ARC
5
80f
100
AcDbEntity
8
0-0
6
CONTINUOUS
62
7
100
AcDbCircle
10
-1.000000000000
20
227.100000230140
30
0.0
40
1.000000000000
100
AcDbArc
50
0.000000000000
51
90.000000000000
0
ARC
5
810
100
AcDbEntity
8
0-0
6
CONTINUOUS
62
7
100
AcDbCircle
10
-1.600000000000
20
212.900000230140
30
0.0
40
1.000000000000
100
AcDbArc
50
270.000000000000
51
360.000000000000
0
ARC
5
811
100
AcDbEntity
8
0-0
6
CONTINUOUS
62
7
100
AcDbCircle
10
-1.649896230895
20
227.600000230140
30
0.0
40
0.500000000000
100
AcDbArc
50
90.000000000000
51
160.000000000000
0
ARC
5
812
100
AcDbEntity
8
0-0
6
CONTINUOUS
62
7
100
AcDbCircle
10
-2.249896230895
20
212.400000230140
30
0.0
40
0.500000000000
100
AcDbArc
50
200.000000000000
51
270.000000000000
0
ARC
5
813
100
AcDbEntity
8
0-0
6
CONTINUOUS
62
7
100
AcDbCircle
10
-3.500000000000
20
215.834632107730
30
0.0
40
0.500000000000
100
AcDbArc
50
180.000000000000
51
200.000000000000
0
ARC
5
814
100
AcDbEntity
8
0-0
6
CONTINUOUS
62
7
100
AcDbCircle
10
-3.500000000000
20
222.516881900876
30
0.0
40
0.500000000000
100
AcDbArc
50
160.000000000000
51
180.000000000000
0
ARC
5
815
100
AcDbEntity
8
0-0
6
CONTINUOUS
62
7
100
AcDbCircle
10
4.700000000000
20
225.900000230140
30
0.0
40
0.500000000000
100
AcDbArc
50
0.000000000000
51
90.000000000000
0
ARC
5
816
100
AcDbEntity
8
0-0
6
CONTINUOUS
62
7
100
AcDbCircle
10
4.700000000000
20
225.367592109384
30
0.0
40
0.500000000000
100
AcDbArc
50
303.690067525981
51
360.000000000000
0
ARC
5
817
100
AcDbEntity
8
0-0
6
CONTINUOUS
62
7
100
AcDbCircle
10
1.725736931518
20
223.384750063729
30
0.0
40
0.500000000000
100
AcDbArc
50
275.856013585429
51
303.690067525980
0
ARC
5
818
100
AcDbEntity
8
0-0
6
CONTINUOUS
62
7
100
AcDbCircle
10
0.500000000000
20
225.100000230140
30
0.0
40
0.500000000000
100
AcDbArc
50
180.000000000000
51
270.000000000000
0
ARC
5
819
100
AcDbEntity
8
0-0
6
CONTINUOUS
62
7
100
AcDbCircle
10
1.281966011250
20
225.100000230140
30
0.0
40
0.500000000000
100
AcDbArc
50
270.000000000000
51
296.565051177080
0
ARC
5
81a
100
AcDbEntity
8
0-0
6
CONTINUOUS
62
7
100
AcDbCircle
10
-1.000000000000
20
221.597318395067
30
0.0
40
1.000000000000
100
AcDbArc
50
95.856013585428
51
180.000000000000
0
ARC
5
81b
100
AcDbEntity
8
0-0
6
CONTINUOUS
62
7
100
AcDbCircle
10
-1.000000000000
20
219.358580284981
30
0.0
40
1.000000000000
100
AcDbArc
50
180.000000000000
51
278.403371090561
0
ARC
5
81c
100
AcDbEntity
8
0-0
6
CONTINUOUS
62
7
100
AcDbCircle
10
6.628010647746
20
217.757530668574
30
0.0
40
0.500000000000
100
AcDbArc
50
49.609554374973
51
100.933816785767
0
ARC
5
81d
100
AcDbEntity
8
0-0
6
CONTINUOUS
62
7
100
AcDbCircle
10
7.600000000000
20
218.900000230140
30
0.0
40
1.000000000000
100
AcDbArc
50
229.609554374983
51
494.601381618823
0
ARC
5
81e
100
AcDbEntity
8
0-0
6
CONTINUOUS
62
7
100
AcDbCircle
10
6.546744666336
20
219.968013901451
30
0.0
40
0.500000000000
100
AcDbArc
50
278.403371090559
51
314.601381618827
0
ARC
5
81f
100
AcDbEntity
8
0-0
6
CONTINUOUS
62
7
100
AcDbCircle
10
-1.100000000000
20
214.192893448934
30
0.0
40
0.500000000000
100
AcDbArc
50
0.000000000000
51
45.000000000000
0
ARC
5
820
100
AcDbEntity
8
0-0
6
CONTINUOUS
62
7
100
AcDbCircle
10
-0.631640015750
20
215.845853808245
30
0.0
40
1.000000000000
100
AcDbArc
50
100.933816785756
51
225.000000000000
0
CIRCLE
5
821
100
AcDbEntity
8
0-0
6
CONTINUOUS
62
7
100
AcDbCircle
10
6.667418021619
20
215.300000000000
30
0.0
40
3.000000000000
0
LINE
5
822
100
AcDbEntity
8
0-1
6
PHANTOM
62
4
100
AcDbLine
10
0.000000000000
20
238.500000000000
30
0.0
11
0.000000000000
21
201.500000000000
31
0.0
0
LINE
5
823
100
AcDbEntity
8
0-1
6
CENTER
62
4
100
AcDbLine
10
499.716064689744
20
41.702149494042
30
0.0
11
529.716064689744
21
41.702149494042
31
0.0
0
LINE
5
824
100
AcDbEntity
8
0-1
6
PHANTOM
62
4
100
AcDbLine
10
198.987975260122
20
220.000000000000
30
0.0
11
-7.532346953344
21
220.000000000000
31
0.0
0
LINE
5
825
100
AcDbEntity
8
0-1
6
CENTER
62
4
100
AcDbLine
10
3.667418021619
20
215.300000000000
30
0.0
11
9.433452889052
21
215.300000000000
31
0.0
0
LINE
5
826
100
AcDbEntity
8
0-1
6
CENTER
62
4
100
AcDbLine
10
6.667418021619
20
218.300000000000
30
0.0
11
6.667418021619
21
212.300000000000
31
0.0
0
TEXT
5
827
100
AcDbEntity
8
0-0
62
7
370
-3
100
AcDbText
10
-16.003
20
222.547
30
0.0
40
4.208
1
RC06
41
0.533
50
0.000
100
AcDbText
0
TEXT
5
828
100
AcDbEntity
8
0-0
62
7
370
-3
100
AcDbText
10
12.312
20
212.917
30
0.0
40
4.208
1
FB06
41
0.535
50
0.000
100
AcDbText
0
TEXT
5
829
100
AcDbEntity
8
0-0
62
7
370
-3
100
AcDbText
10
3.318
20
4.146
30
0.0
40
3.618
1
CE30
41
0.399
50
0.000
100
AcDbText
0
TEXT
5
82a
100
AcDbEntity
8
0-0
62
7
370
-3
100
AcDbText
10
202.683
20
3.156
30
0.0
40
3.618
1
CE31
41
0.423
50
0.000
100
AcDbText
0
TEXT
5
82b
100
AcDbEntity
8
0-0
62
7
370
-3
100
AcDbText
10
453.630
20
4.203
30
0.0
40
3.618
1
CE32
41
0.370
50
0.000
100
AcDbText
0
TEXT
5
82c
100
AcDbEntity
8
0-0
62
7
370
-3
100
AcDbText
10
702.108
20
2.168
30
0.0
40
3.618
1
CE33
41
0.381
50
0.000
100
AcDbText
0
LINE
5
82d
100
AcDbEntity
8
F-F_J_ADD
6
HIDDEN
62
253
100
AcDbLine
10
1126.953106789538
20
200.000000000000
30
0.0
11
0.000000000000
21
200.000000000000
31
0.0
0
LINE
5
82e
100
AcDbEntity
8
F-F_J_ADD
6
HIDDEN
62
253
100
AcDbLine
10
0.000000000000
20
301.386715679631
30
0.0
11
0.000000000000
21
0.000000000000
31
0.0
0
TEXT
5
82f
100
AcDbEntity
8
F-F_J_ADD
62
253
370
-3
100
AcDbText
10
594.620
20
-579.040
30
0.0
40
2.525
41
0.695
50
0.000
1
Printer_Orientation = 0
72
2
11
634.750
21
-576.000
31
0.0
100
AcDbText
73
3
0
TEXT
5
830
100
AcDbEntity
8
F-F_J_ADD
62
253
370
-3
100
AcDbText
10
594.620
20
-579.040
30
0.0
40
2.525
41
0.676
50
0.000
1
Printer_PaperSize = 0
72
2
11
631.250
21
-576.000
31
0.0
100
AcDbText
73
3
0
TEXT
5
831
100
AcDbEntity
8
F-F_J_ADD
62
253
370
-3
100
AcDbText
10
594.620
20
-579.040
30
0.0
40
2.525
41
0.656
50
0.000
1
Printer_D2dBMP = 0
72
2
11
626.000
21
-576.000
31
0.0
100
AcDbText
73
3
0
TEXT
5
832
100
AcDbEntity
8
F-F_J_ADD
62
253
370
-3
100
AcDbText
10
594.620
20
-579.040
30
0.0
40
2.525
41
0.662
50
0.000
1
Printer_BmpZENTAI = 0
72
2
11
631.250
21
-576.000
31
0.0
100
AcDbText
73
3
0
TEXT
5
833
100
AcDbEntity
8
F-F_J_ADD
62
253
370
-3
100
AcDbText
10
594.620
20
-579.040
30
0.0
40
2.525
41
0.691
50
0.000
1
View_Direct2d = 1
72
2
11
624.250
21
-576.000
31
0.0
100
AcDbText
73
3
0
TEXT
5
834
100
AcDbEntity
8
F-F_J_ADD
62
253
370
-3
100
AcDbText
10
594.620
20
-579.040
30
0.0
40
2.525
41
0.652
50
0.000
1
Draw_BmpTOUKA = 1
72
2
11
624.250
21
-576.000
31
0.0
100
AcDbText
73
3
0
ENDSEC
 0
SECTION
  2
OBJECTS
 0
DICTIONARY
  5
C
100
AcDbDictionary
  3
ACAD_GROUP
350
D
  3
ACAD_MLINESTYLE
350
E
 0
DICTIONARY
  5
D
102
{ACAD_REACTORS
102
}
100
AcDbDictionary
 0
DICTIONARY
  5
E
102
{ACAD_REACTORS
102
}
100
AcDbDictionary
  3
STANDARD
350
13
0
MLINESTYLE
  5
13
102
{ACAD_REACTORS
102
}
100
AcDbMlineStyle
  2
STANDARD
 70
    0
3

62
256
51
90.0
52
90.0
71
0
0
ACDBPLACEHOLDER
  5
14
102
{ACAD_REACTORS
102
}
0
ENDSEC
0
EOF
