0
SECTION
2
HEADER
9
$ACADVER
1
AC1015
9
$ACADMAINTVER
 70
6
9
$DWGCODEPAGE
3
ANSI_932
9
$EXTMIN
10
0.000
20
0.000
30
0.0
9
$EXTMAX
10
1189.000
20
841.000
30
0.0
9
$LIMMIN
10
0.000
20
0.000
9
$LIMMAX
10
1189.000
20
841.000
9
$DIMSCALE
40
1.000000
9
$LTSCALE
40
2.000
9
$PDMODE
70
0
9
$PDSIZE
40
40.0
9
$HANDSEED
5
61bac
9
$UNITMODE
70
0
9
$VISRETAIN
70
0
9
$PLINEGEN
70
0
9
$PSLTSCALE
70
1
9
$TREEDEPTH
70
3020
9
$CMLSTYLE
2
STANDARD
9
$CMLJUST
70
0
9
$CMLSCALE
40
1.0
9
$PROXYGRAPHICS
70
1
9
$MEASUREMENT
70
0
9
$CELWEIGHT
370
-1
9
$ENDCAPS
280
0
9
$JOINSTYLE
280
0
9
$LWDISPLAY
290
0
9
$INSUNITS
70
0
9
$HYPERLINKBASE
1

9
$STYLESHEET
1

9
$XEDIT
290
1
9
$CEPSNTYPE
380
0
9
$PSTYLEMODE
290
1
9
$FINGERPRINTGUID
2
{5F082321-0195-11D3-BDFB-0060B0CD5109}
9
$VERSIONGUID
2
{12943756-294D-11D3-98C2-0060B087942D}
9
$EXTNAMES
290
1
9
$PSVPSCALE
40
0.0
9
$OLESTARTUP
290
0
0
ENDSEC
0
SECTION
  2
CLASSES
0
ENDSEC
0
SECTION
2
TABLES
0
TABLE
2
VPORT
5
190
100
AcDbSymbolTable
70
2
0
VPORT
5
191
100
AcDbSymbolTableRecord
100
AcDbViewportTableRecord
2
*ACTIVE
70
0
10
0.0
20
0.0
11
1.0
21
1.0
12
594.500
22
420.500
13
0.0
23
0.0
14
1.0
24
1.0
15
0.0
25
0.0
16
0.0
26
0.0
36
1.0
17
0.0
27
0.0
37
0.0
40
861.594
41
2.0
42
50.0
43
0.0
44
0.0
50
0.0
51
0.0
71
0
72
1000
73
1
74
1
75
0
76
0
77
0
78
0
0
ENDTAB
0
TABLE
2
LTYPE
5
1f4
100
AcDbSymbolTable
70
9
0
LTYPE
5
1f5
100
AcDbSymbolTableRecord
100
AcDbLinetypeTableRecord
2
BYBLOCK
70
 64
3

72
 65
73
  0
40
0.0
0
LTYPE
5
1f6
100
AcDbSymbolTableRecord
100
AcDbLinetypeTableRecord
2
BYLAYER
70
 64
3

72
 65
73
  0
40
0.0
0
LTYPE
5
1f7
100
AcDbSymbolTableRecord
100
AcDbLinetypeTableRecord
2
CONTINUOUS
70
64
3
SolidLine
72
65
73
0
40
0.0
0
LTYPE
5
1f8
100
AcDbSymbolTableRecord
100
AcDbLinetypeTableRecord
2
DOT
70
64
3
--  --  --  --  --  --  --  --     
72
65
73
2
40
3.000
49
1.000
74
0
49
-2.000
74
0
0
LTYPE
5
1f9
100
AcDbSymbolTableRecord
100
AcDbLinetypeTableRecord
2
DASHED
70
64
3
----    ----    ----    ----    
72
65
73
2
40
5.000
49
2.000
74
0
49
-3.000
74
0
0
LTYPE
5
1fa
100
AcDbSymbolTableRecord
100
AcDbLinetypeTableRecord
2
DASHED2
70
64
3
------  ------  ------  ------ 
72
65
73
2
40
10.000
49
4.000
74
0
49
-6.000
74
0
0
LTYPE
5
1fb
100
AcDbSymbolTableRecord
100
AcDbLinetypeTableRecord
2
CENTER
70
64
3
----- - ----- - ----- - ----- - 
72
65
73
4
40
10.000
49
6.000
74
0
49
-3.000
74
0
49
1.000
74
0
49
-3.000
74
0
0
LTYPE
5
1fc
100
AcDbSymbolTableRecord
100
AcDbLinetypeTableRecord
2
CENTER2
70
64
3
----------  --  ----------  -- 
72
65
73
4
40
17.000
49
12.000
74
0
49
-5.000
74
0
49
2.000
74
0
49
-5.000
74
0
0
LTYPE
5
1fd
100
AcDbSymbolTableRecord
100
AcDbLinetypeTableRecord
2
PHANTOM
70
64
3
--- - - --- - - --- - - --- - -
72
65
73
6
40
13.000
49
5.000
74
0
49
-3.000
74
0
49
1.000
74
0
49
-3.000
74
0
49
1.000
74
0
49
-3.000
74
0
0
LTYPE
5
1fe
100
AcDbSymbolTableRecord
100
AcDbLinetypeTableRecord
2
PHANTOM2
70
64
3
--------  -  -  --------  -  -
72
65
73
6
40
20.000
49
6.000
74
0
49
-5.000
74
0
49
2.000
74
0
49
-5.000
74
0
49
2.000
74
0
49
-5.000
74
0
0
LTYPE
5
1ff
100
AcDbSymbolTableRecord
100
AcDbLinetypeTableRecord
2
HIDDEN
70
64
3
-   -   -   -   -   -   -   -   
72
65
73
2
40
3.000
49
0.500
74
0
49
-2.500
74
0
0
ENDTAB
0
TABLE
2
STYLE
5
200
100
AcDbSymbolTable
70
1
0
STYLE
5
201
100
AcDbSymbolTableRecord
100
AcDbTextStyleTableRecord
2
STANDARD
70
0
40
0.0
41
1.0
50
0.0
71
0
42
0.0
3
txt.shx
4
extfont.shx
0
STYLE
5
202
100
AcDbSymbolTableRecord
100
AcDbTextStyleTableRecord
2
TATEGAKI
70
4
40
0.0
41
1.0
50
0.0
71
0
42
0.0
3
txt.shx
4
extfont.shx
0
STYLE
5
203
100
AcDbSymbolTableRecord
100
AcDbTextStyleTableRecord
2
DIM
70
0
40
0.0
41
0.75
50
0.0
71
0
42
0.0
3
txt.shx
4
extfont.shx
0
STYLE
5
204
100
AcDbSymbolTableRecord
100
AcDbTextStyleTableRecord
2
_Gothic_
70
0
40
1.0
41
1.0
50
0.0
71
0
42
10.0
3

4

1001
ACAD
1000
MS Gothic
1071
32817
0
STYLE
5
205
100
AcDbSymbolTableRecord
100
AcDbTextStyleTableRecord
2
_TateGothic_
70
4
40
0.0
41
1.0
50
0.0
71
0
42
0.0
3
@MS Gothic
4

0
ENDTAB
0
TABLE
2
VIEW
5
206
100
AcDbSymbolTable
70
0
0
ENDTAB
0
TABLE
2
UCS
5
207
100
AcDbSymbolTable
70
0
0
ENDTAB
0
TABLE
2
APPID
5
208
100
AcDbSymbolTable
70
1
0
APPID
5
209
100
AcDbSymbolTableRecord
100
AcDbRegAppTableRecord
2
ACAD
70
0
0
ENDTAB
0
TABLE
2
DIMSTYLE
5
403
330
0
100
AcDbSymbolTable
70
1
100
AcDbDimStyleTable
71
0
0
DIMSTYLE
105
404
330
402
100
AcDbSymbolTableRecord
100
AcDbDimStyleTableRecord
2
JAC_DIM
70
0
41
2.000
42
0.000
44
0.0
73
0
74
0
77
1
78
8
79
2
140
0.000
170
0
171
2
172
0
173
0
174
0
175
0
176
0
177
0
178
0
270
2
271
0
272
0
273
2
274
2
340
201
275
0
280
0
281
0
282
0
283
0
284
0
285
0
286
0
287
3
288
0
0
ENDTAB
0
TABLE
2
BLOCK_RECORD
5
405
100
AcDbSymbolTable
70
0
0
BLOCK_RECORD
5
406
100
AcDbSymbolTableRecord
100
AcDbBlockTableRecord
2
*MODEL_SPACE
0
BLOCK_RECORD
5
407
100
AcDbSymbolTableRecord
100
AcDbBlockTableRecord
2
*PAPER_SPACE
0
BLOCK_RECORD
5
408
100
AcDbSymbolTableRecord
100
AcDbBlockTableRecord
2
_JACCONVERT_
0
ENDTAB
0
TABLE
2
LAYER
5
409
100
AcDbSymbolTable
70
10
0
LAYER
5
40a
100
AcDbSymbolTableRecord
100
AcDbLayerTableRecord
2
0
70
0
62
7
6
CONTINUOUS
370
-3
390
14
0
LAYER
5
40b
100
AcDbSymbolTableRecord
100
AcDbLayerTableRecord
2
0-0
70
0
62
7
6
CONTINUOUS
370
-3
390
14
0
LAYER
5
40c
100
AcDbSymbolTableRecord
100
AcDbLayerTableRecord
2
0-1
70
0
62
7
6
CONTINUOUS
370
-3
390
14
0
LAYER
5
40d
100
AcDbSymbolTableRecord
100
AcDbLayerTableRecord
2
0-F
70
0
62
7
6
CONTINUOUS
370
-3
390
14
0
LAYER
5
40e
100
AcDbSymbolTableRecord
100
AcDbLayerTableRecord
2
F-F_J_ADD
70
0
62
-7
6
CONTINUOUS
290
0
370
-3
390
14
0
ENDTAB
0
ENDSEC
0
SECTION
2
BLOCKS
0
BLOCK
5
40f
100
AcDbEntity
67
1
8
0
100
AcDbBlockBegin
2
*MODEL_SPACE
70
0
10
0.0
20
0.0
30
0.0
3
*MODEL_SPACE
1

0
ENDBLK
5
410
100
AcDbEntity
8
0
100
AcDbBlockEnd
0
BLOCK
5
411
100
AcDbEntity
67
1
8
0
100
AcDbBlockBegin
2
*PAPER_SPACE
70
0
10
0.0
20
0.0
30
0.0
3
*PAPER_SPACE
1

0
ENDBLK
5
412
100
AcDbEntity
67
1
8
0
100
AcDbBlockEnd
0
BLOCK
5
413
100
AcDbEntity
8
0
100
AcDbBlockBegin
2
_JACCONVERT_
70
2
10
0.0
20
0.0
30
0.0
3
_JACCONVERT_
1
_JACCONVERT_
0
ATTDEF
5
414
100
AcDbEntity
8
0
62
0
100
AcDbText
10
0.0
20
0.0
30
0.0
40
1.0
1
User:UnSettingUp
100
AcDbAttributeDefinition
3

2
USER
70
8
0
ATTDEF
5
415
100
AcDbEntity
8
0
62
0
100
AcDbText
10
0.0
20
2.0
30
0.0
40
1.0
1
Date:23/07/14 16:41
100
AcDbAttributeDefinition
3

2
REVDATE
70
8
0
ATTDEF
5
416
100
AcDbEntity
8
0
62
0
100
AcDbText
10
0.0
20
4.0
30
0.0
40
1.0
1
File:209_LECO40-25_foot_rubberfoot.dxf
100
AcDbAttributeDefinition
3

2
FNAME
70
8
0
ATTDEF
5
417
100
AcDbEntity
8
0
62
0
100
AcDbText
10
0.0
20
6.0
30
0.0
40
1.0
1
JacConvert Version3.11 copyright (c) 2001-2016 K.Nakahara
100
AcDbAttributeDefinition
3

2
VER
70
8
0
ENDBLK
5
418
100
AcDbEntity
67
1
8
0
100
AcDbBlockEnd
0
ENDSEC
0
SECTION
2
ENTITIES
0
LINE
5
419
100
AcDbEntity
8
F-F_J_ADD
6
HIDDEN
62
253
100
AcDbLine
10
30.000000000000
20
0.000000000000
30
0.0
11
30.000000000000
21
100.000000000000
31
0.0
0
LINE
5
41a
100
AcDbEntity
8
F-F_J_ADD
6
HIDDEN
62
253
100
AcDbLine
10
90.000000000000
20
0.000000000000
30
0.0
11
90.000000000000
21
100.000000000000
31
0.0
0
LINE
5
41b
100
AcDbEntity
8
F-F_J_ADD
6
HIDDEN
62
253
100
AcDbLine
10
150.000000000000
20
0.000000000000
30
0.0
11
150.000000000000
21
100.000000000000
31
0.0
0
LINE
5
41c
100
AcDbEntity
8
F-F_J_ADD
6
HIDDEN
62
253
100
AcDbLine
10
210.000000000000
20
0.000000000000
30
0.0
11
210.000000000000
21
100.000000000000
31
0.0
0
LINE
5
41d
100
AcDbEntity
8
F-F_J_ADD
6
HIDDEN
62
253
100
AcDbLine
10
270.000000000000
20
0.000000000000
30
0.0
11
270.000000000000
21
100.000000000000
31
0.0
0
LINE
5
41e
100
AcDbEntity
8
F-F_J_ADD
6
HIDDEN
62
253
100
AcDbLine
10
330.000000000000
20
0.000000000000
30
0.0
11
330.000000000000
21
100.000000000000
31
0.0
0
POLYLINE
5
41f
100
AcDbEntity
8
0-0
6
CONTINUOUS
62
  7
100
AcDb2dPolyline
66
1
10
0.0
20
0.0
30
0.0
70
0
0
VERTEX
5
420
100
AcDbEntity
8
0-0
6
CONTINUOUS
62
  7
100
AcDbVertex
100
AcDb2dVertex
10
41.500000000000
20
81.884732410180
30
0.0
0
VERTEX
5
421
100
AcDbEntity
8
0-0
6
CONTINUOUS
62
  7
100
AcDbVertex
100
AcDb2dVertex
10
18.500000000000
20
81.884732410180
30
0.0
0
VERTEX
5
422
100
AcDbEntity
8
0-0
6
CONTINUOUS
62
  7
100
AcDbVertex
100
AcDb2dVertex
10
18.737188000000
20
72.871578410180
30
0.0
0
SEQEND
5
423
100
AcDbEntity
8
0-0
0
LINE
5
424
100
AcDbEntity
8
0-0
6
CONTINUOUS
62
7
100
AcDbLine
10
19.237015000000
20
72.384732410180
30
0.0
11
40.762985000000
21
72.384732410180
31
0.0
0
POLYLINE
5
425
100
AcDbEntity
8
0-0
6
CONTINUOUS
62
  7
100
AcDb2dPolyline
66
1
10
0.0
20
0.0
30
0.0
70
0
0
VERTEX
5
426
100
AcDbEntity
8
0-0
6
CONTINUOUS
62
  7
100
AcDbVertex
100
AcDb2dVertex
10
40.000000000000
20
72.384732410180
30
0.0
0
VERTEX
5
427
100
AcDbEntity
8
0-0
6
CONTINUOUS
62
  7
100
AcDbVertex
100
AcDb2dVertex
10
40.000000000000
20
70.384732410180
30
0.0
0
VERTEX
5
428
100
AcDbEntity
8
0-0
6
CONTINUOUS
62
  7
100
AcDbVertex
100
AcDb2dVertex
10
20.000000000000
20
70.384732410180
30
0.0
0
VERTEX
5
429
100
AcDbEntity
8
0-0
6
CONTINUOUS
62
  7
100
AcDbVertex
100
AcDb2dVertex
10
20.000000000000
20
72.384732410180
30
0.0
0
SEQEND
5
42a
100
AcDbEntity
8
0-0
0
LINE
5
42b
100
AcDbEntity
8
0-0
6
CONTINUOUS
62
7
100
AcDbLine
10
41.500000000000
20
81.884732410180
30
0.0
11
41.262812000000
21
72.871578410180
31
0.0
0
ARC
5
42c
100
AcDbEntity
8
0-0
6
CONTINUOUS
62
7
100
AcDbCircle
10
19.237015000000
20
72.884732410180
30
0.0
40
0.500000000000
100
AcDbArc
50
181.507436000000
51
270.000000000000
0
ARC
5
42d
100
AcDbEntity
8
0-0
6
CONTINUOUS
62
7
100
AcDbCircle
10
40.762985000000
20
72.884732410180
30
0.0
40
0.500000000000
100
AcDbArc
50
270.000000000000
51
358.492564000000
0
CIRCLE
5
42e
100
AcDbEntity
8
0-0
6
CONTINUOUS
62
7
100
AcDbCircle
10
30.000000000000
20
29.999999999962
30
0.0
40
4.500000000000
0
CIRCLE
5
42f
100
AcDbEntity
8
0-0
6
CONTINUOUS
62
7
100
AcDbCircle
10
30.000000000000
20
29.999999999962
30
0.0
40
2.150000000000
0
CIRCLE
5
430
100
AcDbEntity
8
0-0
6
CONTINUOUS
62
7
100
AcDbCircle
10
30.000000000000
20
29.999999999962
30
0.0
40
11.250000000000
0
CIRCLE
5
431
100
AcDbEntity
8
0-0
6
CONTINUOUS
62
7
100
AcDbCircle
10
30.000000000000
20
29.999999999962
30
0.0
40
10.000000000000
0
CIRCLE
5
432
100
AcDbEntity
8
0-0
6
CONTINUOUS
62
7
100
AcDbCircle
10
30.000000000000
20
29.999999999962
30
0.0
40
11.500000000000
0
POLYLINE
5
433
100
AcDbEntity
8
0-1
6
DASHED
62
  4
100
AcDb2dPolyline
66
1
10
0.0
20
0.0
30
0.0
70
0
0
VERTEX
5
434
100
AcDbEntity
8
0-1
6
DASHED
62
  4
100
AcDbVertex
100
AcDb2dVertex
10
25.500000000000
20
70.384732410180
30
0.0
0
VERTEX
5
435
100
AcDbEntity
8
0-1
6
DASHED
62
  4
100
AcDbVertex
100
AcDb2dVertex
10
25.500000000000
20
77.884732410180
30
0.0
0
VERTEX
5
436
100
AcDbEntity
8
0-1
6
DASHED
62
  4
100
AcDbVertex
100
AcDb2dVertex
10
34.500000000000
20
77.884732410180
30
0.0
0
VERTEX
5
437
100
AcDbEntity
8
0-1
6
DASHED
62
  4
100
AcDbVertex
100
AcDb2dVertex
10
34.500000000000
20
70.384732410180
30
0.0
0
SEQEND
5
438
100
AcDbEntity
8
0-1
0
LINE
5
439
100
AcDbEntity
8
0-1
6
DASHED
62
4
100
AcDbLine
10
27.850000000000
20
81.884732410180
30
0.0
11
27.850000000000
21
77.884732410180
31
0.0
0
LINE
5
43a
100
AcDbEntity
8
0-1
6
DASHED
62
4
100
AcDbLine
10
32.150000000000
20
77.884732410180
30
0.0
11
32.150000000000
21
81.884732410180
31
0.0
0
LINE
5
43b
100
AcDbEntity
8
0-1
6
CENTER
62
4
100
AcDbLine
10
30.000000000000
20
70.384732410180
30
0.0
11
30.000000000000
21
81.884732410180
31
0.0
0
LINE
5
43c
100
AcDbEntity
8
0-1
6
CENTER
62
4
100
AcDbLine
10
30.000000000000
20
41.499999999962
30
0.0
11
30.000000000000
21
18.499999999962
31
0.0
0
LINE
5
43d
100
AcDbEntity
8
0-1
6
CENTER
62
4
100
AcDbLine
10
18.500000000000
20
29.999999999962
30
0.0
11
41.500000000000
21
29.999999999962
31
0.0
0
POLYLINE
5
43e
100
AcDbEntity
8
0-0
6
CONTINUOUS
62
  7
100
AcDb2dPolyline
66
1
10
0.0
20
0.0
30
0.0
70
0
0
VERTEX
5
43f
100
AcDbEntity
8
0-0
6
CONTINUOUS
62
  7
100
AcDbVertex
100
AcDb2dVertex
10
101.500000000000
20
81.884732410218
30
0.0
0
VERTEX
5
440
100
AcDbEntity
8
0-0
6
CONTINUOUS
62
  7
100
AcDbVertex
100
AcDb2dVertex
10
78.500000000000
20
81.884732410218
30
0.0
0
VERTEX
5
441
100
AcDbEntity
8
0-0
6
CONTINUOUS
62
  7
100
AcDbVertex
100
AcDb2dVertex
10
78.737188000000
20
72.871578410218
30
0.0
0
SEQEND
5
442
100
AcDbEntity
8
0-0
0
LINE
5
443
100
AcDbEntity
8
0-0
6
CONTINUOUS
62
7
100
AcDbLine
10
79.237015000000
20
72.384732410218
30
0.0
11
100.762985000000
21
72.384732410218
31
0.0
0
POLYLINE
5
444
100
AcDbEntity
8
0-0
6
CONTINUOUS
62
  7
100
AcDb2dPolyline
66
1
10
0.0
20
0.0
30
0.0
70
0
0
VERTEX
5
445
100
AcDbEntity
8
0-0
6
CONTINUOUS
62
  7
100
AcDbVertex
100
AcDb2dVertex
10
100.000000000000
20
72.384732410218
30
0.0
0
VERTEX
5
446
100
AcDbEntity
8
0-0
6
CONTINUOUS
62
  7
100
AcDbVertex
100
AcDb2dVertex
10
100.000000000000
20
70.384732410218
30
0.0
0
VERTEX
5
447
100
AcDbEntity
8
0-0
6
CONTINUOUS
62
  7
100
AcDbVertex
100
AcDb2dVertex
10
80.000000000000
20
70.384732410218
30
0.0
0
VERTEX
5
448
100
AcDbEntity
8
0-0
6
CONTINUOUS
62
  7
100
AcDbVertex
100
AcDb2dVertex
10
80.000000000000
20
72.384732410218
30
0.0
0
SEQEND
5
449
100
AcDbEntity
8
0-0
0
LINE
5
44a
100
AcDbEntity
8
0-0
6
CONTINUOUS
62
7
100
AcDbLine
10
101.500000000000
20
81.884732410218
30
0.0
11
101.262812000000
21
72.871578410218
31
0.0
0
ARC
5
44b
100
AcDbEntity
8
0-0
6
CONTINUOUS
62
7
100
AcDbCircle
10
79.237015000000
20
72.884732410219
30
0.0
40
0.500000000000
100
AcDbArc
50
181.507436000000
51
270.000000000000
0
ARC
5
44c
100
AcDbEntity
8
0-0
6
CONTINUOUS
62
7
100
AcDbCircle
10
100.762985000000
20
72.884732410219
30
0.0
40
0.500000000000
100
AcDbArc
50
270.000000000000
51
358.492564000000
0
CIRCLE
5
44d
100
AcDbEntity
8
0-0
6
CONTINUOUS
62
7
100
AcDbCircle
10
90.000000000000
20
30.000000000000
30
0.0
40
4.500000000000
0
CIRCLE
5
44e
100
AcDbEntity
8
0-0
6
CONTINUOUS
62
7
100
AcDbCircle
10
90.000000000000
20
30.000000000000
30
0.0
40
2.150000000000
0
CIRCLE
5
44f
100
AcDbEntity
8
0-0
6
CONTINUOUS
62
7
100
AcDbCircle
10
90.000000000000
20
30.000000000000
30
0.0
40
11.250000000000
0
CIRCLE
5
450
100
AcDbEntity
8
0-0
6
CONTINUOUS
62
7
100
AcDbCircle
10
90.000000000000
20
30.000000000000
30
0.0
40
10.000000000000
0
CIRCLE
5
451
100
AcDbEntity
8
0-0
6
CONTINUOUS
62
7
100
AcDbCircle
10
90.000000000000
20
30.000000000000
30
0.0
40
11.500000000000
0
LINE
5
452
100
AcDbEntity
8
0-0
6
CONTINUOUS
62
7
100
AcDbLine
10
93.155051000000
20
86.546132410218
30
0.0
11
92.281387000000
21
86.864122410218
31
0.0
0
LINE
5
453
100
AcDbEntity
8
0-0
6
CONTINUOUS
62
7
100
AcDbLine
10
91.597347000000
20
86.984732410218
30
0.0
11
88.402654000000
21
86.984732410218
31
0.0
0
LINE
5
454
100
AcDbEntity
8
0-0
6
CONTINUOUS
62
7
100
AcDbLine
10
87.718614000000
20
86.864122410218
30
0.0
11
86.844950000000
21
86.546132410218
31
0.0
0
ARC
5
455
100
AcDbEntity
8
0-0
6
CONTINUOUS
62
7
100
AcDbCircle
10
91.597347000000
20
84.984732410218
30
0.0
40
2.000000000000
100
AcDbArc
50
70.000000000000
51
90.000000000000
0
ARC
5
456
100
AcDbEntity
8
0-0
6
CONTINUOUS
62
7
100
AcDbCircle
10
88.402654000000
20
84.984732410218
30
0.0
40
2.000000000000
100
AcDbArc
50
90.000000000000
51
110.000000000000
0
ARC
5
457
100
AcDbEntity
8
0-0
6
CONTINUOUS
62
7
100
AcDbCircle
10
92.300000000000
20
84.196902410218
30
0.0
40
2.500000000000
100
AcDbArc
50
348.178227994579
51
430.000000000000
0
LINE
5
458
100
AcDbEntity
8
0-0
6
CONTINUOUS
62
7
100
AcDbLine
10
93.571537906792
20
83.684732410218
30
0.0
11
94.746974027468
21
83.684732410218
31
0.0
0
ARC
5
459
100
AcDbEntity
8
0-0
6
CONTINUOUS
62
7
100
AcDbCircle
10
87.700000000000
20
84.196902410218
30
0.0
40
2.500000000000
100
AcDbArc
50
110.000000000000
51
191.821772005421
0
LINE
5
45a
100
AcDbEntity
8
0-0
6
CONTINUOUS
62
7
100
AcDbLine
10
85.253025972533
20
83.684732410218
30
0.0
11
86.428463093208
21
83.684732410218
31
0.0
0
LINE
5
45b
100
AcDbEntity
8
0-0
6
CONTINUOUS
62
7
100
AcDbLine
10
86.749998906792
20
82.484732410218
30
0.0
11
86.428463093208
21
83.684732410218
31
0.0
0
LINE
5
45c
100
AcDbEntity
8
0-0
6
CONTINUOUS
62
7
100
AcDbLine
10
93.571537906792
20
83.684732410218
30
0.0
11
93.250002093208
21
82.484732410218
31
0.0
0
LINE
5
45d
100
AcDbEntity
8
0-0
6
CONTINUOUS
62
7
100
AcDbLine
10
86.749998906792
20
82.484732410218
30
0.0
11
93.250002093208
21
82.484732410218
31
0.0
0
LINE
5
45e
100
AcDbEntity
8
0-0
6
CONTINUOUS
62
7
100
AcDbLine
10
88.000000000000
20
82.484732410218
30
0.0
11
88.000000000000
21
81.884732410218
31
0.0
0
LINE
5
45f
100
AcDbEntity
8
0-0
6
CONTINUOUS
62
7
100
AcDbLine
10
88.299999952316
20
82.484732410218
30
0.0
11
88.299999952316
21
81.884732410218
31
0.0
0
LINE
5
460
100
AcDbEntity
8
0-0
6
CONTINUOUS
62
7
100
AcDbLine
10
91.700000047684
20
82.484732410218
30
0.0
11
91.700000047684
21
81.884732410218
31
0.0
0
LINE
5
461
100
AcDbEntity
8
0-0
6
CONTINUOUS
62
7
100
AcDbLine
10
92.000000000000
20
82.484732410218
30
0.0
11
92.000000000000
21
81.884732410218
31
0.0
0
POLYLINE
5
462
100
AcDbEntity
8
0-1
6
DASHED
62
  4
100
AcDb2dPolyline
66
1
10
0.0
20
0.0
30
0.0
70
0
0
VERTEX
5
463
100
AcDbEntity
8
0-1
6
DASHED
62
  4
100
AcDbVertex
100
AcDb2dVertex
10
85.500000000000
20
70.384732410218
30
0.0
0
VERTEX
5
464
100
AcDbEntity
8
0-1
6
DASHED
62
  4
100
AcDbVertex
100
AcDb2dVertex
10
85.500000000000
20
77.884732410218
30
0.0
0
VERTEX
5
465
100
AcDbEntity
8
0-1
6
DASHED
62
  4
100
AcDbVertex
100
AcDb2dVertex
10
94.500000000000
20
77.884732410218
30
0.0
0
VERTEX
5
466
100
AcDbEntity
8
0-1
6
DASHED
62
  4
100
AcDbVertex
100
AcDb2dVertex
10
94.500000000000
20
70.384732410218
30
0.0
0
SEQEND
5
467
100
AcDbEntity
8
0-1
0
LINE
5
468
100
AcDbEntity
8
0-1
6
DASHED
62
4
100
AcDbLine
10
87.850000000000
20
81.884732410218
30
0.0
11
87.850000000000
21
77.884732410218
31
0.0
0
LINE
5
469
100
AcDbEntity
8
0-1
6
DASHED
62
4
100
AcDbLine
10
92.150000000000
20
77.884732410218
30
0.0
11
92.150000000000
21
81.884732410218
31
0.0
0
LINE
5
46a
100
AcDbEntity
8
0-1
6
DASHED
62
4
100
AcDbLine
10
90.000000000000
20
77.884732410218
30
0.0
11
89.292893218813
21
78.591839191405
31
0.0
0
LINE
5
46b
100
AcDbEntity
8
0-1
6
DASHED
62
4
100
AcDbLine
10
90.000000000000
20
77.884732410218
30
0.0
11
90.707106781187
21
78.591839191405
31
0.0
0
LINE
5
46c
100
AcDbEntity
8
0-1
6
DASHED
62
4
100
AcDbLine
10
88.833333373070
20
74.384732410218
30
0.0
11
88.833333373070
21
77.884732410218
31
0.0
0
LINE
5
46d
100
AcDbEntity
8
0-1
6
DASHED
62
4
100
AcDbLine
10
88.250000000000
20
74.384732410218
30
0.0
11
88.250000000000
21
77.884732410218
31
0.0
0
LINE
5
46e
100
AcDbEntity
8
0-1
6
DASHED
62
4
100
AcDbLine
10
87.666666746140
20
74.384732410218
30
0.0
11
87.666666746140
21
77.884732410218
31
0.0
0
LINE
5
46f
100
AcDbEntity
8
0-1
6
DASHED
62
4
100
AcDbLine
10
87.083333253860
20
74.384732410218
30
0.0
11
87.083333253860
21
77.884732410218
31
0.0
0
LINE
5
470
100
AcDbEntity
8
0-1
6
DASHED
62
4
100
AcDbLine
10
91.700000047684
20
77.884732410218
30
0.0
11
91.700000047684
21
85.884732410218
31
0.0
0
LINE
5
471
100
AcDbEntity
8
0-1
6
DASHED
62
4
100
AcDbLine
10
88.299999952316
20
77.884732410218
30
0.0
11
88.299999952316
21
85.884732410218
31
0.0
0
LINE
5
472
100
AcDbEntity
8
0-1
6
DASHED
62
4
100
AcDbLine
10
93.500000000000
20
74.384732410218
30
0.0
11
93.500000000000
21
77.884732410218
31
0.0
0
LINE
5
473
100
AcDbEntity
8
0-1
6
DASHED
62
4
100
AcDbLine
10
93.500000000000
20
74.384732410218
30
0.0
11
93.000000000000
21
73.884732410218
31
0.0
0
LINE
5
474
100
AcDbEntity
8
0-1
6
DASHED
62
4
100
AcDbLine
10
87.000000000000
20
73.884732410218
30
0.0
11
93.000000000000
21
73.884732410218
31
0.0
0
LINE
5
475
100
AcDbEntity
8
0-1
6
DASHED
62
4
100
AcDbLine
10
86.500000000000
20
74.384732410218
30
0.0
11
86.500000000000
21
77.884732410218
31
0.0
0
LINE
5
476
100
AcDbEntity
8
0-1
6
DASHED
62
4
100
AcDbLine
10
87.000000000000
20
73.884732410218
30
0.0
11
86.500000000000
21
74.384732410218
31
0.0
0
LINE
5
477
100
AcDbEntity
8
0-1
6
DASHED
62
4
100
AcDbLine
10
93.500000000000
20
74.384732410218
30
0.0
11
86.500000000000
21
74.384732410218
31
0.0
0
LINE
5
478
100
AcDbEntity
8
0-1
6
DASHED
62
4
100
AcDbLine
10
92.000000000000
20
85.584732219483
30
0.0
11
92.000000000000
21
77.884732410218
31
0.0
0
LINE
5
479
100
AcDbEntity
8
0-1
6
DASHED
62
4
100
AcDbLine
10
88.299999952316
20
85.884732410218
30
0.0
11
91.700000047684
21
85.884732410218
31
0.0
0
LINE
5
47a
100
AcDbEntity
8
0-1
6
DASHED
62
4
100
AcDbLine
10
88.000000000000
20
85.584732219483
30
0.0
11
88.000000000000
21
77.884732410218
31
0.0
0
LINE
5
47b
100
AcDbEntity
8
0-1
6
DASHED
62
4
100
AcDbLine
10
92.000000000000
20
85.584732219483
30
0.0
11
91.700000047684
21
85.884732410218
31
0.0
0
LINE
5
47c
100
AcDbEntity
8
0-1
6
DASHED
62
4
100
AcDbLine
10
88.299999952316
20
85.884732410218
30
0.0
11
88.000000000000
21
85.584732219483
31
0.0
0
LINE
5
47d
100
AcDbEntity
8
0-1
6
DASHED
62
4
100
AcDbLine
10
92.000000000000
20
85.584732219483
30
0.0
11
88.000000000000
21
85.584732219483
31
0.0
0
LINE
5
47e
100
AcDbEntity
8
F-F_J_ADD
6
HIDDEN
62
4
100
AcDbLine
10
90.000000000000
20
81.884732410218
30
0.0
11
90.707106781168
21
82.591839191386
31
0.0
0
LINE
5
47f
100
AcDbEntity
8
F-F_J_ADD
6
HIDDEN
62
4
100
AcDbLine
10
89.292893218794
20
82.591839191386
30
0.0
11
89.999999999981
21
81.884732410199
31
0.0
0
LINE
5
480
100
AcDbEntity
8
0-1
6
CENTER
62
4
100
AcDbLine
10
90.000000000000
20
70.384732410218
30
0.0
11
90.000000000000
21
87.055241758488
31
0.0
0
LINE
5
481
100
AcDbEntity
8
0-1
6
CENTER
62
4
100
AcDbLine
10
78.500000000000
20
30.000000000000
30
0.0
11
101.500000000000
21
30.000000000000
31
0.0
0
LINE
5
482
100
AcDbEntity
8
0-1
6
CENTER
62
4
100
AcDbLine
10
90.000000000000
20
41.500000000000
30
0.0
11
90.000000000000
21
18.500000000000
31
0.0
0
POLYLINE
5
483
100
AcDbEntity
8
0-0
6
CONTINUOUS
62
  7
100
AcDb2dPolyline
66
1
10
0.0
20
0.0
30
0.0
70
0
0
VERTEX
5
484
100
AcDbEntity
8
0-0
6
CONTINUOUS
62
  7
100
AcDbVertex
100
AcDb2dVertex
10
161.500000000000
20
81.884732410218
30
0.0
0
VERTEX
5
485
100
AcDbEntity
8
0-0
6
CONTINUOUS
62
  7
100
AcDbVertex
100
AcDb2dVertex
10
138.500000000000
20
81.884732410218
30
0.0
0
VERTEX
5
486
100
AcDbEntity
8
0-0
6
CONTINUOUS
62
  7
100
AcDbVertex
100
AcDb2dVertex
10
138.737188000000
20
72.871578410218
30
0.0
0
SEQEND
5
487
100
AcDbEntity
8
0-0
0
LINE
5
488
100
AcDbEntity
8
0-0
6
CONTINUOUS
62
7
100
AcDbLine
10
139.237015000000
20
72.384732410218
30
0.0
11
160.762985000000
21
72.384732410218
31
0.0
0
POLYLINE
5
489
100
AcDbEntity
8
0-0
6
CONTINUOUS
62
  7
100
AcDb2dPolyline
66
1
10
0.0
20
0.0
30
0.0
70
0
0
VERTEX
5
48a
100
AcDbEntity
8
0-0
6
CONTINUOUS
62
  7
100
AcDbVertex
100
AcDb2dVertex
10
160.000000000000
20
72.384732410218
30
0.0
0
VERTEX
5
48b
100
AcDbEntity
8
0-0
6
CONTINUOUS
62
  7
100
AcDbVertex
100
AcDb2dVertex
10
160.000000000000
20
70.384732410218
30
0.0
0
VERTEX
5
48c
100
AcDbEntity
8
0-0
6
CONTINUOUS
62
  7
100
AcDbVertex
100
AcDb2dVertex
10
140.000000000000
20
70.384732410218
30
0.0
0
VERTEX
5
48d
100
AcDbEntity
8
0-0
6
CONTINUOUS
62
  7
100
AcDbVertex
100
AcDb2dVertex
10
140.000000000000
20
72.384732410218
30
0.0
0
SEQEND
5
48e
100
AcDbEntity
8
0-0
0
LINE
5
48f
100
AcDbEntity
8
0-0
6
CONTINUOUS
62
7
100
AcDbLine
10
161.500000000000
20
81.884732410218
30
0.0
11
161.262812000000
21
72.871578410218
31
0.0
0
ARC
5
490
100
AcDbEntity
8
0-0
6
CONTINUOUS
62
7
100
AcDbCircle
10
139.237015000000
20
72.884732410219
30
0.0
40
0.500000000000
100
AcDbArc
50
181.507436000000
51
270.000000000000
0
ARC
5
491
100
AcDbEntity
8
0-0
6
CONTINUOUS
62
7
100
AcDbCircle
10
160.762985000000
20
72.884732410219
30
0.0
40
0.500000000000
100
AcDbArc
50
270.000000000000
51
358.492564000000
0
CIRCLE
5
492
100
AcDbEntity
8
0-0
6
CONTINUOUS
62
7
100
AcDbCircle
10
150.000000000000
20
30.000000000000
30
0.0
40
4.500000000000
0
CIRCLE
5
493
100
AcDbEntity
8
0-0
6
CONTINUOUS
62
7
100
AcDbCircle
10
150.000000000000
20
30.000000000000
30
0.0
40
2.150000000000
0
CIRCLE
5
494
100
AcDbEntity
8
0-0
6
CONTINUOUS
62
7
100
AcDbCircle
10
150.000000000000
20
30.000000000000
30
0.0
40
11.250000000000
0
CIRCLE
5
495
100
AcDbEntity
8
0-0
6
CONTINUOUS
62
7
100
AcDbCircle
10
150.000000000000
20
30.000000000000
30
0.0
40
10.000000000000
0
CIRCLE
5
496
100
AcDbEntity
8
0-0
6
CONTINUOUS
62
7
100
AcDbCircle
10
150.000000000000
20
30.000000000000
30
0.0
40
11.500000000000
0
LINE
5
497
100
AcDbEntity
8
0-0
6
CONTINUOUS
62
7
100
AcDbLine
10
153.499964298959
20
89.084729333683
30
0.0
11
146.500129503220
21
89.084755295825
31
0.0
0
LINE
5
498
100
AcDbEntity
8
0-0
6
CONTINUOUS
62
7
100
AcDbLine
10
144.912591460389
20
85.484732314832
30
0.0
11
145.175022149474
21
82.484743888624
31
0.0
0
LINE
5
499
100
AcDbEntity
8
0-0
6
CONTINUOUS
62
7
100
AcDbLine
10
146.500129503220
20
89.084755295825
30
0.0
11
143.321284521700
21
87.249490330656
31
0.0
0
LINE
5
49a
100
AcDbEntity
8
0-0
6
CONTINUOUS
62
7
100
AcDbLine
10
143.000046028075
20
85.484732314832
30
0.0
11
144.912591460389
21
85.484732314832
31
0.0
0
LINE
5
49b
100
AcDbEntity
8
0-0
6
CONTINUOUS
62
7
100
AcDbLine
10
143.321284521700
20
87.249490330656
30
0.0
11
143.000046028075
21
85.484732314832
31
0.0
0
LINE
5
49c
100
AcDbEntity
8
0-0
6
CONTINUOUS
62
7
100
AcDbLine
10
155.087481807833
20
85.484732314832
30
0.0
11
154.824977850488
21
82.484710741046
31
0.0
0
LINE
5
49d
100
AcDbEntity
8
0-0
6
CONTINUOUS
62
7
100
AcDbLine
10
145.175022149474
20
82.484743888624
30
0.0
11
154.824977850488
21
82.484710741046
31
0.0
0
LINE
5
49e
100
AcDbEntity
8
0-0
6
CONTINUOUS
62
7
100
AcDbLine
10
153.499882352929
20
89.084755295825
30
0.0
11
156.678727334449
21
87.249490330656
31
0.0
0
LINE
5
49f
100
AcDbEntity
8
0-0
6
CONTINUOUS
62
7
100
AcDbLine
10
156.999965828074
20
85.484732314832
30
0.0
11
155.087420395760
21
85.484732314832
31
0.0
0
LINE
5
4a0
100
AcDbEntity
8
0-0
6
CONTINUOUS
62
7
100
AcDbLine
10
156.678727334449
20
87.249490330656
30
0.0
11
156.999965828074
21
85.484732314832
31
0.0
0
LINE
5
4a1
100
AcDbEntity
8
0-0
6
CONTINUOUS
62
7
100
AcDbLine
10
148.000000000000
20
82.484734184831
30
0.0
11
148.000000000000
21
81.884732410218
31
0.0
0
LINE
5
4a2
100
AcDbEntity
8
0-0
6
CONTINUOUS
62
7
100
AcDbLine
10
148.299999952316
20
82.484733154331
30
0.0
11
148.299999952316
21
81.884732410218
31
0.0
0
LINE
5
4a3
100
AcDbEntity
8
0-0
6
CONTINUOUS
62
7
100
AcDbLine
10
151.700000047684
20
82.484721475338
30
0.0
11
151.700000047684
21
81.884732410218
31
0.0
0
LINE
5
4a4
100
AcDbEntity
8
0-0
6
CONTINUOUS
62
7
100
AcDbLine
10
152.000000000000
20
82.484720444839
30
0.0
11
152.000000000000
21
81.884732410218
31
0.0
0
LINE
5
4a5
100
AcDbEntity
8
0-0
6
CONTINUOUS
62
7
100
AcDbLine
10
148.000000000000
20
89.584732219483
30
0.0
11
148.000000000000
21
89.084734896998
31
0.0
0
LINE
5
4a6
100
AcDbEntity
8
0-0
6
CONTINUOUS
62
7
100
AcDbLine
10
148.299999952316
20
89.884732410218
30
0.0
11
148.000000000000
21
89.584732219483
31
0.0
0
LINE
5
4a7
100
AcDbEntity
8
0-0
6
CONTINUOUS
62
7
100
AcDbLine
10
148.299999952316
20
89.884732410218
30
0.0
11
151.700000047684
21
89.884732410218
31
0.0
0
LINE
5
4a8
100
AcDbEntity
8
0-0
6
CONTINUOUS
62
7
100
AcDbLine
10
152.000000000000
20
89.584732219483
30
0.0
11
152.000000000000
21
89.084734896998
31
0.0
0
LINE
5
4a9
100
AcDbEntity
8
0-0
6
CONTINUOUS
62
7
100
AcDbLine
10
152.000000000000
20
89.584732219483
30
0.0
11
151.700000047684
21
89.884732410218
31
0.0
0
POLYLINE
5
4aa
100
AcDbEntity
8
0-1
6
DASHED
62
  4
100
AcDb2dPolyline
66
1
10
0.0
20
0.0
30
0.0
70
0
0
VERTEX
5
4ab
100
AcDbEntity
8
0-1
6
DASHED
62
  4
100
AcDbVertex
100
AcDb2dVertex
10
145.500000000000
20
70.384732410218
30
0.0
0
VERTEX
5
4ac
100
AcDbEntity
8
0-1
6
DASHED
62
  4
100
AcDbVertex
100
AcDb2dVertex
10
145.500000000000
20
77.884732410218
30
0.0
0
VERTEX
5
4ad
100
AcDbEntity
8
0-1
6
DASHED
62
  4
100
AcDbVertex
100
AcDb2dVertex
10
154.500000000000
20
77.884732410218
30
0.0
0
VERTEX
5
4ae
100
AcDbEntity
8
0-1
6
DASHED
62
  4
100
AcDbVertex
100
AcDb2dVertex
10
154.500000000000
20
70.384732410218
30
0.0
0
SEQEND
5
4af
100
AcDbEntity
8
0-1
0
LINE
5
4b0
100
AcDbEntity
8
0-1
6
DASHED
62
4
100
AcDbLine
10
147.850000000000
20
81.884732410218
30
0.0
11
147.850000000000
21
77.884732410218
31
0.0
0
LINE
5
4b1
100
AcDbEntity
8
0-1
6
DASHED
62
4
100
AcDbLine
10
152.150000000000
20
77.884732410218
30
0.0
11
152.150000000000
21
81.884732410218
31
0.0
0
LINE
5
4b2
100
AcDbEntity
8
0-1
6
DASHED
62
4
100
AcDbLine
10
150.000000000000
20
77.884732410218
30
0.0
11
149.292893218813
21
78.591839191405
31
0.0
0
LINE
5
4b3
100
AcDbEntity
8
0-1
6
DASHED
62
4
100
AcDbLine
10
150.000000000000
20
77.884732410218
30
0.0
11
150.707106781187
21
78.591839191405
31
0.0
0
LINE
5
4b4
100
AcDbEntity
8
0-1
6
DASHED
62
4
100
AcDbLine
10
148.833333373070
20
74.384732410218
30
0.0
11
148.833333373070
21
77.884732410218
31
0.0
0
LINE
5
4b5
100
AcDbEntity
8
0-1
6
DASHED
62
4
100
AcDbLine
10
148.250000000000
20
74.384732410218
30
0.0
11
148.250000000000
21
77.884732410218
31
0.0
0
LINE
5
4b6
100
AcDbEntity
8
0-1
6
DASHED
62
4
100
AcDbLine
10
147.666666746140
20
74.384732410218
30
0.0
11
147.666666746140
21
77.884732410218
31
0.0
0
LINE
5
4b7
100
AcDbEntity
8
0-1
6
DASHED
62
4
100
AcDbLine
10
147.083333253860
20
74.384732410218
30
0.0
11
147.083333253860
21
77.884732410218
31
0.0
0
LINE
5
4b8
100
AcDbEntity
8
0-1
6
DASHED
62
4
100
AcDbLine
10
153.500000000000
20
74.384732410218
30
0.0
11
153.500000000000
21
77.884732410218
31
0.0
0
LINE
5
4b9
100
AcDbEntity
8
0-1
6
DASHED
62
4
100
AcDbLine
10
153.500000000000
20
74.384732410218
30
0.0
11
153.000000000000
21
73.884732410218
31
0.0
0
LINE
5
4ba
100
AcDbEntity
8
0-1
6
DASHED
62
4
100
AcDbLine
10
147.000000000000
20
73.884732410218
30
0.0
11
153.000000000000
21
73.884732410218
31
0.0
0
LINE
5
4bb
100
AcDbEntity
8
0-1
6
DASHED
62
4
100
AcDbLine
10
146.500000000000
20
74.384732410218
30
0.0
11
146.500000000000
21
77.884732410218
31
0.0
0
LINE
5
4bc
100
AcDbEntity
8
0-1
6
DASHED
62
4
100
AcDbLine
10
147.000000000000
20
73.884732410218
30
0.0
11
146.500000000000
21
74.384732410218
31
0.0
0
LINE
5
4bd
100
AcDbEntity
8
0-1
6
DASHED
62
4
100
AcDbLine
10
153.500000000000
20
74.384732410218
30
0.0
11
146.500000000000
21
74.384732410218
31
0.0
0
LINE
5
4be
100
AcDbEntity
8
F-F_J_ADD
6
HIDDEN
62
4
100
AcDbLine
10
150.000000000000
20
81.884732410218
30
0.0
11
150.707106781168
21
82.591839191386
31
0.0
0
LINE
5
4bf
100
AcDbEntity
8
F-F_J_ADD
6
HIDDEN
62
4
100
AcDbLine
10
149.292893218794
20
82.591839191386
30
0.0
11
149.999999999981
21
81.884732410199
31
0.0
0
LINE
5
4c0
100
AcDbEntity
8
0-1
6
DASHED
62
4
100
AcDbLine
10
151.700000047684
20
77.884732410218
30
0.0
11
151.700000047684
21
89.084734896998
31
0.0
0
LINE
5
4c1
100
AcDbEntity
8
0-1
6
DASHED
62
4
100
AcDbLine
10
148.299999952316
20
77.884732410218
30
0.0
11
148.299999952316
21
89.084734896998
31
0.0
0
LINE
5
4c2
100
AcDbEntity
8
0-1
6
DASHED
62
4
100
AcDbLine
10
152.000000000000
20
89.084734896998
30
0.0
11
152.000000000000
21
77.884732410218
31
0.0
0
LINE
5
4c3
100
AcDbEntity
8
0-1
6
DASHED
62
4
100
AcDbLine
10
148.000000000000
20
89.084734896998
30
0.0
11
148.000000000000
21
77.884732410218
31
0.0
0
LINE
5
4c4
100
AcDbEntity
8
0-1
6
CENTER
62
4
100
AcDbLine
10
150.000000000000
20
89.084734896998
30
0.0
11
150.000000000000
21
90.919076241014
31
0.0
0
LINE
5
4c5
100
AcDbEntity
8
0-1
6
CONTINUOUS
62
4
100
AcDbLine
10
152.000000000000
20
89.584732219483
30
0.0
11
148.000000000000
21
89.584732219483
31
0.0
0
LINE
5
4c6
100
AcDbEntity
8
0-1
6
CONTINUOUS
62
4
100
AcDbLine
10
148.299999952316
20
89.084734896998
30
0.0
11
148.299999952316
21
89.884732410218
31
0.0
0
LINE
5
4c7
100
AcDbEntity
8
0-1
6
CONTINUOUS
62
4
100
AcDbLine
10
151.700000047684
20
89.084734896998
30
0.0
11
151.700000047684
21
89.884732410218
31
0.0
0
LINE
5
4c8
100
AcDbEntity
8
0-1
6
CENTER
62
4
100
AcDbLine
10
150.000000000000
20
70.384732410218
30
0.0
11
150.000000000000
21
89.084734896998
31
0.0
0
LINE
5
4c9
100
AcDbEntity
8
0-1
6
CENTER
62
4
100
AcDbLine
10
138.500000000000
20
30.000000000000
30
0.0
11
161.500000000000
21
30.000000000000
31
0.0
0
LINE
5
4ca
100
AcDbEntity
8
0-1
6
CENTER
62
4
100
AcDbLine
10
150.000000000000
20
41.500000000000
30
0.0
11
150.000000000000
21
18.500000000000
31
0.0
0
CIRCLE
5
4cb
100
AcDbEntity
8
0-0
6
CONTINUOUS
62
7
100
AcDbCircle
10
210.000000000000
20
30.000000000000
30
0.0
40
4.750000000000
0
CIRCLE
5
4cc
100
AcDbEntity
8
0-0
6
CONTINUOUS
62
7
100
AcDbCircle
10
210.000000000000
20
30.000000000000
30
0.0
40
2.250000000000
0
CIRCLE
5
4cd
100
AcDbEntity
8
0-0
6
CONTINUOUS
62
7
100
AcDbCircle
10
210.000000000000
20
30.000000000000
30
0.0
40
10.000000000000
0
LINE
5
4ce
100
AcDbEntity
8
0-0
6
CONTINUOUS
62
7
100
AcDbLine
10
219.000000000000
20
73.884732410218
30
0.0
11
201.000000000000
21
73.884732410218
31
0.0
0
POLYLINE
5
4cf
100
AcDbEntity
8
0-0
6
CONTINUOUS
62
  7
100
AcDb2dPolyline
66
1
10
0.0
20
0.0
30
0.0
70
0
0
VERTEX
5
4d0
100
AcDbEntity
8
0-0
6
CONTINUOUS
62
  7
100
AcDbVertex
100
AcDb2dVertex
10
200.000000000000
20
74.884732410218
30
0.0
0
VERTEX
5
4d1
100
AcDbEntity
8
0-0
6
CONTINUOUS
62
  7
100
AcDbVertex
100
AcDb2dVertex
10
200.000000000000
20
81.884732410218
30
0.0
0
VERTEX
5
4d2
100
AcDbEntity
8
0-0
6
CONTINUOUS
62
  7
100
AcDbVertex
100
AcDb2dVertex
10
220.000000000000
20
81.884732410218
30
0.0
0
VERTEX
5
4d3
100
AcDbEntity
8
0-0
6
CONTINUOUS
62
  7
100
AcDbVertex
100
AcDb2dVertex
10
220.000000000000
20
74.884732410218
30
0.0
0
SEQEND
5
4d4
100
AcDbEntity
8
0-0
0
ARC
5
4d5
100
AcDbEntity
8
0-0
6
CONTINUOUS
62
7
100
AcDbCircle
10
219.000000000000
20
74.884732410218
30
0.0
40
1.000000000000
100
AcDbArc
50
270.000000000000
51
360.000000000000
0
ARC
5
4d6
100
AcDbEntity
8
0-0
6
CONTINUOUS
62
7
100
AcDbCircle
10
201.000000000000
20
74.884732410218
30
0.0
40
1.000000000000
100
AcDbArc
50
180.000000000000
51
270.000000000000
0
LINE
5
4d7
100
AcDbEntity
8
0-1
6
CENTER
62
4
100
AcDbLine
10
200.000000000000
20
30.000000000000
30
0.0
11
220.000000000000
21
30.000000000000
31
0.0
0
LINE
5
4d8
100
AcDbEntity
8
F-F_J_ADD
6
HIDDEN
62
4
100
AcDbLine
10
220.000000000000
20
30.000000000000
30
0.0
11
200.000000000000
21
30.000000000000
31
0.0
0
LINE
5
4d9
100
AcDbEntity
8
0-1
6
CENTER
62
4
100
AcDbLine
10
210.000000000000
20
40.000000000000
30
0.0
11
210.000000000000
21
20.000000000000
31
0.0
0
LINE
5
4da
100
AcDbEntity
8
F-F_J_ADD
6
HIDDEN
62
4
100
AcDbLine
10
210.000000000000
20
20.000000000000
30
0.0
11
210.000000000000
21
40.000000000000
31
0.0
0
LINE
5
4db
100
AcDbEntity
8
0-1
6
DASHED
62
4
100
AcDbLine
10
212.250000000000
20
81.884732410218
30
0.0
11
212.250000000000
21
77.884732410218
31
0.0
0
LINE
5
4dc
100
AcDbEntity
8
0-1
6
DASHED
62
4
100
AcDbLine
10
214.750000000000
20
77.884732410218
30
0.0
11
214.750000000000
21
73.884732410218
31
0.0
0
POLYLINE
5
4dd
100
AcDbEntity
8
0-1
6
DASHED
62
  4
100
AcDb2dPolyline
66
1
10
0.0
20
0.0
30
0.0
70
0
0
VERTEX
5
4de
100
AcDbEntity
8
0-1
6
DASHED
62
  4
100
AcDbVertex
100
AcDb2dVertex
10
215.750000000000
20
77.884732410218
30
0.0
0
VERTEX
5
4df
100
AcDbEntity
8
0-1
6
DASHED
62
  4
100
AcDbVertex
100
AcDb2dVertex
10
204.250000000000
20
77.884732410218
30
0.0
0
VERTEX
5
4e0
100
AcDbEntity
8
0-1
6
DASHED
62
  4
100
AcDbVertex
100
AcDb2dVertex
10
204.250000000000
20
78.684732410218
30
0.0
0
VERTEX
5
4e1
100
AcDbEntity
8
0-1
6
DASHED
62
  4
100
AcDbVertex
100
AcDb2dVertex
10
215.750000000000
20
78.684732410218
30
0.0
0
VERTEX
5
4e2
100
AcDbEntity
8
0-1
6
DASHED
62
  4
100
AcDbVertex
100
AcDb2dVertex
10
215.750000000000
20
77.884732410218
30
0.0
0
SEQEND
5
4e3
100
AcDbEntity
8
0-1
0
LINE
5
4e4
100
AcDbEntity
8
0-1
6
DASHED
62
4
100
AcDbLine
10
207.750000000000
20
77.884732410218
30
0.0
11
207.750000000000
21
81.884732410218
31
0.0
0
LINE
5
4e5
100
AcDbEntity
8
0-1
6
DASHED
62
4
100
AcDbLine
10
205.250000000000
20
77.884732410218
30
0.0
11
205.250000000000
21
73.884732410218
31
0.0
0
CIRCLE
5
4e6
100
AcDbEntity
8
0-0
6
CONTINUOUS
62
7
100
AcDbCircle
10
270.000000000000
20
30.000000000000
30
0.0
40
4.750000000000
0
CIRCLE
5
4e7
100
AcDbEntity
8
0-0
6
CONTINUOUS
62
7
100
AcDbCircle
10
270.000000000000
20
30.000000000000
30
0.0
40
2.250000000000
0
CIRCLE
5
4e8
100
AcDbEntity
8
0-0
6
CONTINUOUS
62
7
100
AcDbCircle
10
270.000000000000
20
30.000000000000
30
0.0
40
10.000000000000
0
LINE
5
4e9
100
AcDbEntity
8
0-0
6
CONTINUOUS
62
7
100
AcDbLine
10
279.000000000000
20
73.884732410218
30
0.0
11
261.000000000000
21
73.884732410218
31
0.0
0
POLYLINE
5
4ea
100
AcDbEntity
8
0-0
6
CONTINUOUS
62
  7
100
AcDb2dPolyline
66
1
10
0.0
20
0.0
30
0.0
70
0
0
VERTEX
5
4eb
100
AcDbEntity
8
0-0
6
CONTINUOUS
62
  7
100
AcDbVertex
100
AcDb2dVertex
10
260.000000000000
20
74.884732410218
30
0.0
0
VERTEX
5
4ec
100
AcDbEntity
8
0-0
6
CONTINUOUS
62
  7
100
AcDbVertex
100
AcDb2dVertex
10
260.000000000000
20
81.884732410218
30
0.0
0
VERTEX
5
4ed
100
AcDbEntity
8
0-0
6
CONTINUOUS
62
  7
100
AcDbVertex
100
AcDb2dVertex
10
280.000000000000
20
81.884732410218
30
0.0
0
VERTEX
5
4ee
100
AcDbEntity
8
0-0
6
CONTINUOUS
62
  7
100
AcDbVertex
100
AcDb2dVertex
10
280.000000000000
20
74.884732410218
30
0.0
0
SEQEND
5
4ef
100
AcDbEntity
8
0-0
0
ARC
5
4f0
100
AcDbEntity
8
0-0
6
CONTINUOUS
62
7
100
AcDbCircle
10
279.000000000000
20
74.884732410218
30
0.0
40
1.000000000000
100
AcDbArc
50
270.000000000000
51
360.000000000000
0
ARC
5
4f1
100
AcDbEntity
8
0-0
6
CONTINUOUS
62
7
100
AcDbCircle
10
261.000000000000
20
74.884732410218
30
0.0
40
1.000000000000
100
AcDbArc
50
180.000000000000
51
270.000000000000
0
LINE
5
4f2
100
AcDbEntity
8
0-0
6
CONTINUOUS
62
7
100
AcDbLine
10
273.155051000000
20
86.546132410218
30
0.0
11
272.281387000000
21
86.864122410218
31
0.0
0
LINE
5
4f3
100
AcDbEntity
8
0-0
6
CONTINUOUS
62
7
100
AcDbLine
10
271.597347000000
20
86.984732410218
30
0.0
11
268.402654000000
21
86.984732410218
31
0.0
0
LINE
5
4f4
100
AcDbEntity
8
0-0
6
CONTINUOUS
62
7
100
AcDbLine
10
267.718614000000
20
86.864122410218
30
0.0
11
266.844950000000
21
86.546132410218
31
0.0
0
ARC
5
4f5
100
AcDbEntity
8
0-0
6
CONTINUOUS
62
7
100
AcDbCircle
10
271.597347000000
20
84.984732410218
30
0.0
40
2.000000000000
100
AcDbArc
50
70.000000000000
51
90.000000000000
0
ARC
5
4f6
100
AcDbEntity
8
0-0
6
CONTINUOUS
62
7
100
AcDbCircle
10
268.402654000000
20
84.984732410218
30
0.0
40
2.000000000000
100
AcDbArc
50
90.000000000000
51
110.000000000000
0
ARC
5
4f7
100
AcDbEntity
8
0-0
6
CONTINUOUS
62
7
100
AcDbCircle
10
272.300000000000
20
84.196902410218
30
0.0
40
2.500000000000
100
AcDbArc
50
348.178227994579
51
430.000000000000
0
LINE
5
4f8
100
AcDbEntity
8
0-0
6
CONTINUOUS
62
7
100
AcDbLine
10
273.571537906792
20
83.684732410218
30
0.0
11
274.746974027468
21
83.684732410218
31
0.0
0
ARC
5
4f9
100
AcDbEntity
8
0-0
6
CONTINUOUS
62
7
100
AcDbCircle
10
267.700000000000
20
84.196902410218
30
0.0
40
2.500000000000
100
AcDbArc
50
110.000000000000
51
191.821772005421
0
LINE
5
4fa
100
AcDbEntity
8
0-0
6
CONTINUOUS
62
7
100
AcDbLine
10
265.253025972533
20
83.684732410218
30
0.0
11
266.428463093208
21
83.684732410218
31
0.0
0
LINE
5
4fb
100
AcDbEntity
8
0-0
6
CONTINUOUS
62
7
100
AcDbLine
10
266.749998906792
20
82.484732410218
30
0.0
11
266.428463093208
21
83.684732410218
31
0.0
0
LINE
5
4fc
100
AcDbEntity
8
0-0
6
CONTINUOUS
62
7
100
AcDbLine
10
273.571537906792
20
83.684732410218
30
0.0
11
273.250002093208
21
82.484732410218
31
0.0
0
LINE
5
4fd
100
AcDbEntity
8
0-0
6
CONTINUOUS
62
7
100
AcDbLine
10
266.749998906792
20
82.484732410218
30
0.0
11
273.250002093208
21
82.484732410218
31
0.0
0
LINE
5
4fe
100
AcDbEntity
8
0-0
6
CONTINUOUS
62
7
100
AcDbLine
10
268.000000000000
20
81.884732410218
30
0.0
11
268.000000000000
21
82.484732410218
31
0.0
0
LINE
5
4ff
100
AcDbEntity
8
0-0
6
CONTINUOUS
62
7
100
AcDbLine
10
268.299999952316
20
81.884732410218
30
0.0
11
268.299999952316
21
82.484732410218
31
0.0
0
LINE
5
500
100
AcDbEntity
8
0-0
6
CONTINUOUS
62
7
100
AcDbLine
10
271.700000047684
20
81.884732410218
30
0.0
11
271.700000047684
21
82.484732410218
31
0.0
0
LINE
5
501
100
AcDbEntity
8
0-0
6
CONTINUOUS
62
7
100
AcDbLine
10
272.000000000000
20
81.884732410218
30
0.0
11
272.000000000000
21
82.484732410218
31
0.0
0
LINE
5
502
100
AcDbEntity
8
0-1
6
CENTER
62
4
100
AcDbLine
10
260.000000000000
20
30.000000000000
30
0.0
11
280.000000000000
21
30.000000000000
31
0.0
0
LINE
5
503
100
AcDbEntity
8
F-F_J_ADD
6
HIDDEN
62
4
100
AcDbLine
10
280.000000000000
20
30.000000000000
30
0.0
11
260.000000000000
21
30.000000000000
31
0.0
0
LINE
5
504
100
AcDbEntity
8
0-1
6
CENTER
62
4
100
AcDbLine
10
270.000000000000
20
40.000000000000
30
0.0
11
270.000000000000
21
20.000000000000
31
0.0
0
LINE
5
505
100
AcDbEntity
8
F-F_J_ADD
6
HIDDEN
62
4
100
AcDbLine
10
270.000000000000
20
20.000000000000
30
0.0
11
270.000000000000
21
40.000000000000
31
0.0
0
LINE
5
506
100
AcDbEntity
8
0-1
6
DASHED
62
4
100
AcDbLine
10
272.250000000000
20
81.884732410218
30
0.0
11
272.250000000000
21
77.884732410218
31
0.0
0
LINE
5
507
100
AcDbEntity
8
0-1
6
DASHED
62
4
100
AcDbLine
10
274.750000000000
20
77.884732410218
30
0.0
11
274.750000000000
21
73.884732410218
31
0.0
0
POLYLINE
5
508
100
AcDbEntity
8
0-1
6
DASHED
62
  4
100
AcDb2dPolyline
66
1
10
0.0
20
0.0
30
0.0
70
0
0
VERTEX
5
509
100
AcDbEntity
8
0-1
6
DASHED
62
  4
100
AcDbVertex
100
AcDb2dVertex
10
275.750000000000
20
77.884732410218
30
0.0
0
VERTEX
5
50a
100
AcDbEntity
8
0-1
6
DASHED
62
  4
100
AcDbVertex
100
AcDb2dVertex
10
264.250000000000
20
77.884732410218
30
0.0
0
VERTEX
5
50b
100
AcDbEntity
8
0-1
6
DASHED
62
  4
100
AcDbVertex
100
AcDb2dVertex
10
264.250000000000
20
78.684732410218
30
0.0
0
VERTEX
5
50c
100
AcDbEntity
8
0-1
6
DASHED
62
  4
100
AcDbVertex
100
AcDb2dVertex
10
275.750000000000
20
78.684732410218
30
0.0
0
VERTEX
5
50d
100
AcDbEntity
8
0-1
6
DASHED
62
  4
100
AcDbVertex
100
AcDb2dVertex
10
275.750000000000
20
77.884732410218
30
0.0
0
SEQEND
5
50e
100
AcDbEntity
8
0-1
0
LINE
5
50f
100
AcDbEntity
8
0-1
6
DASHED
62
4
100
AcDbLine
10
267.750000000000
20
77.884732410218
30
0.0
11
267.750000000000
21
81.884732410218
31
0.0
0
LINE
5
510
100
AcDbEntity
8
0-1
6
DASHED
62
4
100
AcDbLine
10
265.250000000000
20
77.884732410218
30
0.0
11
265.250000000000
21
73.884732410218
31
0.0
0
LINE
5
511
100
AcDbEntity
8
0-1
6
DASHED
62
4
100
AcDbLine
10
270.000000000000
20
77.884732410218
30
0.0
11
269.292893218813
21
78.591839191405
31
0.0
0
LINE
5
512
100
AcDbEntity
8
0-1
6
DASHED
62
4
100
AcDbLine
10
270.000000000000
20
77.884732410218
30
0.0
11
270.707106781187
21
78.591839191405
31
0.0
0
LINE
5
513
100
AcDbEntity
8
0-1
6
DASHED
62
4
100
AcDbLine
10
273.402063846588
20
76.765317246224
30
0.0
11
273.500000000000
21
77.884732410218
31
0.0
0
LINE
5
514
100
AcDbEntity
8
0-1
6
DASHED
62
4
100
AcDbLine
10
266.597936153412
20
76.765317246224
30
0.0
11
266.500000000000
21
77.884732410218
31
0.0
0
ARC
5
515
100
AcDbEntity
8
0-1
6
DASHED
62
4
100
AcDbCircle
10
272.107010841370
20
76.878619715478
30
0.0
40
1.299999952316
100
AcDbArc
50
285.880844116211
51
354.999984741211
0
ARC
5
516
100
AcDbEntity
8
0-1
6
DASHED
62
4
100
AcDbCircle
10
267.892989158630
20
76.878619715478
30
0.0
40
1.299999952316
100
AcDbArc
50
185.000000000000
51
254.119140625000
0
ARC
5
517
100
AcDbEntity
8
0-1
6
DASHED
62
4
100
AcDbCircle
10
270.000000000000
20
84.284732505586
30
0.0
40
9.000000000000
100
AcDbArc
50
254.119140625000
51
285.880844116211
0
LINE
5
518
100
AcDbEntity
8
0-1
6
DASHED
62
4
100
AcDbLine
10
271.700000047684
20
77.884732410218
30
0.0
11
271.700000047684
21
85.884732410218
31
0.0
0
LINE
5
519
100
AcDbEntity
8
0-1
6
DASHED
62
4
100
AcDbLine
10
268.299999952316
20
77.884732410218
30
0.0
11
268.299999952316
21
85.884732410218
31
0.0
0
LINE
5
51a
100
AcDbEntity
8
0-1
6
DASHED
62
4
100
AcDbLine
10
272.000000000000
20
85.584732219483
30
0.0
11
268.000000000000
21
85.584732219483
31
0.0
0
LINE
5
51b
100
AcDbEntity
8
0-1
6
DASHED
62
4
100
AcDbLine
10
268.000000000000
20
77.884732410218
30
0.0
11
268.000000000000
21
85.584732219483
31
0.0
0
LINE
5
51c
100
AcDbEntity
8
0-1
6
DASHED
62
4
100
AcDbLine
10
268.299999952316
20
85.884732410218
30
0.0
11
268.000000000000
21
85.584732219483
31
0.0
0
LINE
5
51d
100
AcDbEntity
8
0-1
6
DASHED
62
4
100
AcDbLine
10
271.700000047684
20
85.884732410218
30
0.0
11
268.299999952316
21
85.884732410218
31
0.0
0
LINE
5
51e
100
AcDbEntity
8
0-1
6
DASHED
62
4
100
AcDbLine
10
271.700000047684
20
85.884732410218
30
0.0
11
272.000000000000
21
85.584732219483
31
0.0
0
LINE
5
51f
100
AcDbEntity
8
0-1
6
DASHED
62
4
100
AcDbLine
10
272.000000000000
20
77.884732410218
30
0.0
11
272.000000000000
21
85.584732219483
31
0.0
0
LINE
5
520
100
AcDbEntity
8
F-F_J_ADD
6
HIDDEN
62
4
100
AcDbLine
10
270.000000000000
20
81.884732410218
30
0.0
11
270.707106781168
21
82.591839191386
31
0.0
0
LINE
5
521
100
AcDbEntity
8
F-F_J_ADD
6
HIDDEN
62
4
100
AcDbLine
10
269.292893218794
20
82.591839191386
30
0.0
11
269.999999999981
21
81.884732410199
31
0.0
0
CIRCLE
5
522
100
AcDbEntity
8
0-0
6
CONTINUOUS
62
7
100
AcDbCircle
10
330.000000000000
20
30.000000000000
30
0.0
40
4.750000000000
0
CIRCLE
5
523
100
AcDbEntity
8
0-0
6
CONTINUOUS
62
7
100
AcDbCircle
10
330.000000000000
20
30.000000000000
30
0.0
40
2.250000000000
0
CIRCLE
5
524
100
AcDbEntity
8
0-0
6
CONTINUOUS
62
7
100
AcDbCircle
10
330.000000000000
20
30.000000000000
30
0.0
40
10.000000000000
0
LINE
5
525
100
AcDbEntity
8
0-0
6
CONTINUOUS
62
7
100
AcDbLine
10
338.999999999999
20
73.884732410218
30
0.0
11
320.999999999999
21
73.884732410218
31
0.0
0
POLYLINE
5
526
100
AcDbEntity
8
0-0
6
CONTINUOUS
62
  7
100
AcDb2dPolyline
66
1
10
0.0
20
0.0
30
0.0
70
0
0
VERTEX
5
527
100
AcDbEntity
8
0-0
6
CONTINUOUS
62
  7
100
AcDbVertex
100
AcDb2dVertex
10
319.999999999999
20
74.884732410218
30
0.0
0
VERTEX
5
528
100
AcDbEntity
8
0-0
6
CONTINUOUS
62
  7
100
AcDbVertex
100
AcDb2dVertex
10
319.999999999999
20
81.884732410218
30
0.0
0
VERTEX
5
529
100
AcDbEntity
8
0-0
6
CONTINUOUS
62
  7
100
AcDbVertex
100
AcDb2dVertex
10
339.999999999999
20
81.884732410218
30
0.0
0
VERTEX
5
52a
100
AcDbEntity
8
0-0
6
CONTINUOUS
62
  7
100
AcDbVertex
100
AcDb2dVertex
10
339.999999999999
20
74.884732410218
30
0.0
0
SEQEND
5
52b
100
AcDbEntity
8
0-0
0
ARC
5
52c
100
AcDbEntity
8
0-0
6
CONTINUOUS
62
7
100
AcDbCircle
10
338.999999999999
20
74.884732410218
30
0.0
40
1.000000000000
100
AcDbArc
50
270.000000000000
51
360.000000000000
0
ARC
5
52d
100
AcDbEntity
8
0-0
6
CONTINUOUS
62
7
100
AcDbCircle
10
320.999999999999
20
74.884732410218
30
0.0
40
1.000000000000
100
AcDbArc
50
180.000000000000
51
270.000000000000
0
LINE
5
52e
100
AcDbEntity
8
0-0
6
CONTINUOUS
62
7
100
AcDbLine
10
324.912591460388
20
85.484732314832
30
0.0
11
325.175022149474
21
82.484743888624
31
0.0
0
LINE
5
52f
100
AcDbEntity
8
0-0
6
CONTINUOUS
62
7
100
AcDbLine
10
326.500129503219
20
89.084755295825
30
0.0
11
323.321284521700
21
87.249490330656
31
0.0
0
LINE
5
530
100
AcDbEntity
8
0-0
6
CONTINUOUS
62
7
100
AcDbLine
10
323.000046028075
20
85.484732314832
30
0.0
11
324.912591460388
21
85.484732314832
31
0.0
0
LINE
5
531
100
AcDbEntity
8
0-0
6
CONTINUOUS
62
7
100
AcDbLine
10
323.321284521700
20
87.249490330656
30
0.0
11
323.000046028075
21
85.484732314832
31
0.0
0
LINE
5
532
100
AcDbEntity
8
0-0
6
CONTINUOUS
62
7
100
AcDbLine
10
335.087481807833
20
85.484732314832
30
0.0
11
334.824977850487
21
82.484710741046
31
0.0
0
LINE
5
533
100
AcDbEntity
8
0-0
6
CONTINUOUS
62
7
100
AcDbLine
10
325.175022149474
20
82.484743888624
30
0.0
11
334.824977850487
21
82.484710741046
31
0.0
0
LINE
5
534
100
AcDbEntity
8
0-0
6
CONTINUOUS
62
7
100
AcDbLine
10
333.499882352929
20
89.084755295825
30
0.0
11
336.678727334449
21
87.249490330656
31
0.0
0
LINE
5
535
100
AcDbEntity
8
0-0
6
CONTINUOUS
62
7
100
AcDbLine
10
336.999965828074
20
85.484732314832
30
0.0
11
335.087420395760
21
85.484732314832
31
0.0
0
LINE
5
536
100
AcDbEntity
8
0-0
6
CONTINUOUS
62
7
100
AcDbLine
10
336.678727334449
20
87.249490330656
30
0.0
11
336.999965828074
21
85.484732314832
31
0.0
0
LINE
5
537
100
AcDbEntity
8
0-0
6
CONTINUOUS
62
7
100
AcDbLine
10
328.299999952316
20
89.884732410218
30
0.0
11
328.000000000000
21
89.584732219483
31
0.0
0
LINE
5
538
100
AcDbEntity
8
0-0
6
CONTINUOUS
62
7
100
AcDbLine
10
331.700000047684
20
89.884732410218
30
0.0
11
328.299999952316
21
89.884732410218
31
0.0
0
LINE
5
539
100
AcDbEntity
8
0-0
6
CONTINUOUS
62
7
100
AcDbLine
10
331.700000047684
20
89.884732410218
30
0.0
11
332.000000000000
21
89.584732219483
31
0.0
0
LINE
5
53a
100
AcDbEntity
8
0-0
6
CONTINUOUS
62
7
100
AcDbLine
10
332.000000000000
20
89.084734896998
30
0.0
11
332.000000000000
21
89.584732219483
31
0.0
0
LINE
5
53b
100
AcDbEntity
8
0-0
6
CONTINUOUS
62
7
100
AcDbLine
10
328.000000000000
20
81.884732410218
30
0.0
11
328.000000000000
21
82.484734184831
31
0.0
0
LINE
5
53c
100
AcDbEntity
8
0-0
6
CONTINUOUS
62
7
100
AcDbLine
10
328.299999952316
20
81.884732410218
30
0.0
11
328.299999952316
21
82.484733154331
31
0.0
0
LINE
5
53d
100
AcDbEntity
8
0-0
6
CONTINUOUS
62
7
100
AcDbLine
10
331.700000047684
20
81.884732410218
30
0.0
11
331.700000047684
21
82.484721475338
31
0.0
0
LINE
5
53e
100
AcDbEntity
8
0-0
6
CONTINUOUS
62
7
100
AcDbLine
10
332.000000000000
20
81.884732410218
30
0.0
11
332.000000000000
21
82.484720444839
31
0.0
0
LINE
5
53f
100
AcDbEntity
8
0-0
6
CONTINUOUS
62
7
100
AcDbLine
10
328.000000000000
20
89.084734896998
30
0.0
11
328.000000000000
21
89.584732219483
31
0.0
0
LINE
5
540
100
AcDbEntity
8
0-1
6
CENTER
62
4
100
AcDbLine
10
319.999999999999
20
30.000000000000
30
0.0
11
339.999999999999
21
30.000000000000
31
0.0
0
LINE
5
541
100
AcDbEntity
8
F-F_J_ADD
6
HIDDEN
62
4
100
AcDbLine
10
339.999999999999
20
30.000000000000
30
0.0
11
319.999999999999
21
30.000000000000
31
0.0
0
LINE
5
542
100
AcDbEntity
8
0-1
6
CENTER
62
4
100
AcDbLine
10
330.000000000000
20
40.000000000000
30
0.0
11
330.000000000000
21
20.000000000000
31
0.0
0
LINE
5
543
100
AcDbEntity
8
F-F_J_ADD
6
HIDDEN
62
4
100
AcDbLine
10
330.000000000000
20
20.000000000000
30
0.0
11
330.000000000000
21
40.000000000000
31
0.0
0
LINE
5
544
100
AcDbEntity
8
0-1
6
DASHED
62
4
100
AcDbLine
10
332.250000000000
20
81.884732410218
30
0.0
11
332.250000000000
21
77.884732410218
31
0.0
0
LINE
5
545
100
AcDbEntity
8
0-1
6
DASHED
62
4
100
AcDbLine
10
334.749999999999
20
77.884732410218
30
0.0
11
334.749999999999
21
73.884732410218
31
0.0
0
POLYLINE
5
546
100
AcDbEntity
8
0-1
6
DASHED
62
  4
100
AcDb2dPolyline
66
1
10
0.0
20
0.0
30
0.0
70
0
0
VERTEX
5
547
100
AcDbEntity
8
0-1
6
DASHED
62
  4
100
AcDbVertex
100
AcDb2dVertex
10
335.749999999999
20
77.884732410218
30
0.0
0
VERTEX
5
548
100
AcDbEntity
8
0-1
6
DASHED
62
  4
100
AcDbVertex
100
AcDb2dVertex
10
324.249999999999
20
77.884732410218
30
0.0
0
VERTEX
5
549
100
AcDbEntity
8
0-1
6
DASHED
62
  4
100
AcDbVertex
100
AcDb2dVertex
10
324.249999999999
20
78.684732410218
30
0.0
0
VERTEX
5
54a
100
AcDbEntity
8
0-1
6
DASHED
62
  4
100
AcDbVertex
100
AcDb2dVertex
10
335.749999999999
20
78.684732410218
30
0.0
0
VERTEX
5
54b
100
AcDbEntity
8
0-1
6
DASHED
62
  4
100
AcDbVertex
100
AcDb2dVertex
10
335.749999999999
20
77.884732410218
30
0.0
0
SEQEND
5
54c
100
AcDbEntity
8
0-1
0
LINE
5
54d
100
AcDbEntity
8
0-1
6
DASHED
62
4
100
AcDbLine
10
327.749999999999
20
77.884732410218
30
0.0
11
327.749999999999
21
81.884732410218
31
0.0
0
LINE
5
54e
100
AcDbEntity
8
0-1
6
DASHED
62
4
100
AcDbLine
10
325.249999999999
20
77.884732410218
30
0.0
11
325.249999999999
21
73.884732410218
31
0.0
0
LINE
5
54f
100
AcDbEntity
8
0-1
6
DASHED
62
4
100
AcDbLine
10
330.000000000000
20
77.884732410218
30
0.0
11
329.292893218813
21
78.591839191405
31
0.0
0
LINE
5
550
100
AcDbEntity
8
0-1
6
DASHED
62
4
100
AcDbLine
10
330.000000000000
20
77.884732410218
30
0.0
11
330.707106781187
21
78.591839191405
31
0.0
0
LINE
5
551
100
AcDbEntity
8
0-1
6
DASHED
62
4
100
AcDbLine
10
333.402063846588
20
76.765317246224
30
0.0
11
333.500000000000
21
77.884732410218
31
0.0
0
LINE
5
552
100
AcDbEntity
8
0-1
6
DASHED
62
4
100
AcDbLine
10
326.597936153412
20
76.765317246224
30
0.0
11
326.500000000000
21
77.884732410218
31
0.0
0
ARC
5
553
100
AcDbEntity
8
0-1
6
DASHED
62
4
100
AcDbCircle
10
332.107010841370
20
76.878619715478
30
0.0
40
1.299999952316
100
AcDbArc
50
285.880844116211
51
354.999984741211
0
ARC
5
554
100
AcDbEntity
8
0-1
6
DASHED
62
4
100
AcDbCircle
10
327.892989158630
20
76.878619715478
30
0.0
40
1.299999952316
100
AcDbArc
50
185.000000000000
51
254.119140625000
0
ARC
5
555
100
AcDbEntity
8
0-1
6
DASHED
62
4
100
AcDbCircle
10
330.000000000000
20
84.284732505586
30
0.0
40
9.000000000000
100
AcDbArc
50
254.119140625000
51
285.880844116211
0
LINE
5
556
100
AcDbEntity
8
F-F_J_ADD
6
HIDDEN
62
4
100
AcDbLine
10
330.000000000000
20
81.884732410218
30
0.0
11
330.707106781167
21
82.591839191386
31
0.0
0
LINE
5
557
100
AcDbEntity
8
F-F_J_ADD
6
HIDDEN
62
4
100
AcDbLine
10
329.292893218794
20
82.591839191386
30
0.0
11
329.999999999981
21
81.884732410199
31
0.0
0
LINE
5
558
100
AcDbEntity
8
0-1
6
DASHED
62
4
100
AcDbLine
10
331.700000047684
20
77.884732410218
30
0.0
11
331.700000047684
21
89.084734896998
31
0.0
0
LINE
5
559
100
AcDbEntity
8
0-1
6
DASHED
62
4
100
AcDbLine
10
328.299999952316
20
77.884732410218
30
0.0
11
328.299999952316
21
89.084734896998
31
0.0
0
LINE
5
55a
100
AcDbEntity
8
0-1
6
DASHED
62
4
100
AcDbLine
10
328.000000000000
20
77.884732410218
30
0.0
11
328.000000000000
21
89.084734896998
31
0.0
0
LINE
5
55b
100
AcDbEntity
8
0-1
6
DASHED
62
4
100
AcDbLine
10
332.000000000000
20
77.884732410218
30
0.0
11
332.000000000000
21
89.084734896998
31
0.0
0
LINE
5
55c
100
AcDbEntity
8
0-1
6
CONTINUOUS
62
4
100
AcDbLine
10
332.000000000000
20
89.584732219483
30
0.0
11
328.000000000000
21
89.584732219483
31
0.0
0
LINE
5
55d
100
AcDbEntity
8
0-1
6
CONTINUOUS
62
4
100
AcDbLine
10
328.299999952316
20
89.084734896998
30
0.0
11
328.299999952316
21
89.884732410218
31
0.0
0
LINE
5
55e
100
AcDbEntity
8
0-1
6
CONTINUOUS
62
4
100
AcDbLine
10
331.700000047684
20
89.084734896998
30
0.0
11
331.700000047684
21
89.884732410218
31
0.0
0
LINE
5
55f
100
AcDbEntity
8
0-1
6
CENTER
62
4
100
AcDbLine
10
210.000000000000
20
73.884732410218
30
0.0
11
210.000000000000
21
81.884732410180
31
0.0
0
LINE
5
560
100
AcDbEntity
8
0-1
6
CENTER
62
4
100
AcDbLine
10
270.000000000000
20
73.884732410218
30
0.0
11
270.000000000000
21
86.727232429750
31
0.0
0
LINE
5
561
100
AcDbEntity
8
0-0
6
CONTINUOUS
62
7
100
AcDbLine
10
333.499964298959
20
89.084729333683
30
0.0
11
326.500129503219
21
89.084755295825
31
0.0
0
LINE
5
562
100
AcDbEntity
8
0-1
6
CENTER
62
4
100
AcDbLine
10
330.000000000000
20
73.884732410218
30
0.0
11
330.000000000000
21
89.884732410218
31
0.0
0
TEXT
5
563
100
AcDbEntity
8
0-0
62
7
370
-3
100
AcDbText
10
0.200
20
0.768
30
0.0
40
4.208
1
AJPF-TM
41
0.519
50
0.000
100
AcDbText
0
TEXT
5
564
100
AcDbEntity
8
0-0
62
7
370
-3
100
AcDbText
10
60.200
20
0.768
30
0.0
40
4.208
1
AJPF-TM25
41
0.510
50
0.000
100
AcDbText
0
TEXT
5
565
100
AcDbEntity
8
0-0
62
7
370
-3
100
AcDbText
10
120.200
20
0.768
30
0.0
40
4.208
1
AJPF-TM40
41
0.532
50
0.000
100
AcDbText
0
TEXT
5
566
100
AcDbEntity
8
0-0
62
7
370
-3
100
AcDbText
10
180.200
20
0.768
30
0.0
40
4.208
1
AJRF-CK
41
0.518
50
0.000
100
AcDbText
0
TEXT
5
567
100
AcDbEntity
8
0-0
62
7
370
-3
100
AcDbText
10
240.200
20
0.768
30
0.0
40
4.208
1
AJRF-CK25
41
0.509
50
0.000
100
AcDbText
0
TEXT
5
568
100
AcDbEntity
8
0-0
62
7
370
-3
100
AcDbText
10
300.200
20
0.768
30
0.0
40
4.208
1
AJRF-CK40
41
0.532
50
0.000
100
AcDbText
0
LINE
5
569
100
AcDbEntity
8
F-F_J_ADD
6
HIDDEN
62
253
100
AcDbLine
10
60.000000000000
20
0.000000000000
30
0.0
11
60.000000000000
21
100.000000000000
31
0.0
0
LINE
5
56a
100
AcDbEntity
8
F-F_J_ADD
6
HIDDEN
62
253
100
AcDbLine
10
120.000000000000
20
0.000000000000
30
0.0
11
120.000000000000
21
100.000000000000
31
0.0
0
LINE
5
56b
100
AcDbEntity
8
F-F_J_ADD
6
HIDDEN
62
253
100
AcDbLine
10
180.000000000000
20
0.000000000000
30
0.0
11
180.000000000000
21
100.000000000000
31
0.0
0
LINE
5
56c
100
AcDbEntity
8
F-F_J_ADD
6
HIDDEN
62
253
100
AcDbLine
10
240.000000000000
20
0.000000000000
30
0.0
11
240.000000000000
21
100.000000000000
31
0.0
0
LINE
5
56d
100
AcDbEntity
8
F-F_J_ADD
6
HIDDEN
62
253
100
AcDbLine
10
300.000000000000
20
0.000000000000
30
0.0
11
300.000000000000
21
100.000000000000
31
0.0
0
LINE
5
56e
100
AcDbEntity
8
F-F_J_ADD
6
HIDDEN
62
253
100
AcDbLine
10
360.000000000000
20
0.000000000000
30
0.0
11
360.000000000000
21
100.000000000000
31
0.0
0
LINE
5
56f
100
AcDbEntity
8
F-F_J_ADD
6
HIDDEN
62
253
100
AcDbLine
10
360.000000000000
20
0.000000000000
30
0.0
11
-0.000000000000
21
0.000000000000
31
0.0
0
LINE
5
570
100
AcDbEntity
8
F-F_J_ADD
6
HIDDEN
62
253
100
AcDbLine
10
0.000000000000
20
100.000000000000
30
0.0
11
360.000000000000
21
100.000000000000
31
0.0
0
LINE
5
571
100
AcDbEntity
8
F-F_J_ADD
6
HIDDEN
62
253
100
AcDbLine
10
0.000000000000
20
0.000000000000
30
0.0
11
0.000000000000
21
100.000000000000
31
0.0
0
ENDSEC
 0
SECTION
  2
OBJECTS
 0
DICTIONARY
  5
C
100
AcDbDictionary
  3
ACAD_GROUP
350
D
  3
ACAD_MLINESTYLE
350
E
 0
DICTIONARY
  5
D
102
{ACAD_REACTORS
102
}
100
AcDbDictionary
 0
DICTIONARY
  5
E
102
{ACAD_REACTORS
102
}
100
AcDbDictionary
  3
STANDARD
350
13
0
MLINESTYLE
  5
13
102
{ACAD_REACTORS
102
}
100
AcDbMlineStyle
  2
STANDARD
 70
    0
3

62
256
51
90.0
52
90.0
71
0
0
ACDBPLACEHOLDER
  5
14
102
{ACAD_REACTORS
102
}
0
ENDSEC
0
EOF
