0
SECTION
2
HEADER
9
$ACADVER
1
AC1015
9
$ACADMAINTVER
 70
6
9
$DWGCODEPAGE
3
ANSI_932
9
$EXTMIN
10
0.000
20
0.000
30
0.0
9
$EXTMAX
10
1189.000
20
841.000
30
0.0
9
$LIMMIN
10
0.000
20
0.000
9
$LIMMAX
10
1189.000
20
841.000
9
$DIMSCALE
40
1.000000
9
$LTSCALE
40
2.000
9
$PDMODE
70
0
9
$PDSIZE
40
40.0
9
$HANDSEED
5
62199
9
$UNITMODE
70
0
9
$VISRETAIN
70
0
9
$PLINEGEN
70
0
9
$PSLTSCALE
70
1
9
$TREEDEPTH
70
3020
9
$CMLSTYLE
2
STANDARD
9
$CMLJUST
70
0
9
$CMLSCALE
40
1.0
9
$PROXYGRAPHICS
70
1
9
$MEASUREMENT
70
0
9
$CELWEIGHT
370
-1
9
$ENDCAPS
280
0
9
$JOINSTYLE
280
0
9
$LWDISPLAY
290
0
9
$INSUNITS
70
0
9
$HYPERLINKBASE
1

9
$STYLESHEET
1

9
$XEDIT
290
1
9
$CEPSNTYPE
380
0
9
$PSTYLEMODE
290
1
9
$FINGERPRINTGUID
2
{5F082321-0195-11D3-BDFB-0060B0CD5109}
9
$VERSIONGUID
2
{12943756-294D-11D3-98C2-0060B087942D}
9
$EXTNAMES
290
1
9
$PSVPSCALE
40
0.0
9
$OLESTARTUP
290
0
0
ENDSEC
0
SECTION
  2
CLASSES
0
ENDSEC
0
SECTION
2
TABLES
0
TABLE
2
VPORT
5
190
100
AcDbSymbolTable
70
2
0
VPORT
5
191
100
AcDbSymbolTableRecord
100
AcDbViewportTableRecord
2
*ACTIVE
70
0
10
0.0
20
0.0
11
1.0
21
1.0
12
594.500
22
420.500
13
0.0
23
0.0
14
1.0
24
1.0
15
0.0
25
0.0
16
0.0
26
0.0
36
1.0
17
0.0
27
0.0
37
0.0
40
861.594
41
2.0
42
50.0
43
0.0
44
0.0
50
0.0
51
0.0
71
0
72
1000
73
1
74
1
75
0
76
0
77
0
78
0
0
ENDTAB
0
TABLE
2
LTYPE
5
1f4
100
AcDbSymbolTable
70
9
0
LTYPE
5
1f5
100
AcDbSymbolTableRecord
100
AcDbLinetypeTableRecord
2
BYBLOCK
70
 64
3

72
 65
73
  0
40
0.0
0
LTYPE
5
1f6
100
AcDbSymbolTableRecord
100
AcDbLinetypeTableRecord
2
BYLAYER
70
 64
3

72
 65
73
  0
40
0.0
0
LTYPE
5
1f7
100
AcDbSymbolTableRecord
100
AcDbLinetypeTableRecord
2
CONTINUOUS
70
64
3
SolidLine
72
65
73
0
40
0.0
0
LTYPE
5
1f8
100
AcDbSymbolTableRecord
100
AcDbLinetypeTableRecord
2
DOT
70
64
3
--  --  --  --  --  --  --  --     
72
65
73
2
40
3.000
49
1.000
74
0
49
-2.000
74
0
0
LTYPE
5
1f9
100
AcDbSymbolTableRecord
100
AcDbLinetypeTableRecord
2
DASHED
70
64
3
----    ----    ----    ----    
72
65
73
2
40
5.000
49
2.000
74
0
49
-3.000
74
0
0
LTYPE
5
1fa
100
AcDbSymbolTableRecord
100
AcDbLinetypeTableRecord
2
DASHED2
70
64
3
------  ------  ------  ------ 
72
65
73
2
40
10.000
49
4.000
74
0
49
-6.000
74
0
0
LTYPE
5
1fb
100
AcDbSymbolTableRecord
100
AcDbLinetypeTableRecord
2
CENTER
70
64
3
----- - ----- - ----- - ----- - 
72
65
73
4
40
10.000
49
6.000
74
0
49
-3.000
74
0
49
1.000
74
0
49
-3.000
74
0
0
LTYPE
5
1fc
100
AcDbSymbolTableRecord
100
AcDbLinetypeTableRecord
2
CENTER2
70
64
3
----------  --  ----------  -- 
72
65
73
4
40
17.000
49
12.000
74
0
49
-5.000
74
0
49
2.000
74
0
49
-5.000
74
0
0
LTYPE
5
1fd
100
AcDbSymbolTableRecord
100
AcDbLinetypeTableRecord
2
PHANTOM
70
64
3
--- - - --- - - --- - - --- - -
72
65
73
6
40
13.000
49
5.000
74
0
49
-3.000
74
0
49
1.000
74
0
49
-3.000
74
0
49
1.000
74
0
49
-3.000
74
0
0
LTYPE
5
1fe
100
AcDbSymbolTableRecord
100
AcDbLinetypeTableRecord
2
PHANTOM2
70
64
3
--------  -  -  --------  -  -
72
65
73
6
40
20.000
49
6.000
74
0
49
-5.000
74
0
49
2.000
74
0
49
-5.000
74
0
49
2.000
74
0
49
-5.000
74
0
0
LTYPE
5
1ff
100
AcDbSymbolTableRecord
100
AcDbLinetypeTableRecord
2
HIDDEN
70
64
3
-   -   -   -   -   -   -   -   
72
65
73
2
40
3.000
49
0.500
74
0
49
-2.500
74
0
0
ENDTAB
0
TABLE
2
STYLE
5
200
100
AcDbSymbolTable
70
1
0
STYLE
5
201
100
AcDbSymbolTableRecord
100
AcDbTextStyleTableRecord
2
STANDARD
70
0
40
0.0
41
1.0
50
0.0
71
0
42
0.0
3
txt.shx
4
extfont.shx
0
STYLE
5
202
100
AcDbSymbolTableRecord
100
AcDbTextStyleTableRecord
2
TATEGAKI
70
4
40
0.0
41
1.0
50
0.0
71
0
42
0.0
3
txt.shx
4
extfont.shx
0
STYLE
5
203
100
AcDbSymbolTableRecord
100
AcDbTextStyleTableRecord
2
DIM
70
0
40
0.0
41
0.75
50
0.0
71
0
42
0.0
3
txt.shx
4
extfont.shx
0
STYLE
5
204
100
AcDbSymbolTableRecord
100
AcDbTextStyleTableRecord
2
_Gothic_
70
0
40
1.0
41
1.0
50
0.0
71
0
42
10.0
3

4

1001
ACAD
1000
MS Gothic
1071
32817
0
STYLE
5
205
100
AcDbSymbolTableRecord
100
AcDbTextStyleTableRecord
2
_TateGothic_
70
4
40
0.0
41
1.0
50
0.0
71
0
42
0.0
3
@MS Gothic
4

0
ENDTAB
0
TABLE
2
VIEW
5
206
100
AcDbSymbolTable
70
0
0
ENDTAB
0
TABLE
2
UCS
5
207
100
AcDbSymbolTable
70
0
0
ENDTAB
0
TABLE
2
APPID
5
208
100
AcDbSymbolTable
70
1
0
APPID
5
209
100
AcDbSymbolTableRecord
100
AcDbRegAppTableRecord
2
ACAD
70
0
0
ENDTAB
0
TABLE
2
DIMSTYLE
5
403
330
0
100
AcDbSymbolTable
70
1
100
AcDbDimStyleTable
71
0
0
DIMSTYLE
105
404
330
402
100
AcDbSymbolTableRecord
100
AcDbDimStyleTableRecord
2
JAC_DIM
70
0
41
2.000
42
0.000
44
0.0
73
0
74
0
77
1
78
8
79
2
140
0.000
170
0
171
2
172
0
173
0
174
0
175
0
176
0
177
0
178
0
270
2
271
0
272
0
273
2
274
2
340
201
275
0
280
0
281
0
282
0
283
0
284
0
285
0
286
0
287
3
288
0
0
ENDTAB
0
TABLE
2
BLOCK_RECORD
5
405
100
AcDbSymbolTable
70
0
0
BLOCK_RECORD
5
406
100
AcDbSymbolTableRecord
100
AcDbBlockTableRecord
2
*MODEL_SPACE
0
BLOCK_RECORD
5
407
100
AcDbSymbolTableRecord
100
AcDbBlockTableRecord
2
*PAPER_SPACE
0
BLOCK_RECORD
5
408
100
AcDbSymbolTableRecord
100
AcDbBlockTableRecord
2
_JACCONVERT_
0
ENDTAB
0
TABLE
2
LAYER
5
409
100
AcDbSymbolTable
70
10
0
LAYER
5
40a
100
AcDbSymbolTableRecord
100
AcDbLayerTableRecord
2
0
70
0
62
7
6
CONTINUOUS
370
-3
390
14
0
LAYER
5
40b
100
AcDbSymbolTableRecord
100
AcDbLayerTableRecord
2
0-0
70
0
62
7
6
CONTINUOUS
370
-3
390
14
0
LAYER
5
40c
100
AcDbSymbolTableRecord
100
AcDbLayerTableRecord
2
0-1
70
0
62
7
6
CONTINUOUS
370
-3
390
14
0
LAYER
5
40d
100
AcDbSymbolTableRecord
100
AcDbLayerTableRecord
2
0-9
70
0
62
7
6
CONTINUOUS
370
-3
390
14
0
LAYER
5
40e
100
AcDbSymbolTableRecord
100
AcDbLayerTableRecord
2
0-F
70
0
62
7
6
CONTINUOUS
370
-3
390
14
0
LAYER
5
40f
100
AcDbSymbolTableRecord
100
AcDbLayerTableRecord
2
F-F_J_ADD
70
0
62
-7
6
CONTINUOUS
290
0
370
-3
390
14
0
ENDTAB
0
ENDSEC
0
SECTION
2
BLOCKS
0
BLOCK
5
410
100
AcDbEntity
67
1
8
0
100
AcDbBlockBegin
2
*MODEL_SPACE
70
0
10
0.0
20
0.0
30
0.0
3
*MODEL_SPACE
1

0
ENDBLK
5
411
100
AcDbEntity
8
0
100
AcDbBlockEnd
0
BLOCK
5
412
100
AcDbEntity
67
1
8
0
100
AcDbBlockBegin
2
*PAPER_SPACE
70
0
10
0.0
20
0.0
30
0.0
3
*PAPER_SPACE
1

0
ENDBLK
5
413
100
AcDbEntity
67
1
8
0
100
AcDbBlockEnd
0
BLOCK
5
414
100
AcDbEntity
8
0
100
AcDbBlockBegin
2
_JACCONVERT_
70
2
10
0.0
20
0.0
30
0.0
3
_JACCONVERT_
1
_JACCONVERT_
0
ATTDEF
5
415
100
AcDbEntity
8
0
62
0
100
AcDbText
10
0.0
20
0.0
30
0.0
40
1.0
1
User:UnSettingUp
100
AcDbAttributeDefinition
3

2
USER
70
8
0
ATTDEF
5
416
100
AcDbEntity
8
0
62
0
100
AcDbText
10
0.0
20
2.0
30
0.0
40
1.0
1
Date:23/07/14 16:41
100
AcDbAttributeDefinition
3

2
REVDATE
70
8
0
ATTDEF
5
417
100
AcDbEntity
8
0
62
0
100
AcDbText
10
0.0
20
4.0
30
0.0
40
1.0
1
File:204_LECO40_accessory.dxf
100
AcDbAttributeDefinition
3

2
FNAME
70
8
0
ATTDEF
5
418
100
AcDbEntity
8
0
62
0
100
AcDbText
10
0.0
20
6.0
30
0.0
40
1.0
1
JacConvert Version3.11 copyright (c) 2001-2016 K.Nakahara
100
AcDbAttributeDefinition
3

2
VER
70
8
0
ENDBLK
5
419
100
AcDbEntity
67
1
8
0
100
AcDbBlockEnd
0
ENDSEC
0
SECTION
2
ENTITIES
0
LINE
5
41a
100
AcDbEntity
8
F-F_J_ADD
6
HIDDEN
62
253
100
AcDbLine
10
110.000000000000
20
390.000000000000
30
0.0
11
110.000000000000
21
480.000000000000
31
0.0
0
LINE
5
41b
100
AcDbEntity
8
F-F_J_ADD
6
HIDDEN
62
253
100
AcDbLine
10
135.000000000000
20
390.000000000000
30
0.0
11
135.000000000000
21
480.000000000000
31
0.0
0
LINE
5
41c
100
AcDbEntity
8
F-F_J_ADD
6
HIDDEN
62
253
100
AcDbLine
10
700.000000000000
20
240.000000000000
30
0.0
11
700.000000000000
21
480.000000000000
31
0.0
0
LINE
5
41d
100
AcDbEntity
8
F-F_J_ADD
6
HIDDEN
62
253
100
AcDbLine
10
760.000000000000
20
240.000000000000
30
0.0
11
760.000000000000
21
480.000000000000
31
0.0
0
LINE
5
41e
100
AcDbEntity
8
F-F_J_ADD
6
HIDDEN
62
253
100
AcDbLine
10
820.000000000000
20
240.000000000000
30
0.0
11
820.000000000000
21
480.000000000000
31
0.0
0
LINE
5
41f
100
AcDbEntity
8
F-F_J_ADD
6
HIDDEN
62
253
100
AcDbLine
10
880.000000000000
20
240.000000000000
30
0.0
11
880.000000000000
21
480.000000000000
31
0.0
0
LINE
5
420
100
AcDbEntity
8
F-F_J_ADD
6
HIDDEN
62
253
100
AcDbLine
10
940.000000000000
20
240.000000000000
30
0.0
11
940.000000000000
21
480.000000000000
31
0.0
0
POLYLINE
5
421
100
AcDbEntity
8
0-0
6
CONTINUOUS
62
  7
100
AcDb2dPolyline
66
1
10
0.0
20
0.0
30
0.0
70
0
0
VERTEX
5
422
100
AcDbEntity
8
0-0
6
CONTINUOUS
62
  7
100
AcDbVertex
100
AcDb2dVertex
10
24.930258323227
20
431.783848269312
30
0.0
0
VERTEX
5
423
100
AcDbEntity
8
0-0
6
CONTINUOUS
62
  7
100
AcDbVertex
100
AcDb2dVertex
10
24.498088434133
20
437.285114384573
30
0.0
0
VERTEX
5
424
100
AcDbEntity
8
0-0
6
CONTINUOUS
62
  7
100
AcDbVertex
100
AcDb2dVertex
10
23.630955177690
20
438.400000000000
30
0.0
0
VERTEX
5
425
100
AcDbEntity
8
0-0
6
CONTINUOUS
62
  7
100
AcDbVertex
100
AcDb2dVertex
10
16.369044822310
20
438.400000000000
30
0.0
0
VERTEX
5
426
100
AcDbEntity
8
0-0
6
CONTINUOUS
62
  7
100
AcDbVertex
100
AcDb2dVertex
10
15.501911565867
20
437.285114384573
30
0.0
0
VERTEX
5
427
100
AcDbEntity
8
0-0
6
CONTINUOUS
62
  7
100
AcDbVertex
100
AcDb2dVertex
10
15.069741676773
20
431.783848269312
30
0.0
0
SEQEND
5
428
100
AcDbEntity
8
0-0
0
POLYLINE
5
429
100
AcDbEntity
8
0-0
6
CONTINUOUS
62
  7
100
AcDb2dPolyline
66
1
10
0.0
20
0.0
30
0.0
70
0
0
VERTEX
5
42a
100
AcDbEntity
8
0-0
6
CONTINUOUS
62
  7
100
AcDbVertex
100
AcDb2dVertex
10
14.002764341697
20
430.970485271297
30
0.0
0
VERTEX
5
42b
100
AcDbEntity
8
0-0
6
CONTINUOUS
62
  7
100
AcDbVertex
100
AcDb2dVertex
10
14.500000000000
20
437.300000000000
30
0.0
0
VERTEX
5
42c
100
AcDbEntity
8
0-0
6
CONTINUOUS
62
  7
100
AcDbVertex
100
AcDb2dVertex
10
15.200000000000
20
438.200000000000
30
0.0
0
VERTEX
5
42d
100
AcDbEntity
8
0-0
6
CONTINUOUS
62
  7
100
AcDbVertex
100
AcDb2dVertex
10
15.200000000000
20
439.100000000000
30
0.0
0
SEQEND
5
42e
100
AcDbEntity
8
0-0
0
LINE
5
42f
100
AcDbEntity
8
0-0
6
CONTINUOUS
62
7
100
AcDbLine
10
15.500000000000
20
439.400000000000
30
0.0
11
24.500000000000
21
439.400000000000
31
0.0
0
POLYLINE
5
430
100
AcDbEntity
8
0-0
6
CONTINUOUS
62
  7
100
AcDb2dPolyline
66
1
10
0.0
20
0.0
30
0.0
70
0
0
VERTEX
5
431
100
AcDbEntity
8
0-0
6
CONTINUOUS
62
  7
100
AcDbVertex
100
AcDb2dVertex
10
24.800000000000
20
439.100000000000
30
0.0
0
VERTEX
5
432
100
AcDbEntity
8
0-0
6
CONTINUOUS
62
  7
100
AcDbVertex
100
AcDb2dVertex
10
24.800000000000
20
438.200000000000
30
0.0
0
VERTEX
5
433
100
AcDbEntity
8
0-0
6
CONTINUOUS
62
  7
100
AcDbVertex
100
AcDb2dVertex
10
25.500000000000
20
437.300000000000
30
0.0
0
VERTEX
5
434
100
AcDbEntity
8
0-0
6
CONTINUOUS
62
  7
100
AcDbVertex
100
AcDb2dVertex
10
25.997235658303
20
430.970485271297
30
0.0
0
SEQEND
5
435
100
AcDbEntity
8
0-0
0
ARC
5
436
100
AcDbEntity
8
0-0
6
CONTINUOUS
62
7
100
AcDbCircle
10
14.900000000000
20
430.900000000000
30
0.0
40
0.900000000000
100
AcDbArc
50
175.508168443933
51
439.128798235490
0
ARC
5
437
100
AcDbEntity
8
0-0
6
CONTINUOUS
62
7
100
AcDbCircle
10
25.100000000000
20
430.900000000000
30
0.0
40
0.900000000000
100
AcDbArc
50
100.871201764510
51
364.491831556067
0
ARC
5
438
100
AcDbEntity
8
0-0
6
CONTINUOUS
62
7
100
AcDbCircle
10
15.500000000000
20
439.100000000000
30
0.0
40
0.300000000000
100
AcDbArc
50
90.000000000000
51
180.000000000000
0
ARC
5
439
100
AcDbEntity
8
0-0
6
CONTINUOUS
62
7
100
AcDbCircle
10
24.500000000000
20
439.100000000000
30
0.0
40
0.300000000000
100
AcDbArc
50
0.000000000000
51
90.000000000000
0
LINE
5
43a
100
AcDbEntity
8
0-1
6
CENTER2
62
4
100
AcDbLine
10
20.000000000000
20
415.000000000000
30
0.0
11
20.000000000000
21
425.000000000000
31
0.0
0
LINE
5
43b
100
AcDbEntity
8
0-1
6
CENTER2
62
4
100
AcDbLine
10
15.000000000000
20
420.000000000000
30
0.0
11
25.000000000000
21
420.000000000000
31
0.0
0
LINE
5
43c
100
AcDbEntity
8
0-1
6
PHANTOM
62
4
100
AcDbLine
10
28.000000000000
20
408.792893218813
30
0.0
11
28.000000000000
21
404.100000000000
31
0.0
0
ARC
5
43d
100
AcDbEntity
8
0-1
6
PHANTOM
62
4
100
AcDbCircle
10
31.207106781187
20
412.500000000000
30
0.0
40
0.500000000000
100
AcDbArc
50
225.000000000000
51
270.000000000000
0
LINE
5
43e
100
AcDbEntity
8
0-1
6
PHANTOM
62
4
100
AcDbLine
10
31.207106781187
20
412.000000000000
30
0.0
11
35.900000000000
21
412.000000000000
31
0.0
0
LINE
5
43f
100
AcDbEntity
8
0-1
6
PHANTOM
62
4
100
AcDbLine
10
25.600000000000
20
400.000000000000
30
0.0
11
38.500000000000
21
400.000000000000
31
0.0
0
LINE
5
440
100
AcDbEntity
8
0-1
6
PHANTOM
62
4
100
AcDbLine
10
1.500000000000
20
400.000000000000
30
0.0
11
14.400000000000
21
400.000000000000
31
0.0
0
LINE
5
441
100
AcDbEntity
8
0-1
6
PHANTOM
62
4
100
AcDbLine
10
0.000000000000
20
414.400000000000
30
0.0
11
0.000000000000
21
401.500000000000
31
0.0
0
LINE
5
442
100
AcDbEntity
8
0-1
6
PHANTOM
62
4
100
AcDbLine
10
0.000000000000
20
438.500000000000
30
0.0
11
0.000000000000
21
425.600000000000
31
0.0
0
LINE
5
443
100
AcDbEntity
8
0-1
6
PHANTOM
62
4
100
AcDbLine
10
26.792893218813
20
410.000000000000
30
0.0
11
13.207106781187
21
410.000000000000
31
0.0
0
ARC
5
444
100
AcDbEntity
8
0-1
6
PHANTOM
62
4
100
AcDbCircle
10
13.207106781187
20
409.500000000000
30
0.0
40
0.500000000000
100
AcDbArc
50
90.000000000000
51
135.000000000000
0
LINE
5
445
100
AcDbEntity
8
0-1
6
PHANTOM
62
4
100
AcDbLine
10
12.853553390593
20
409.853553390593
30
0.0
11
12.146446609407
21
409.146446609407
31
0.0
0
ARC
5
446
100
AcDbEntity
8
0-1
6
PHANTOM
62
4
100
AcDbCircle
10
12.500000000000
20
408.792893218813
30
0.0
40
0.500000000000
100
AcDbArc
50
135.000000000000
51
180.000000000000
0
LINE
5
447
100
AcDbEntity
8
0-1
6
PHANTOM
62
4
100
AcDbLine
10
12.000000000000
20
408.792893218813
30
0.0
11
12.000000000000
21
404.100000000000
31
0.0
0
ARC
5
448
100
AcDbEntity
8
0-1
6
PHANTOM
62
4
100
AcDbCircle
10
12.500000000000
20
404.100000000000
30
0.0
40
0.500000000000
100
AcDbArc
50
180.000000000000
51
270.000000000000
0
LINE
5
449
100
AcDbEntity
8
0-1
6
PHANTOM
62
4
100
AcDbLine
10
12.500000000000
20
403.600000000000
30
0.0
11
13.990983005625
21
403.600000000000
31
0.0
0
ARC
5
44a
100
AcDbEntity
8
0-1
6
PHANTOM
62
4
100
AcDbCircle
10
13.990983005625
20
403.100000000000
30
0.0
40
0.500000000000
100
AcDbArc
50
26.565051177068
51
90.000000000000
0
LINE
5
44b
100
AcDbEntity
8
0-1
6
PHANTOM
62
4
100
AcDbLine
10
14.438196601125
20
403.323606797750
30
0.0
11
14.847213595500
21
402.505572809000
31
0.0
0
ARC
5
44c
100
AcDbEntity
8
0-1
6
PHANTOM
62
4
100
AcDbCircle
10
14.400000000000
20
402.281966011250
30
0.0
40
0.500000000000
100
AcDbArc
50
360.000000000000
51
386.565051177078
0
LINE
5
44d
100
AcDbEntity
8
0-1
6
PHANTOM
62
4
100
AcDbLine
10
14.900000000000
20
402.281966011250
30
0.0
11
14.900000000000
21
400.500000000000
31
0.0
0
ARC
5
44e
100
AcDbEntity
8
0-1
6
PHANTOM
62
4
100
AcDbCircle
10
14.400000000000
20
400.500000000000
30
0.0
40
0.500000000000
100
AcDbArc
50
270.000000000000
51
360.000000000000
0
ARC
5
44f
100
AcDbEntity
8
0-1
6
PHANTOM
62
4
100
AcDbCircle
10
26.792893218813
20
409.500000000000
30
0.0
40
0.500000000000
100
AcDbArc
50
45.000000000000
51
90.000000000000
0
LINE
5
450
100
AcDbEntity
8
0-1
6
PHANTOM
62
4
100
AcDbLine
10
27.146446609407
20
409.853553390593
30
0.0
11
27.853553390593
21
409.146446609407
31
0.0
0
ARC
5
451
100
AcDbEntity
8
0-1
6
PHANTOM
62
4
100
AcDbCircle
10
27.500000000000
20
408.792893218813
30
0.0
40
0.500000000000
100
AcDbArc
50
0.000000000000
51
45.000000000000
0
ARC
5
452
100
AcDbEntity
8
0-1
6
PHANTOM
62
4
100
AcDbCircle
10
27.500000000000
20
404.100000000000
30
0.0
40
0.500000000000
100
AcDbArc
50
270.000000000000
51
360.000000000000
0
LINE
5
453
100
AcDbEntity
8
0-1
6
PHANTOM
62
4
100
AcDbLine
10
27.500000000000
20
403.600000000000
30
0.0
11
26.009016994375
21
403.600000000000
31
0.0
0
ARC
5
454
100
AcDbEntity
8
0-1
6
PHANTOM
62
4
100
AcDbCircle
10
26.009016994375
20
403.100000000000
30
0.0
40
0.500000000000
100
AcDbArc
50
90.000000000000
51
153.434948822931
0
LINE
5
455
100
AcDbEntity
8
0-1
6
PHANTOM
62
4
100
AcDbLine
10
25.561803398875
20
403.323606797750
30
0.0
11
25.152786404500
21
402.505572809000
31
0.0
0
ARC
5
456
100
AcDbEntity
8
0-1
6
PHANTOM
62
4
100
AcDbCircle
10
25.600000000000
20
402.281966011250
30
0.0
40
0.500000000000
100
AcDbArc
50
153.434948822922
51
180.000000000000
0
LINE
5
457
100
AcDbEntity
8
0-1
6
PHANTOM
62
4
100
AcDbLine
10
25.100000000000
20
402.281966011250
30
0.0
11
25.100000000000
21
400.500000000000
31
0.0
0
ARC
5
458
100
AcDbEntity
8
0-1
6
PHANTOM
62
4
100
AcDbCircle
10
25.600000000000
20
400.500000000000
30
0.0
40
0.500000000000
100
AcDbArc
50
180.000000000000
51
270.000000000000
0
ARC
5
459
100
AcDbEntity
8
0-1
6
PHANTOM
62
4
100
AcDbCircle
10
9.500000000000
20
426.792893218813
30
0.0
40
0.500000000000
100
AcDbArc
50
0.000000000000
51
45.000000000000
0
LINE
5
45a
100
AcDbEntity
8
0-1
6
PHANTOM
62
4
100
AcDbLine
10
9.853553390593
20
427.146446609407
30
0.0
11
9.146446609407
21
427.853553390593
31
0.0
0
ARC
5
45b
100
AcDbEntity
8
0-1
6
PHANTOM
62
4
100
AcDbCircle
10
8.792893218813
20
427.500000000000
30
0.0
40
0.500000000000
100
AcDbArc
50
45.000000000000
51
90.000000000000
0
LINE
5
45c
100
AcDbEntity
8
0-1
6
PHANTOM
62
4
100
AcDbLine
10
8.792893218813
20
428.000000000000
30
0.0
11
4.100000000000
21
428.000000000000
31
0.0
0
ARC
5
45d
100
AcDbEntity
8
0-1
6
PHANTOM
62
4
100
AcDbCircle
10
4.100000000000
20
427.500000000000
30
0.0
40
0.500000000000
100
AcDbArc
50
90.000000000000
51
180.000000000000
0
LINE
5
45e
100
AcDbEntity
8
0-1
6
PHANTOM
62
4
100
AcDbLine
10
3.600000000000
20
427.500000000000
30
0.0
11
3.600000000000
21
426.009016994375
31
0.0
0
ARC
5
45f
100
AcDbEntity
8
0-1
6
PHANTOM
62
4
100
AcDbCircle
10
3.100000000000
20
426.009016994375
30
0.0
40
0.500000000000
100
AcDbArc
50
296.565051177068
51
360.000000000000
0
LINE
5
460
100
AcDbEntity
8
0-1
6
PHANTOM
62
4
100
AcDbLine
10
3.323606797750
20
425.561803398875
30
0.0
11
2.505572809000
21
425.152786404500
31
0.0
0
ARC
5
461
100
AcDbEntity
8
0-1
6
PHANTOM
62
4
100
AcDbCircle
10
2.281966011250
20
425.600000000000
30
0.0
40
0.500000000000
100
AcDbArc
50
270.000000000000
51
296.565051177078
0
LINE
5
462
100
AcDbEntity
8
0-1
6
PHANTOM
62
4
100
AcDbLine
10
2.281966011250
20
425.100000000000
30
0.0
11
0.500000000000
21
425.100000000000
31
0.0
0
ARC
5
463
100
AcDbEntity
8
0-1
6
PHANTOM
62
4
100
AcDbCircle
10
0.500000000000
20
425.600000000000
30
0.0
40
0.500000000000
100
AcDbArc
50
180.000000000000
51
270.000000000000
0
ARC
5
464
100
AcDbEntity
8
0-1
6
PHANTOM
62
4
100
AcDbCircle
10
9.500000000000
20
413.207106781187
30
0.0
40
0.500000000000
100
AcDbArc
50
315.000000000000
51
360.000000000000
0
LINE
5
465
100
AcDbEntity
8
0-1
6
PHANTOM
62
4
100
AcDbLine
10
9.853553390593
20
412.853553390593
30
0.0
11
9.146446609407
21
412.146446609407
31
0.0
0
ARC
5
466
100
AcDbEntity
8
0-1
6
PHANTOM
62
4
100
AcDbCircle
10
8.792893218813
20
412.500000000000
30
0.0
40
0.500000000000
100
AcDbArc
50
270.000000000000
51
315.000000000000
0
LINE
5
467
100
AcDbEntity
8
0-1
6
PHANTOM
62
4
100
AcDbLine
10
8.792893218813
20
412.000000000000
30
0.0
11
4.100000000000
21
412.000000000000
31
0.0
0
ARC
5
468
100
AcDbEntity
8
0-1
6
PHANTOM
62
4
100
AcDbCircle
10
4.100000000000
20
412.500000000000
30
0.0
40
0.500000000000
100
AcDbArc
50
180.000000000000
51
270.000000000000
0
LINE
5
469
100
AcDbEntity
8
0-1
6
PHANTOM
62
4
100
AcDbLine
10
3.600000000000
20
412.500000000000
30
0.0
11
3.600000000000
21
413.990983005625
31
0.0
0
ARC
5
46a
100
AcDbEntity
8
0-1
6
PHANTOM
62
4
100
AcDbCircle
10
3.100000000000
20
413.990983005625
30
0.0
40
0.500000000000
100
AcDbArc
50
0.000000000000
51
63.434948822931
0
LINE
5
46b
100
AcDbEntity
8
0-1
6
PHANTOM
62
4
100
AcDbLine
10
3.323606797750
20
414.438196601125
30
0.0
11
2.505572809000
21
414.847213595500
31
0.0
0
ARC
5
46c
100
AcDbEntity
8
0-1
6
PHANTOM
62
4
100
AcDbCircle
10
2.281966011250
20
414.400000000000
30
0.0
40
0.500000000000
100
AcDbArc
50
63.434948822922
51
90.000000000000
0
LINE
5
46d
100
AcDbEntity
8
0-1
6
PHANTOM
62
4
100
AcDbLine
10
2.281966011250
20
414.900000000000
30
0.0
11
0.500000000000
21
414.900000000000
31
0.0
0
ARC
5
46e
100
AcDbEntity
8
0-1
6
PHANTOM
62
4
100
AcDbCircle
10
0.500000000000
20
414.400000000000
30
0.0
40
0.500000000000
100
AcDbArc
50
90.000000000000
51
180.000000000000
0
LINE
5
46f
100
AcDbEntity
8
0-1
6
PHANTOM
62
4
100
AcDbLine
10
13.207106781187
20
430.000000000000
30
0.0
11
26.792893218813
21
430.000000000000
31
0.0
0
ARC
5
470
100
AcDbEntity
8
0-1
6
PHANTOM
62
4
100
AcDbCircle
10
26.792893218813
20
430.500000000000
30
0.0
40
0.500000000000
100
AcDbArc
50
270.000000000000
51
315.000000000000
0
LINE
5
471
100
AcDbEntity
8
0-1
6
PHANTOM
62
4
100
AcDbLine
10
27.146446609407
20
430.146446609407
30
0.0
11
27.853553390593
21
430.853553390593
31
0.0
0
ARC
5
472
100
AcDbEntity
8
0-1
6
PHANTOM
62
4
100
AcDbCircle
10
27.500000000000
20
431.207106781187
30
0.0
40
0.500000000000
100
AcDbArc
50
315.000000000000
51
360.000000000000
0
LINE
5
473
100
AcDbEntity
8
0-1
6
PHANTOM
62
4
100
AcDbLine
10
28.000000000000
20
431.207106781187
30
0.0
11
28.000000000000
21
435.900000000000
31
0.0
0
ARC
5
474
100
AcDbEntity
8
0-1
6
PHANTOM
62
4
100
AcDbCircle
10
27.500000000000
20
435.900000000000
30
0.0
40
0.500000000000
100
AcDbArc
50
0.000000000000
51
90.000000000000
0
LINE
5
475
100
AcDbEntity
8
0-1
6
PHANTOM
62
4
100
AcDbLine
10
27.500000000000
20
436.400000000000
30
0.0
11
26.009016994375
21
436.400000000000
31
0.0
0
ARC
5
476
100
AcDbEntity
8
0-1
6
PHANTOM
62
4
100
AcDbCircle
10
26.009016994375
20
436.900000000000
30
0.0
40
0.500000000000
100
AcDbArc
50
206.565051177069
51
270.000000000000
0
LINE
5
477
100
AcDbEntity
8
0-1
6
PHANTOM
62
4
100
AcDbLine
10
25.561803398875
20
436.676393202250
30
0.0
11
25.152786404500
21
437.494427191000
31
0.0
0
ARC
5
478
100
AcDbEntity
8
0-1
6
PHANTOM
62
4
100
AcDbCircle
10
25.600000000000
20
437.718033988750
30
0.0
40
0.500000000000
100
AcDbArc
50
180.000000000000
51
206.565051177078
0
LINE
5
479
100
AcDbEntity
8
0-1
6
PHANTOM
62
4
100
AcDbLine
10
25.100000000000
20
437.718033988750
30
0.0
11
25.100000000000
21
439.500000000000
31
0.0
0
ARC
5
47a
100
AcDbEntity
8
0-1
6
PHANTOM
62
4
100
AcDbCircle
10
25.600000000000
20
439.500000000000
30
0.0
40
0.500000000000
100
AcDbArc
50
90.000000000000
51
180.000000000000
0
ARC
5
47b
100
AcDbEntity
8
0-1
6
PHANTOM
62
4
100
AcDbCircle
10
13.207106781187
20
430.500000000000
30
0.0
40
0.500000000000
100
AcDbArc
50
225.000000000000
51
270.000000000000
0
LINE
5
47c
100
AcDbEntity
8
0-1
6
PHANTOM
62
4
100
AcDbLine
10
12.853553390593
20
430.146446609407
30
0.0
11
12.146446609407
21
430.853553390593
31
0.0
0
ARC
5
47d
100
AcDbEntity
8
0-1
6
PHANTOM
62
4
100
AcDbCircle
10
12.500000000000
20
431.207106781187
30
0.0
40
0.500000000000
100
AcDbArc
50
180.000000000000
51
225.000000000000
0
LINE
5
47e
100
AcDbEntity
8
0-1
6
PHANTOM
62
4
100
AcDbLine
10
12.000000000000
20
431.207106781187
30
0.0
11
12.000000000000
21
435.900000000000
31
0.0
0
ARC
5
47f
100
AcDbEntity
8
0-1
6
PHANTOM
62
4
100
AcDbCircle
10
12.500000000000
20
435.900000000000
30
0.0
40
0.500000000000
100
AcDbArc
50
90.000000000000
51
180.000000000000
0
LINE
5
480
100
AcDbEntity
8
0-1
6
PHANTOM
62
4
100
AcDbLine
10
12.500000000000
20
436.400000000000
30
0.0
11
13.990983005625
21
436.400000000000
31
0.0
0
ARC
5
481
100
AcDbEntity
8
0-1
6
PHANTOM
62
4
100
AcDbCircle
10
13.990983005625
20
436.900000000000
30
0.0
40
0.500000000000
100
AcDbArc
50
270.000000000000
51
333.434948822932
0
LINE
5
482
100
AcDbEntity
8
0-1
6
PHANTOM
62
4
100
AcDbLine
10
14.438196601125
20
436.676393202250
30
0.0
11
14.847213595500
21
437.494427191000
31
0.0
0
ARC
5
483
100
AcDbEntity
8
0-1
6
PHANTOM
62
4
100
AcDbCircle
10
14.400000000000
20
437.718033988750
30
0.0
40
0.500000000000
100
AcDbArc
50
333.434948822922
51
360.000000000000
0
LINE
5
484
100
AcDbEntity
8
0-1
6
PHANTOM
62
4
100
AcDbLine
10
14.900000000000
20
437.718033988750
30
0.0
11
14.900000000000
21
439.500000000000
31
0.0
0
ARC
5
485
100
AcDbEntity
8
0-1
6
PHANTOM
62
4
100
AcDbCircle
10
14.400000000000
20
439.500000000000
30
0.0
40
0.500000000000
100
AcDbArc
50
0.000000000000
51
90.000000000000
0
ARC
5
486
100
AcDbEntity
8
0-1
6
PHANTOM
62
4
100
AcDbCircle
10
30.500000000000
20
413.207106781187
30
0.0
40
0.500000000000
100
AcDbArc
50
180.000000000000
51
225.000000000000
0
LINE
5
487
100
AcDbEntity
8
0-1
6
PHANTOM
62
4
100
AcDbLine
10
30.146446609407
20
412.853553390593
30
0.0
11
30.853553390593
21
412.146446609407
31
0.0
0
ARC
5
488
100
AcDbEntity
8
0-1
6
PHANTOM
62
4
100
AcDbCircle
10
35.900000000000
20
412.500000000000
30
0.0
40
0.500000000000
100
AcDbArc
50
270.000000000000
51
360.000000000000
0
LINE
5
489
100
AcDbEntity
8
0-1
6
PHANTOM
62
4
100
AcDbLine
10
36.400000000000
20
412.500000000000
30
0.0
11
36.400000000000
21
413.990983005625
31
0.0
0
ARC
5
48a
100
AcDbEntity
8
0-1
6
PHANTOM
62
4
100
AcDbCircle
10
36.900000000000
20
413.990983005625
30
0.0
40
0.500000000000
100
AcDbArc
50
116.565051177068
51
180.000000000000
0
LINE
5
48b
100
AcDbEntity
8
0-1
6
PHANTOM
62
4
100
AcDbLine
10
36.676393202250
20
414.438196601125
30
0.0
11
37.494427191000
21
414.847213595500
31
0.0
0
ARC
5
48c
100
AcDbEntity
8
0-1
6
PHANTOM
62
4
100
AcDbCircle
10
37.718033988750
20
414.400000000000
30
0.0
40
0.500000000000
100
AcDbArc
50
90.000000000000
51
116.565051177078
0
LINE
5
48d
100
AcDbEntity
8
0-1
6
PHANTOM
62
4
100
AcDbLine
10
37.718033988750
20
414.900000000000
30
0.0
11
39.500000000000
21
414.900000000000
31
0.0
0
ARC
5
48e
100
AcDbEntity
8
0-1
6
PHANTOM
62
4
100
AcDbCircle
10
39.500000000000
20
414.400000000000
30
0.0
40
0.500000000000
100
AcDbArc
50
0.000000000000
51
90.000000000000
0
LINE
5
48f
100
AcDbEntity
8
0-1
6
PHANTOM
62
4
100
AcDbLine
10
40.000000000000
20
414.400000000000
30
0.0
11
40.000000000000
21
401.500000000000
31
0.0
0
ARC
5
490
100
AcDbEntity
8
0-1
6
PHANTOM
62
4
100
AcDbCircle
10
30.500000000000
20
426.792893218813
30
0.0
40
0.500000000000
100
AcDbArc
50
135.000000000000
51
180.000000000000
0
LINE
5
491
100
AcDbEntity
8
0-1
6
PHANTOM
62
4
100
AcDbLine
10
30.146446609407
20
427.146446609407
30
0.0
11
30.853553390593
21
427.853553390593
31
0.0
0
ARC
5
492
100
AcDbEntity
8
0-1
6
PHANTOM
62
4
100
AcDbCircle
10
31.207106781187
20
427.500000000000
30
0.0
40
0.500000000000
100
AcDbArc
50
90.000000000000
51
135.000000000000
0
LINE
5
493
100
AcDbEntity
8
0-1
6
PHANTOM
62
4
100
AcDbLine
10
31.207106781187
20
428.000000000000
30
0.0
11
35.900000000000
21
428.000000000000
31
0.0
0
ARC
5
494
100
AcDbEntity
8
0-1
6
PHANTOM
62
4
100
AcDbCircle
10
35.900000000000
20
427.500000000000
30
0.0
40
0.500000000000
100
AcDbArc
50
0.000000000000
51
90.000000000000
0
LINE
5
495
100
AcDbEntity
8
0-1
6
PHANTOM
62
4
100
AcDbLine
10
36.400000000000
20
427.500000000000
30
0.0
11
36.400000000000
21
426.009016994375
31
0.0
0
ARC
5
496
100
AcDbEntity
8
0-1
6
PHANTOM
62
4
100
AcDbCircle
10
36.900000000000
20
426.009016994375
30
0.0
40
0.500000000000
100
AcDbArc
50
180.000000000000
51
243.434948822931
0
LINE
5
497
100
AcDbEntity
8
0-1
6
PHANTOM
62
4
100
AcDbLine
10
36.676393202250
20
425.561803398875
30
0.0
11
37.494427191000
21
425.152786404500
31
0.0
0
ARC
5
498
100
AcDbEntity
8
0-1
6
PHANTOM
62
4
100
AcDbCircle
10
37.718033988750
20
425.600000000000
30
0.0
40
0.500000000000
100
AcDbArc
50
243.434948822922
51
270.000000000000
0
LINE
5
499
100
AcDbEntity
8
0-1
6
PHANTOM
62
4
100
AcDbLine
10
37.718033988750
20
425.100000000000
30
0.0
11
39.500000000000
21
425.100000000000
31
0.0
0
ARC
5
49a
100
AcDbEntity
8
0-1
6
PHANTOM
62
4
100
AcDbCircle
10
39.500000000000
20
425.600000000000
30
0.0
40
0.500000000000
100
AcDbArc
50
270.000000000000
51
360.000000000000
0
LINE
5
49b
100
AcDbEntity
8
0-1
6
PHANTOM
62
4
100
AcDbLine
10
40.000000000000
20
425.600000000000
30
0.0
11
40.000000000000
21
438.500000000000
31
0.0
0
ARC
5
49c
100
AcDbEntity
8
0-1
6
PHANTOM
62
4
100
AcDbCircle
10
1.500000000000
20
438.500000000000
30
0.0
40
1.500000000000
100
AcDbArc
50
90.000000000000
51
180.000000000000
0
ARC
5
49d
100
AcDbEntity
8
0-1
6
PHANTOM
62
4
100
AcDbCircle
10
1.500000000000
20
401.500000000000
30
0.0
40
1.500000000000
100
AcDbArc
50
180.000000000000
51
270.000000000000
0
ARC
5
49e
100
AcDbEntity
8
0-1
6
PHANTOM
62
4
100
AcDbCircle
10
38.500000000000
20
401.500000000000
30
0.0
40
1.500000000000
100
AcDbArc
50
270.000000000000
51
360.000000000000
0
ARC
5
49f
100
AcDbEntity
8
0-1
6
PHANTOM
62
4
100
AcDbCircle
10
38.500000000000
20
438.500000000000
30
0.0
40
1.500000000000
100
AcDbArc
50
0.000000000000
51
90.000000000000
0
LINE
5
4a0
100
AcDbEntity
8
0-1
6
PHANTOM
62
4
100
AcDbLine
10
10.000000000000
20
413.207106781187
30
0.0
11
10.000000000000
21
426.792893218813
31
0.0
0
LINE
5
4a1
100
AcDbEntity
8
0-1
6
PHANTOM
62
4
100
AcDbLine
10
30.000000000000
20
426.792893218813
30
0.0
11
30.000000000000
21
413.207106781187
31
0.0
0
LINE
5
4a2
100
AcDbEntity
8
0-1
6
PHANTOM
62
4
100
AcDbLine
10
1.500000000000
20
440.000000000000
30
0.0
11
38.500000000000
21
440.000000000000
31
0.0
0
LINE
5
4a3
100
AcDbEntity
8
0-1
6
PHANTOM
62
4
100
AcDbLine
10
20.000000000000
20
440.000000000000
30
0.0
11
20.000000000000
21
419.769329075892
31
0.0
0
TEXT
5
4a4
100
AcDbEntity
8
0-0
62
7
370
-3
100
AcDbText
10
0.172
20
390.660
30
0.0
40
3.618
1
SC4S,G,B
41
0.440
50
0.000
100
AcDbText
0
MTEXT
5
4a5
100
AcDbEntity
8
0-0
62
7
370
-3
100
AcDbMText
10
62.642
20
390.300
30
0.0
40
3.974
41
0.000
71
7
72
1
1
\W0.972;{\W0.700;CV1F}、{\W0.700;CV1FB}
7
STANDARD
11
1.00000
21
0.00000
31
0.0
0
LINE
5
4a6
100
AcDbEntity
8
0-1
6
PHANTOM
62
7
100
AcDbLine
10
85.600000381470
20
400.000000000000
30
0.0
11
98.500000000000
21
400.000000000000
31
0.0
0
LINE
5
4a7
100
AcDbEntity
8
0-1
6
PHANTOM
62
7
100
AcDbLine
10
60.000000000000
20
425.600000381470
30
0.0
11
60.000000000000
21
438.500000000000
31
0.0
0
LINE
5
4a8
100
AcDbEntity
8
0-1
6
PHANTOM
62
7
100
AcDbLine
10
60.000000000000
20
414.399999618530
30
0.0
11
60.000000000000
21
401.500000000000
31
0.0
0
LINE
5
4a9
100
AcDbEntity
8
0-1
6
PHANTOM
62
7
100
AcDbLine
10
100.000000000000
20
425.600000381470
30
0.0
11
100.000000000000
21
438.500000000000
31
0.0
0
LINE
5
4aa
100
AcDbEntity
8
0-1
6
PHANTOM
62
7
100
AcDbLine
10
100.000000000000
20
414.399999618530
30
0.0
11
100.000000000000
21
401.500000000000
31
0.0
0
LINE
5
4ab
100
AcDbEntity
8
0-1
6
PHANTOM
62
7
100
AcDbLine
10
74.399999618530
20
400.000000000000
30
0.0
11
61.500000000000
21
400.000000000000
31
0.0
0
LINE
5
4ac
100
AcDbEntity
8
0-1
6
PHANTOM
62
7
100
AcDbLine
10
62.281965970993
20
414.899999618530
30
0.0
11
60.500000000000
21
414.899999618530
31
0.0
0
LINE
5
4ad
100
AcDbEntity
8
0-1
6
PHANTOM
62
7
100
AcDbLine
10
62.505572795868
20
414.847213745117
30
0.0
11
63.323606729507
21
414.438196182251
31
0.0
0
LINE
5
4ae
100
AcDbEntity
8
0-1
6
PHANTOM
62
7
100
AcDbLine
10
62.281965970993
20
425.100000381470
30
0.0
11
60.500000000000
21
425.100000381470
31
0.0
0
LINE
5
4af
100
AcDbEntity
8
0-1
6
PHANTOM
62
7
100
AcDbLine
10
62.505572795868
20
425.152786254883
30
0.0
11
63.323606729507
21
425.561803817749
31
0.0
0
LINE
5
4b0
100
AcDbEntity
8
0-1
6
PHANTOM
62
7
100
AcDbLine
10
63.599999904633
20
427.500000000000
30
0.0
11
63.599999904633
21
426.009016990662
31
0.0
0
LINE
5
4b1
100
AcDbEntity
8
0-1
6
PHANTOM
62
7
100
AcDbLine
10
63.599999904633
20
412.500000000000
30
0.0
11
63.599999904633
21
413.990982055664
31
0.0
0
LINE
5
4b2
100
AcDbEntity
8
0-1
6
PHANTOM
62
7
100
AcDbLine
10
74.899999618530
20
437.718034029007
30
0.0
11
74.899999618530
21
439.500000000000
31
0.0
0
LINE
5
4b3
100
AcDbEntity
8
0-1
6
PHANTOM
62
7
100
AcDbLine
10
74.847213745117
20
437.494427204132
30
0.0
11
74.438196182251
21
436.676393270493
31
0.0
0
LINE
5
4b4
100
AcDbEntity
8
0-1
6
PHANTOM
62
7
100
AcDbLine
10
72.500000000000
20
436.400000095367
30
0.0
11
73.990983009338
21
436.400000095367
31
0.0
0
LINE
5
4b5
100
AcDbEntity
8
0-1
6
PHANTOM
62
7
100
AcDbLine
10
87.500000000000
20
436.400000095367
30
0.0
11
86.009017944336
21
436.400000095367
31
0.0
0
LINE
5
4b6
100
AcDbEntity
8
0-1
6
PHANTOM
62
7
100
AcDbLine
10
85.152786254883
20
437.494427204132
30
0.0
11
85.561803817749
21
436.676393270493
31
0.0
0
LINE
5
4b7
100
AcDbEntity
8
0-1
6
PHANTOM
62
7
100
AcDbLine
10
85.100000381470
20
437.718034029007
30
0.0
11
85.100000381470
21
439.500000000000
31
0.0
0
LINE
5
4b8
100
AcDbEntity
8
0-1
6
PHANTOM
62
7
100
AcDbLine
10
97.718032836914
20
414.899999618530
30
0.0
11
99.500000000000
21
414.899999618530
31
0.0
0
LINE
5
4b9
100
AcDbEntity
8
0-1
6
PHANTOM
62
7
100
AcDbLine
10
97.494426727295
20
414.847213745117
30
0.0
11
96.676391601563
21
414.438196182251
31
0.0
0
LINE
5
4ba
100
AcDbEntity
8
0-1
6
PHANTOM
62
7
100
AcDbLine
10
96.400001525879
20
412.500000000000
30
0.0
11
96.400001525879
21
413.990982055664
31
0.0
0
LINE
5
4bb
100
AcDbEntity
8
0-1
6
PHANTOM
62
7
100
AcDbLine
10
96.400001525879
20
427.500000000000
30
0.0
11
96.400001525879
21
426.009016990662
31
0.0
0
LINE
5
4bc
100
AcDbEntity
8
0-1
6
PHANTOM
62
7
100
AcDbLine
10
97.494426727295
20
425.152786254883
30
0.0
11
96.676391601563
21
425.561803817749
31
0.0
0
LINE
5
4bd
100
AcDbEntity
8
0-1
6
PHANTOM
62
7
100
AcDbLine
10
97.718032836914
20
425.100000381470
30
0.0
11
99.500000000000
21
425.100000381470
31
0.0
0
LINE
5
4be
100
AcDbEntity
8
0-1
6
PHANTOM
62
7
100
AcDbLine
10
74.899999618530
20
402.281967163086
30
0.0
11
74.899999618530
21
400.500000000000
31
0.0
0
LINE
5
4bf
100
AcDbEntity
8
0-1
6
PHANTOM
62
7
100
AcDbLine
10
74.847213745117
20
402.505573272705
30
0.0
11
74.438196182251
21
403.323608398437
31
0.0
0
LINE
5
4c0
100
AcDbEntity
8
0-1
6
PHANTOM
62
7
100
AcDbLine
10
72.500000000000
20
403.599998474121
30
0.0
11
73.990983009338
21
403.599998474121
31
0.0
0
LINE
5
4c1
100
AcDbEntity
8
0-1
6
PHANTOM
62
7
100
AcDbLine
10
87.500000000000
20
403.599998474121
30
0.0
11
86.009017944336
21
403.599998474121
31
0.0
0
LINE
5
4c2
100
AcDbEntity
8
0-1
6
PHANTOM
62
7
100
AcDbLine
10
85.152786254883
20
402.505573272705
30
0.0
11
85.561803817749
21
403.323608398437
31
0.0
0
LINE
5
4c3
100
AcDbEntity
8
0-1
6
PHANTOM
62
7
100
AcDbLine
10
85.100000381470
20
402.281967163086
30
0.0
11
85.100000381470
21
400.500000000000
31
0.0
0
LINE
5
4c4
100
AcDbEntity
8
0-1
6
PHANTOM
62
7
100
AcDbLine
10
72.000000000000
20
408.292892456055
30
0.0
11
72.000000000000
21
404.099998474121
31
0.0
0
LINE
5
4c5
100
AcDbEntity
8
0-1
6
PHANTOM
62
7
100
AcDbLine
10
73.353553771973
20
409.853553771973
30
0.0
11
72.146446228027
21
408.646446228027
31
0.0
0
LINE
5
4c6
100
AcDbEntity
8
0-1
6
PHANTOM
62
7
100
AcDbLine
10
86.292892456055
20
410.000000000000
30
0.0
11
73.707106590271
21
410.000000000000
31
0.0
0
LINE
5
4c7
100
AcDbEntity
8
0-1
6
PHANTOM
62
7
100
AcDbLine
10
87.853553771973
20
408.646446228027
30
0.0
11
86.646446228027
21
409.853553771973
31
0.0
0
LINE
5
4c8
100
AcDbEntity
8
0-1
6
PHANTOM
62
7
100
AcDbLine
10
88.000000000000
20
408.292892456055
30
0.0
11
88.000000000000
21
404.099998474121
31
0.0
0
LINE
5
4c9
100
AcDbEntity
8
0-1
6
PHANTOM
62
7
100
AcDbLine
10
91.707107543945
20
412.000000000000
30
0.0
11
95.900001525879
21
412.000000000000
31
0.0
0
LINE
5
4ca
100
AcDbEntity
8
0-1
6
PHANTOM
62
7
100
AcDbLine
10
90.146446228027
20
413.353553771973
30
0.0
11
91.353553771973
21
412.146446228027
31
0.0
0
LINE
5
4cb
100
AcDbEntity
8
0-1
6
PHANTOM
62
7
100
AcDbLine
10
91.353553771973
20
427.853553771973
30
0.0
11
90.146446228027
21
426.646446228027
31
0.0
0
LINE
5
4cc
100
AcDbEntity
8
0-1
6
PHANTOM
62
7
100
AcDbLine
10
91.707107543945
20
428.000000000000
30
0.0
11
95.900001525879
21
428.000000000000
31
0.0
0
LINE
5
4cd
100
AcDbEntity
8
0-1
6
PHANTOM
62
7
100
AcDbLine
10
88.000000000000
20
431.707106590271
30
0.0
11
88.000000000000
21
435.900000095367
31
0.0
0
LINE
5
4ce
100
AcDbEntity
8
0-1
6
PHANTOM
62
7
100
AcDbLine
10
86.646446228027
20
430.146446228027
30
0.0
11
87.853553771973
21
431.353553771973
31
0.0
0
LINE
5
4cf
100
AcDbEntity
8
0-1
6
PHANTOM
62
7
100
AcDbLine
10
73.707106590271
20
430.000000000000
30
0.0
11
86.292892456055
21
430.000000000000
31
0.0
0
LINE
5
4d0
100
AcDbEntity
8
0-1
6
PHANTOM
62
7
100
AcDbLine
10
72.146446228027
20
431.353553771973
30
0.0
11
73.353553771973
21
430.146446228027
31
0.0
0
LINE
5
4d1
100
AcDbEntity
8
0-1
6
PHANTOM
62
7
100
AcDbLine
10
72.000000000000
20
431.707106590271
30
0.0
11
72.000000000000
21
435.900000095367
31
0.0
0
LINE
5
4d2
100
AcDbEntity
8
0-1
6
PHANTOM
62
7
100
AcDbLine
10
68.292893409729
20
412.000000000000
30
0.0
11
64.099999904633
21
412.000000000000
31
0.0
0
LINE
5
4d3
100
AcDbEntity
8
0-1
6
PHANTOM
62
7
100
AcDbLine
10
69.853553771973
20
413.353553771973
30
0.0
11
68.646446228027
21
412.146446228027
31
0.0
0
LINE
5
4d4
100
AcDbEntity
8
0-1
6
PHANTOM
62
7
100
AcDbLine
10
68.646446228027
20
427.853553771973
30
0.0
11
69.853553771973
21
426.646446228027
31
0.0
0
LINE
5
4d5
100
AcDbEntity
8
0-1
6
PHANTOM
62
7
100
AcDbLine
10
68.292893409729
20
428.000000000000
30
0.0
11
64.099999904633
21
428.000000000000
31
0.0
0
ARC
5
4d6
100
AcDbEntity
8
0-1
6
PHANTOM
62
7
100
AcDbCircle
10
73.990983009338
20
436.900000095367
30
0.0
40
0.500000000000
100
AcDbArc
50
270.000000000000
51
333.434936523438
0
ARC
5
4d7
100
AcDbEntity
8
0-1
6
PHANTOM
62
7
100
AcDbCircle
10
86.009017944336
20
436.900000095367
30
0.0
40
0.500000000000
100
AcDbArc
50
206.565048217773
51
270.000000000000
0
ARC
5
4d8
100
AcDbEntity
8
0-1
6
PHANTOM
62
7
100
AcDbCircle
10
86.009017944336
20
403.099998474121
30
0.0
40
0.500000000000
100
AcDbArc
50
90.000000000000
51
153.434936523438
0
ARC
5
4d9
100
AcDbEntity
8
0-1
6
PHANTOM
62
7
100
AcDbCircle
10
73.990983009338
20
403.099998474121
30
0.0
40
0.500000000000
100
AcDbArc
50
26.565048217773
51
90.000000000000
0
ARC
5
4da
100
AcDbEntity
8
0-1
6
PHANTOM
62
7
100
AcDbCircle
10
96.900001525879
20
426.009016990662
30
0.0
40
0.500000000000
100
AcDbArc
50
180.000000000000
51
243.434936523438
0
ARC
5
4db
100
AcDbEntity
8
0-1
6
PHANTOM
62
7
100
AcDbCircle
10
96.900001525879
20
413.990982055664
30
0.0
40
0.500000000000
100
AcDbArc
50
116.565048217773
51
180.000000000000
0
ARC
5
4dc
100
AcDbEntity
8
0-1
6
PHANTOM
62
7
100
AcDbCircle
10
63.099999904633
20
413.990982055664
30
0.0
40
0.500000000000
100
AcDbArc
50
0.000000000000
51
63.434936523437
0
ARC
5
4dd
100
AcDbEntity
8
0-1
6
PHANTOM
62
7
100
AcDbCircle
10
63.099999904633
20
426.009016990662
30
0.0
40
0.500000000000
100
AcDbArc
50
296.565048217773
51
360.000000000000
0
ARC
5
4de
100
AcDbEntity
8
0-1
6
PHANTOM
62
7
100
AcDbCircle
10
61.500000000000
20
401.500000000000
30
0.0
40
1.500000000000
100
AcDbArc
50
180.000000000000
51
270.000000000000
0
ARC
5
4df
100
AcDbEntity
8
0-1
6
PHANTOM
62
7
100
AcDbCircle
10
61.500000000000
20
438.500000000000
30
0.0
40
1.500000000000
100
AcDbArc
50
90.000000000000
51
180.000000000000
0
ARC
5
4e0
100
AcDbEntity
8
0-1
6
PHANTOM
62
7
100
AcDbCircle
10
98.500000000000
20
438.500000000000
30
0.0
40
1.500000000000
100
AcDbArc
50
0.000000000000
51
90.000000000000
0
ARC
5
4e1
100
AcDbEntity
8
0-1
6
PHANTOM
62
7
100
AcDbCircle
10
98.500000000000
20
401.500000000000
30
0.0
40
1.500000000000
100
AcDbArc
50
270.000000000000
51
360.000000000000
0
ARC
5
4e2
100
AcDbEntity
8
0-1
6
PHANTOM
62
7
100
AcDbCircle
10
60.500000000000
20
414.399999618530
30
0.0
40
0.500000000000
100
AcDbArc
50
90.000000000000
51
180.000000000000
0
ARC
5
4e3
100
AcDbEntity
8
0-1
6
PHANTOM
62
7
100
AcDbCircle
10
60.500000000000
20
425.600000381470
30
0.0
40
0.500000000000
100
AcDbArc
50
180.000000000000
51
270.000000000000
0
ARC
5
4e4
100
AcDbEntity
8
0-1
6
PHANTOM
62
7
100
AcDbCircle
10
74.399999618530
20
439.500000000000
30
0.0
40
0.500000000000
100
AcDbArc
50
0.000000000000
51
90.000000000000
0
ARC
5
4e5
100
AcDbEntity
8
0-1
6
PHANTOM
62
7
100
AcDbCircle
10
85.600000381470
20
439.500000000000
30
0.0
40
0.500000000000
100
AcDbArc
50
90.000000000000
51
180.000000000000
0
ARC
5
4e6
100
AcDbEntity
8
0-1
6
PHANTOM
62
7
100
AcDbCircle
10
99.500000000000
20
425.600000381470
30
0.0
40
0.500000000000
100
AcDbArc
50
270.000000000000
51
360.000000000000
0
ARC
5
4e7
100
AcDbEntity
8
0-1
6
PHANTOM
62
7
100
AcDbCircle
10
99.500000000000
20
414.399999618530
30
0.0
40
0.500000000000
100
AcDbArc
50
0.000000000000
51
90.000000000000
0
ARC
5
4e8
100
AcDbEntity
8
0-1
6
PHANTOM
62
7
100
AcDbCircle
10
85.600000381470
20
400.500000000000
30
0.0
40
0.500000000000
100
AcDbArc
50
180.000000000000
51
270.000000000000
0
ARC
5
4e9
100
AcDbEntity
8
0-1
6
PHANTOM
62
7
100
AcDbCircle
10
74.399999618530
20
400.500000000000
30
0.0
40
0.500000000000
100
AcDbArc
50
270.000000000000
51
359.999984741211
0
ARC
5
4ea
100
AcDbEntity
8
0-1
6
PHANTOM
62
7
100
AcDbCircle
10
62.281965970993
20
414.399999618530
30
0.0
40
0.500000000000
100
AcDbArc
50
63.434936523438
51
90.000000000000
0
ARC
5
4eb
100
AcDbEntity
8
0-1
6
PHANTOM
62
7
100
AcDbCircle
10
62.281965970993
20
425.600000381470
30
0.0
40
0.500000000000
100
AcDbArc
50
270.000000000000
51
296.565048217773
0
ARC
5
4ec
100
AcDbEntity
8
0-1
6
PHANTOM
62
7
100
AcDbCircle
10
64.099999904633
20
427.500000000000
30
0.0
40
0.500000000000
100
AcDbArc
50
90.000000000000
51
180.000000000000
0
ARC
5
4ed
100
AcDbEntity
8
0-1
6
PHANTOM
62
7
100
AcDbCircle
10
64.099999904633
20
412.500000000000
30
0.0
40
0.500000000000
100
AcDbArc
50
180.000000000000
51
270.000000000000
0
ARC
5
4ee
100
AcDbEntity
8
0-1
6
PHANTOM
62
7
100
AcDbCircle
10
74.399999618530
20
437.718034029007
30
0.0
40
0.500000000000
100
AcDbArc
50
333.434936523438
51
360.000000000000
0
ARC
5
4ef
100
AcDbEntity
8
0-1
6
PHANTOM
62
7
100
AcDbCircle
10
72.500000000000
20
435.900000095367
30
0.0
40
0.500000000000
100
AcDbArc
50
90.000000000000
51
180.000000000000
0
ARC
5
4f0
100
AcDbEntity
8
0-1
6
PHANTOM
62
7
100
AcDbCircle
10
87.500000000000
20
435.900000095367
30
0.0
40
0.500000000000
100
AcDbArc
50
0.000000000000
51
90.000000000000
0
ARC
5
4f1
100
AcDbEntity
8
0-1
6
PHANTOM
62
7
100
AcDbCircle
10
85.600000381470
20
437.718034029007
30
0.0
40
0.500000000000
100
AcDbArc
50
180.000000000000
51
206.565048217773
0
ARC
5
4f2
100
AcDbEntity
8
0-1
6
PHANTOM
62
7
100
AcDbCircle
10
97.718032836914
20
414.399999618530
30
0.0
40
0.500000000000
100
AcDbArc
50
90.000000000000
51
116.565048217773
0
ARC
5
4f3
100
AcDbEntity
8
0-1
6
PHANTOM
62
7
100
AcDbCircle
10
95.900001525879
20
412.500000000000
30
0.0
40
0.500000000000
100
AcDbArc
50
270.000000000000
51
360.000000000000
0
ARC
5
4f4
100
AcDbEntity
8
0-1
6
PHANTOM
62
7
100
AcDbCircle
10
95.900001525879
20
427.500000000000
30
0.0
40
0.500000000000
100
AcDbArc
50
0.000000000000
51
90.000000000000
0
ARC
5
4f5
100
AcDbEntity
8
0-1
6
PHANTOM
62
7
100
AcDbCircle
10
97.718032836914
20
425.600000381470
30
0.0
40
0.500000000000
100
AcDbArc
50
243.434936523438
51
270.000000000000
0
ARC
5
4f6
100
AcDbEntity
8
0-1
6
PHANTOM
62
7
100
AcDbCircle
10
74.399999618530
20
402.281967163086
30
0.0
40
0.500000000000
100
AcDbArc
50
359.999984741211
51
386.565048217773
0
ARC
5
4f7
100
AcDbEntity
8
0-1
6
PHANTOM
62
7
100
AcDbCircle
10
72.500000000000
20
404.099998474121
30
0.0
40
0.500000000000
100
AcDbArc
50
180.000000000000
51
270.000000000000
0
ARC
5
4f8
100
AcDbEntity
8
0-1
6
PHANTOM
62
7
100
AcDbCircle
10
87.500000000000
20
404.099998474121
30
0.0
40
0.500000000000
100
AcDbArc
50
270.000000000000
51
360.000000000000
0
ARC
5
4f9
100
AcDbEntity
8
0-1
6
PHANTOM
62
7
100
AcDbCircle
10
85.600000381470
20
402.281967163086
30
0.0
40
0.500000000000
100
AcDbArc
50
153.434936523438
51
180.000000000000
0
ARC
5
4fa
100
AcDbEntity
8
0-1
6
PHANTOM
62
7
100
AcDbCircle
10
72.500000000000
20
408.292892456055
30
0.0
40
0.500000000000
100
AcDbArc
50
135.000000000000
51
180.000000000000
0
ARC
5
4fb
100
AcDbEntity
8
0-1
6
PHANTOM
62
7
100
AcDbCircle
10
73.707106590271
20
409.500000000000
30
0.0
40
0.500000000000
100
AcDbArc
50
90.000000000000
51
135.000000000000
0
ARC
5
4fc
100
AcDbEntity
8
0-1
6
PHANTOM
62
7
100
AcDbCircle
10
86.292892456055
20
409.500000000000
30
0.0
40
0.500000000000
100
AcDbArc
50
45.000000000000
51
90.000000000000
0
ARC
5
4fd
100
AcDbEntity
8
0-1
6
PHANTOM
62
7
100
AcDbCircle
10
87.500000000000
20
408.292892456055
30
0.0
40
0.500000000000
100
AcDbArc
50
0.000000000000
51
45.000000000000
0
ARC
5
4fe
100
AcDbEntity
8
0-1
6
PHANTOM
62
7
100
AcDbCircle
10
91.707107543945
20
412.500000000000
30
0.0
40
0.500000000000
100
AcDbArc
50
225.000000000000
51
270.000000000000
0
ARC
5
4ff
100
AcDbEntity
8
0-1
6
PHANTOM
62
7
100
AcDbCircle
10
90.500000000000
20
413.707107543945
30
0.0
40
0.500000000000
100
AcDbArc
50
180.000000000000
51
224.999984741211
0
ARC
5
500
100
AcDbEntity
8
0-1
6
PHANTOM
62
7
100
AcDbCircle
10
90.500000000000
20
426.292893409729
30
0.0
40
0.500000000000
100
AcDbArc
50
135.000000000000
51
180.000000000000
0
ARC
5
501
100
AcDbEntity
8
0-1
6
PHANTOM
62
7
100
AcDbCircle
10
91.707107543945
20
427.500000000000
30
0.0
40
0.500000000000
100
AcDbArc
50
90.000000000000
51
135.000000000000
0
ARC
5
502
100
AcDbEntity
8
0-1
6
PHANTOM
62
7
100
AcDbCircle
10
87.500000000000
20
431.707106590271
30
0.0
40
0.500000000000
100
AcDbArc
50
315.000000000000
51
360.000000000000
0
ARC
5
503
100
AcDbEntity
8
0-1
6
PHANTOM
62
7
100
AcDbCircle
10
86.292892456055
20
430.500000000000
30
0.0
40
0.500000000000
100
AcDbArc
50
270.000000000000
51
315.000000000000
0
ARC
5
504
100
AcDbEntity
8
0-1
6
PHANTOM
62
7
100
AcDbCircle
10
73.707106590271
20
430.500000000000
30
0.0
40
0.500000000000
100
AcDbArc
50
225.000000000000
51
270.000000000000
0
ARC
5
505
100
AcDbEntity
8
0-1
6
PHANTOM
62
7
100
AcDbCircle
10
72.500000000000
20
431.707106590271
30
0.0
40
0.500000000000
100
AcDbArc
50
180.000000000000
51
225.000000000000
0
ARC
5
506
100
AcDbEntity
8
0-1
6
PHANTOM
62
7
100
AcDbCircle
10
68.292893409729
20
412.500000000000
30
0.0
40
0.500000000000
100
AcDbArc
50
270.000000000000
51
315.000000000000
0
ARC
5
507
100
AcDbEntity
8
0-1
6
PHANTOM
62
7
100
AcDbCircle
10
69.500000000000
20
413.707107543945
30
0.0
40
0.500000000000
100
AcDbArc
50
315.000000000000
51
360.000000000000
0
ARC
5
508
100
AcDbEntity
8
0-1
6
PHANTOM
62
7
100
AcDbCircle
10
69.500000000000
20
426.292893409729
30
0.0
40
0.500000000000
100
AcDbArc
50
0.000000000000
51
45.000000000000
0
ARC
5
509
100
AcDbEntity
8
0-1
6
PHANTOM
62
7
100
AcDbCircle
10
68.292893409729
20
427.500000000000
30
0.0
40
0.500000000000
100
AcDbArc
50
45.000000000000
51
90.000000000000
0
LINE
5
50a
100
AcDbEntity
8
0-1
6
PHANTOM
62
7
100
AcDbLine
10
90.000000000000
20
413.707107543945
30
0.0
11
90.000000000000
21
426.292893409729
31
0.0
0
LINE
5
50b
100
AcDbEntity
8
0-1
6
PHANTOM
62
7
100
AcDbLine
10
70.000000000000
20
413.707107543945
30
0.0
11
70.000000000000
21
426.292893409729
31
0.0
0
LINE
5
50c
100
AcDbEntity
8
0-1
6
PHANTOM
62
7
100
AcDbLine
10
76.478399227695
20
420.000000480000
30
0.0
11
84.440968110430
21
420.000000480000
31
0.0
0
LINE
5
50d
100
AcDbEntity
8
0-1
6
PHANTOM
62
7
100
AcDbLine
10
79.999999520000
20
424.070911064528
30
0.0
11
79.999999520000
21
416.392719641891
31
0.0
0
LINE
5
50e
100
AcDbEntity
8
0-0
6
CONTINUOUS
62
7
100
AcDbLine
10
74.999999520000
20
437.900000479694
30
0.0
11
74.999999520000
21
439.300000479694
31
0.0
0
LINE
5
50f
100
AcDbEntity
8
0-0
6
CONTINUOUS
62
7
100
AcDbLine
10
75.299999520000
20
439.600000479694
30
0.0
11
84.699999520000
21
439.600000479694
31
0.0
0
LINE
5
510
100
AcDbEntity
8
0-0
6
CONTINUOUS
62
7
100
AcDbLine
10
84.999999520000
20
439.300000479694
30
0.0
11
84.999999520000
21
437.900000479694
31
0.0
0
LINE
5
511
100
AcDbEntity
8
0-0
6
CONTINUOUS
62
7
100
AcDbLine
10
84.699999520000
20
437.600000479694
30
0.0
11
84.183663013990
21
437.600000479694
31
0.0
0
LINE
5
512
100
AcDbEntity
8
0-0
6
CONTINUOUS
62
7
100
AcDbLine
10
83.700700100845
20
437.229410002245
30
0.0
11
83.188027132496
21
435.316088436698
31
0.0
0
LINE
5
513
100
AcDbEntity
8
0-0
6
CONTINUOUS
62
7
100
AcDbLine
10
83.217997259247
20
435.088442723168
30
0.0
11
83.759807141136
21
434.150000479694
31
0.0
0
LINE
5
514
100
AcDbEntity
8
0-0
6
CONTINUOUS
62
7
100
AcDbLine
10
83.649999520000
20
433.740192858559
30
0.0
11
83.130384277729
21
433.440192858559
31
0.0
0
LINE
5
515
100
AcDbEntity
8
0-0
6
CONTINUOUS
62
7
100
AcDbLine
10
82.720576656594
20
433.550000479694
30
0.0
11
82.178766774706
21
434.488442723168
31
0.0
0
LINE
5
516
100
AcDbEntity
8
0-0
6
CONTINUOUS
62
7
100
AcDbLine
10
82.028916140949
20
435.626671290821
30
0.0
11
82.603377684177
21
437.770590957143
31
0.0
0
LINE
5
517
100
AcDbEntity
8
0-0
6
CONTINUOUS
62
7
100
AcDbLine
10
82.120414771032
20
438.400000479694
30
0.0
11
77.879584268968
21
438.400000479694
31
0.0
0
LINE
5
518
100
AcDbEntity
8
0-0
6
CONTINUOUS
62
7
100
AcDbLine
10
77.396621355824
20
437.770590957143
30
0.0
11
77.971082899051
21
435.626671290821
31
0.0
0
LINE
5
519
100
AcDbEntity
8
0-0
6
CONTINUOUS
62
7
100
AcDbLine
10
77.821232265295
20
434.488442723168
30
0.0
11
77.279422383406
21
433.550000479694
31
0.0
0
LINE
5
51a
100
AcDbEntity
8
0-0
6
CONTINUOUS
62
7
100
AcDbLine
10
76.869614762271
20
433.440192858559
30
0.0
11
76.349999520000
21
433.740192858559
31
0.0
0
LINE
5
51b
100
AcDbEntity
8
0-0
6
CONTINUOUS
62
7
100
AcDbLine
10
76.240191898865
20
434.150000479694
30
0.0
11
76.782001780753
21
435.088442723168
31
0.0
0
LINE
5
51c
100
AcDbEntity
8
0-0
6
CONTINUOUS
62
7
100
AcDbLine
10
76.811971907505
20
435.316088436698
30
0.0
11
76.299298939155
21
437.229410002245
31
0.0
0
LINE
5
51d
100
AcDbEntity
8
0-0
6
CONTINUOUS
62
7
100
AcDbLine
10
75.816336026011
20
437.600000479694
30
0.0
11
75.299999520000
21
437.600000479694
31
0.0
0
ARC
5
51e
100
AcDbEntity
8
0-0
6
CONTINUOUS
62
7
100
AcDbCircle
10
75.299999520000
20
439.300000479694
30
0.0
40
0.300000000000
100
AcDbArc
50
90.000000000000
51
180.000000000000
0
ARC
5
51f
100
AcDbEntity
8
0-0
6
CONTINUOUS
62
7
100
AcDbCircle
10
75.299999520000
20
437.900000479694
30
0.0
40
0.300000000000
100
AcDbArc
50
180.000000000000
51
270.000000000000
0
ARC
5
520
100
AcDbEntity
8
0-0
6
CONTINUOUS
62
7
100
AcDbCircle
10
77.879584268968
20
437.900000479694
30
0.0
40
0.500000000000
100
AcDbArc
50
90.000000000000
51
195.000000000000
0
ARC
5
521
100
AcDbEntity
8
0-0
6
CONTINUOUS
62
7
100
AcDbCircle
10
75.816336026011
20
437.100000479694
30
0.0
40
0.500000000000
100
AcDbArc
50
15.000000000000
51
90.000000000000
0
ARC
5
522
100
AcDbEntity
8
0-0
6
CONTINUOUS
62
7
100
AcDbCircle
10
76.522194159618
20
435.238442723168
30
0.0
40
0.300000000000
100
AcDbArc
50
330.000000000000
51
375.000000000000
0
ARC
5
523
100
AcDbEntity
8
0-0
6
CONTINUOUS
62
7
100
AcDbCircle
10
76.499999520000
20
434.000000479694
30
0.0
40
0.300000000000
100
AcDbArc
50
150.000000000000
51
240.000000000000
0
ARC
5
524
100
AcDbEntity
8
0-0
6
CONTINUOUS
62
7
100
AcDbCircle
10
77.019614762271
20
433.700000479694
30
0.0
40
0.300000000000
100
AcDbArc
50
240.000000000000
51
330.000000000000
0
ARC
5
525
100
AcDbEntity
8
0-0
6
CONTINUOUS
62
7
100
AcDbCircle
10
76.522194159618
20
435.238442723168
30
0.0
40
1.500000000000
100
AcDbArc
50
330.000000000000
51
375.000000000000
0
ARC
5
526
100
AcDbEntity
8
0-0
6
CONTINUOUS
62
7
100
AcDbCircle
10
84.699999520000
20
439.300000479694
30
0.0
40
0.300000000000
100
AcDbArc
50
0.000000000000
51
90.000000000000
0
ARC
5
527
100
AcDbEntity
8
0-0
6
CONTINUOUS
62
7
100
AcDbCircle
10
84.699999520000
20
437.900000479694
30
0.0
40
0.300000000000
100
AcDbArc
50
270.000000000000
51
360.000000000000
0
ARC
5
528
100
AcDbEntity
8
0-0
6
CONTINUOUS
62
7
100
AcDbCircle
10
82.120414771032
20
437.900000479694
30
0.0
40
0.500000000000
100
AcDbArc
50
345.000000000000
51
450.000000000000
0
ARC
5
529
100
AcDbEntity
8
0-0
6
CONTINUOUS
62
7
100
AcDbCircle
10
84.183663013990
20
437.100000479694
30
0.0
40
0.500000000000
100
AcDbArc
50
90.000000000000
51
165.000000000000
0
ARC
5
52a
100
AcDbEntity
8
0-0
6
CONTINUOUS
62
7
100
AcDbCircle
10
83.477804880383
20
435.238442723168
30
0.0
40
0.300000000000
100
AcDbArc
50
165.000000000000
51
210.000000000000
0
ARC
5
52b
100
AcDbEntity
8
0-0
6
CONTINUOUS
62
7
100
AcDbCircle
10
83.499999520000
20
434.000000479694
30
0.0
40
0.300000000000
100
AcDbArc
50
300.000000000000
51
390.000000000000
0
ARC
5
52c
100
AcDbEntity
8
0-0
6
CONTINUOUS
62
7
100
AcDbCircle
10
82.980384277729
20
433.700000479694
30
0.0
40
0.300000000000
100
AcDbArc
50
210.000000000000
51
300.000000000000
0
ARC
5
52d
100
AcDbEntity
8
0-0
6
CONTINUOUS
62
7
100
AcDbCircle
10
83.477804880383
20
435.238442723168
30
0.0
40
1.500000000000
100
AcDbArc
50
165.000000000000
51
210.000000000000
0
LINE
5
52e
100
AcDbEntity
8
0-1
6
PHANTOM
62
7
100
AcDbLine
10
98.500000000000
20
440.000000000000
30
0.0
11
61.500000000000
21
440.000000000000
31
0.0
0
LINE
5
52f
100
AcDbEntity
8
0-1
6
PHANTOM
62
4
100
AcDbLine
10
80.000000000000
20
440.000000000000
30
0.0
11
80.000000000000
21
420.000000000000
31
0.0
0
POLYLINE
5
530
100
AcDbEntity
8
0-9
6
CONTINUOUS
62
  5
100
AcDb2dPolyline
66
1
10
0.0
20
0.0
30
0.0
70
0
0
VERTEX
5
531
100
AcDbEntity
8
0-9
6
CONTINUOUS
62
  5
100
AcDbVertex
100
AcDb2dVertex
10
74.869095409853
20
437.600000000000
30
0.0
0
VERTEX
5
532
100
AcDbEntity
8
0-9
6
CONTINUOUS
62
  5
100
AcDbVertex
100
AcDb2dVertex
10
74.369095409853
20
436.574848079210
30
0.0
0
VERTEX
5
533
100
AcDbEntity
8
0-9
6
CONTINUOUS
62
  5
100
AcDbVertex
100
AcDb2dVertex
10
74.369095409853
20
436.100000000000
30
0.0
0
VERTEX
5
534
100
AcDbEntity
8
0-9
6
CONTINUOUS
62
  5
100
AcDbVertex
100
AcDb2dVertex
10
75.069095409853
20
435.400000000000
30
0.0
0
VERTEX
5
535
100
AcDbEntity
8
0-9
6
CONTINUOUS
62
  5
100
AcDbVertex
100
AcDb2dVertex
10
75.069095409853
20
430.000000000000
30
0.0
0
VERTEX
5
536
100
AcDbEntity
8
0-9
6
CONTINUOUS
62
  5
100
AcDbVertex
100
AcDb2dVertex
10
84.930903636473
20
430.000000000000
30
0.0
0
VERTEX
5
537
100
AcDbEntity
8
0-9
6
CONTINUOUS
62
  5
100
AcDbVertex
100
AcDb2dVertex
10
84.930903636473
20
435.400000000000
30
0.0
0
VERTEX
5
538
100
AcDbEntity
8
0-9
6
CONTINUOUS
62
  5
100
AcDbVertex
100
AcDb2dVertex
10
85.630903636473
20
436.100000000000
30
0.0
0
VERTEX
5
539
100
AcDbEntity
8
0-9
6
CONTINUOUS
62
  5
100
AcDbVertex
100
AcDb2dVertex
10
85.630903636473
20
436.574848079210
30
0.0
0
VERTEX
5
53a
100
AcDbEntity
8
0-9
6
CONTINUOUS
62
  5
100
AcDbVertex
100
AcDb2dVertex
10
85.130903636473
20
437.600000000000
30
0.0
0
VERTEX
5
53b
100
AcDbEntity
8
0-9
6
CONTINUOUS
62
  5
100
AcDbVertex
100
AcDb2dVertex
10
84.030903636473
20
437.600000000000
30
0.0
0
VERTEX
5
53c
100
AcDbEntity
8
0-9
6
CONTINUOUS
62
  5
100
AcDbVertex
100
AcDb2dVertex
10
84.030903636473
20
436.658845726812
30
0.0
0
VERTEX
5
53d
100
AcDbEntity
8
0-9
6
CONTINUOUS
62
  5
100
AcDbVertex
100
AcDb2dVertex
10
83.130903636473
20
435.100000000000
30
0.0
0
VERTEX
5
53e
100
AcDbEntity
8
0-9
6
CONTINUOUS
62
  5
100
AcDbVertex
100
AcDb2dVertex
10
83.730903636473
20
434.500000000000
30
0.0
0
VERTEX
5
53f
100
AcDbEntity
8
0-9
6
CONTINUOUS
62
  5
100
AcDbVertex
100
AcDb2dVertex
10
83.730903636473
20
430.600000000000
30
0.0
0
VERTEX
5
540
100
AcDbEntity
8
0-9
6
CONTINUOUS
62
  5
100
AcDbVertex
100
AcDb2dVertex
10
82.202867955346
20
430.600000000000
30
0.0
0
VERTEX
5
541
100
AcDbEntity
8
0-9
6
CONTINUOUS
62
  5
100
AcDbVertex
100
AcDb2dVertex
10
81.958845252724
20
431.510705124384
30
0.0
0
VERTEX
5
542
100
AcDbEntity
8
0-9
6
CONTINUOUS
62
  5
100
AcDbVertex
100
AcDb2dVertex
10
78.041153799100
20
431.510705124384
30
0.0
0
VERTEX
5
543
100
AcDbEntity
8
0-9
6
CONTINUOUS
62
  5
100
AcDbVertex
100
AcDb2dVertex
10
77.797131096478
20
430.600000000000
30
0.0
0
VERTEX
5
544
100
AcDbEntity
8
0-9
6
CONTINUOUS
62
  5
100
AcDbVertex
100
AcDb2dVertex
10
76.269095409853
20
430.600000000000
30
0.0
0
VERTEX
5
545
100
AcDbEntity
8
0-9
6
CONTINUOUS
62
  5
100
AcDbVertex
100
AcDb2dVertex
10
76.269095409853
20
434.500000000000
30
0.0
0
VERTEX
5
546
100
AcDbEntity
8
0-9
6
CONTINUOUS
62
  5
100
AcDbVertex
100
AcDb2dVertex
10
76.869095409853
20
435.100000000000
30
0.0
0
VERTEX
5
547
100
AcDbEntity
8
0-9
6
CONTINUOUS
62
  5
100
AcDbVertex
100
AcDb2dVertex
10
75.969095409853
20
436.658845726812
30
0.0
0
VERTEX
5
548
100
AcDbEntity
8
0-9
6
CONTINUOUS
62
  5
100
AcDbVertex
100
AcDb2dVertex
10
75.969095409853
20
437.600000000000
30
0.0
0
VERTEX
5
549
100
AcDbEntity
8
0-9
6
CONTINUOUS
62
  5
100
AcDbVertex
100
AcDb2dVertex
10
74.869095409853
20
437.600000000000
30
0.0
0
SEQEND
5
54a
100
AcDbEntity
8
0-9
0
LINE
5
54b
100
AcDbEntity
8
0-9
6
CENTER
62
5
100
AcDbLine
10
76.478399227695
20
420.000000480000
30
0.0
11
84.440968110430
21
420.000000480000
31
0.0
0
LINE
5
54c
100
AcDbEntity
8
0-9
6
CENTER
62
5
100
AcDbLine
10
79.999999520000
20
416.392719641891
30
0.0
11
79.999999520000
21
424.070911064528
31
0.0
0
TEXT
5
54d
100
AcDbEntity
8
0-0
62
7
370
-3
100
AcDbText
10
135.200
20
390.767
30
0.0
40
4.208
1
FA40A
41
0.549
50
0.000
100
AcDbText
0
TEXT
5
54e
100
AcDbEntity
8
0-0
62
7
370
-3
100
AcDbText
10
162.644
20
390.767
30
0.0
40
4.208
1
KP4S,Y,B
41
0.591
50
0.000
100
AcDbText
0
LINE
5
54f
100
AcDbEntity
8
0-1
6
PHANTOM
62
4
100
AcDbLine
10
-10.763366135955
20
420.000000000000
30
0.0
11
257.634104001548
21
420.000000000000
31
0.0
0
LINE
5
550
100
AcDbEntity
8
F-F_J_ADD
6
HIDDEN
62
253
100
AcDbLine
10
-10.763366135955
20
390.000000000000
30
0.0
11
300.000000000000
21
390.000000000000
31
0.0
0
ARC
5
551
100
AcDbEntity
8
0-1
6
DASHED
62
4
100
AcDbCircle
10
929.500000000000
20
309.924786468922
30
0.0
40
0.500000000000
100
AcDbArc
50
270.000000000000
51
360.000000000000
0
ARC
5
552
100
AcDbEntity
8
0-1
6
DASHED
62
4
100
AcDbCircle
10
890.500000000000
20
309.924786468922
30
0.0
40
0.500000000000
100
AcDbArc
50
180.000000000000
51
270.000000000000
0
LINE
5
553
100
AcDbEntity
8
0-1
6
CENTER
62
4
100
AcDbLine
10
910.000000000000
20
335.663063240067
30
0.0
11
910.000000000000
21
307.424786468922
31
0.0
0
LINE
5
554
100
AcDbEntity
8
0-1
6
DASHED
62
4
100
AcDbLine
10
890.000000000000
20
334.424786468922
30
0.0
11
890.000000000000
21
309.924786468922
31
0.0
0
LINE
5
555
100
AcDbEntity
8
0-1
6
DASHED
62
4
100
AcDbLine
10
930.000000000000
20
309.924786468922
30
0.0
11
930.000000000000
21
334.424786468922
31
0.0
0
LINE
5
556
100
AcDbEntity
8
0-1
6
DASHED
62
4
100
AcDbLine
10
890.500000000000
20
309.424786468922
30
0.0
11
929.500000000000
21
309.424786468922
31
0.0
0
LINE
5
557
100
AcDbEntity
8
0-1
6
DASHED
62
4
100
AcDbLine
10
930.000000000000
20
289.500000000000
30
0.0
11
930.000000000000
21
250.500000000000
31
0.0
0
LINE
5
558
100
AcDbEntity
8
0-1
6
DASHED
62
4
100
AcDbLine
10
929.500000000000
20
250.000000000000
30
0.0
11
890.500000000000
21
250.000000000000
31
0.0
0
LINE
5
559
100
AcDbEntity
8
0-1
6
DASHED
62
4
100
AcDbLine
10
890.500000000000
20
290.000000000000
30
0.0
11
929.500000000000
21
290.000000000000
31
0.0
0
LINE
5
55a
100
AcDbEntity
8
0-1
6
DASHED
62
4
100
AcDbLine
10
890.000000000000
20
250.500000000000
30
0.0
11
890.000000000000
21
289.500000000000
31
0.0
0
ARC
5
55b
100
AcDbEntity
8
0-1
6
DASHED
62
4
100
AcDbCircle
10
929.500000000000
20
289.500000000000
30
0.0
40
0.500000000000
100
AcDbArc
50
0.000000000000
51
90.000000000000
0
ARC
5
55c
100
AcDbEntity
8
0-1
6
DASHED
62
4
100
AcDbCircle
10
890.500000000000
20
289.500000000000
30
0.0
40
0.500000000000
100
AcDbArc
50
90.000000000000
51
180.000000000000
0
ARC
5
55d
100
AcDbEntity
8
0-1
6
DASHED
62
4
100
AcDbCircle
10
929.500000000000
20
250.500000000000
30
0.0
40
0.500000000000
100
AcDbArc
50
270.000000000000
51
360.000000000000
0
ARC
5
55e
100
AcDbEntity
8
0-1
6
DASHED
62
4
100
AcDbCircle
10
890.500000000000
20
250.500000000000
30
0.0
40
0.500000000000
100
AcDbArc
50
180.000000000000
51
270.000000000000
0
LINE
5
55f
100
AcDbEntity
8
0-1
6
CENTER
62
4
100
AcDbLine
10
910.000000000000
20
292.000000000000
30
0.0
11
910.000000000000
21
248.000000000000
31
0.0
0
LINE
5
560
100
AcDbEntity
8
0-1
6
CENTER
62
4
100
AcDbLine
10
932.000000000000
20
270.000000000000
30
0.0
11
888.000000000000
21
270.000000000000
31
0.0
0
ARC
5
561
100
AcDbEntity
8
0-0
6
CONTINUOUS
62
7
100
AcDbCircle
10
930.000000000000
20
309.424786468922
30
0.0
40
2.000000000000
100
AcDbArc
50
270.000000000000
51
360.000000000000
0
ARC
5
562
100
AcDbEntity
8
0-0
6
CONTINUOUS
62
7
100
AcDbCircle
10
890.000000000000
20
309.424786468922
30
0.0
40
2.000000000000
100
AcDbArc
50
180.000000000000
51
270.000000000000
0
LINE
5
563
100
AcDbEntity
8
0-0
6
CONTINUOUS
62
7
100
AcDbLine
10
932.000000000000
20
309.424786468922
30
0.0
11
932.000000000000
21
334.424786468922
31
0.0
0
LINE
5
564
100
AcDbEntity
8
0-0
6
CONTINUOUS
62
7
100
AcDbLine
10
890.000000000000
20
307.424786468922
30
0.0
11
930.000000000000
21
307.424786468922
31
0.0
0
POLYLINE
5
565
100
AcDbEntity
8
0-0
6
CONTINUOUS
62
  7
100
AcDb2dPolyline
66
1
10
0.0
20
0.0
30
0.0
70
0
0
VERTEX
5
566
100
AcDbEntity
8
0-0
6
CONTINUOUS
62
  7
100
AcDbVertex
100
AcDb2dVertex
10
932.000000000000
20
334.424786468922
30
0.0
0
VERTEX
5
567
100
AcDbEntity
8
0-0
6
CONTINUOUS
62
  7
100
AcDbVertex
100
AcDb2dVertex
10
888.000000000000
20
334.424786468922
30
0.0
0
VERTEX
5
568
100
AcDbEntity
8
0-0
6
CONTINUOUS
62
  7
100
AcDbVertex
100
AcDb2dVertex
10
888.000000000000
20
309.424786468922
30
0.0
0
SEQEND
5
569
100
AcDbEntity
8
0-0
0
ARC
5
56a
100
AcDbEntity
8
0-0
6
CONTINUOUS
62
7
100
AcDbCircle
10
930.000000000000
20
290.000000000000
30
0.0
40
2.000000000000
100
AcDbArc
50
0.000000000000
51
90.000000000000
0
ARC
5
56b
100
AcDbEntity
8
0-0
6
CONTINUOUS
62
7
100
AcDbCircle
10
890.000000000000
20
290.000000000000
30
0.0
40
2.000000000000
100
AcDbArc
50
90.000000000000
51
180.000000000000
0
ARC
5
56c
100
AcDbEntity
8
0-0
6
CONTINUOUS
62
7
100
AcDbCircle
10
930.000000000000
20
250.000000000000
30
0.0
40
2.000000000000
100
AcDbArc
50
270.000000000000
51
360.000000000000
0
ARC
5
56d
100
AcDbEntity
8
0-0
6
CONTINUOUS
62
7
100
AcDbCircle
10
890.000000000000
20
250.000000000000
30
0.0
40
2.000000000000
100
AcDbArc
50
180.000000000000
51
270.000000000000
0
LINE
5
56e
100
AcDbEntity
8
0-0
6
CONTINUOUS
62
7
100
AcDbLine
10
890.000000000000
20
292.000000000000
30
0.0
11
930.000000000000
21
292.000000000000
31
0.0
0
LINE
5
56f
100
AcDbEntity
8
0-0
6
CONTINUOUS
62
7
100
AcDbLine
10
888.000000000000
20
250.000000000000
30
0.0
11
888.000000000000
21
290.000000000000
31
0.0
0
LINE
5
570
100
AcDbEntity
8
0-0
6
CONTINUOUS
62
7
100
AcDbLine
10
930.000000000000
20
248.000000000000
30
0.0
11
890.000000000000
21
248.000000000000
31
0.0
0
LINE
5
571
100
AcDbEntity
8
0-0
6
CONTINUOUS
62
7
100
AcDbLine
10
932.000000000000
20
290.000000000000
30
0.0
11
932.000000000000
21
250.000000000000
31
0.0
0
ARC
5
572
100
AcDbEntity
8
0-1
6
DASHED
62
4
100
AcDbCircle
10
869.500000000000
20
309.924786468922
30
0.0
40
0.500000000000
100
AcDbArc
50
270.000000000000
51
360.000000000000
0
ARC
5
573
100
AcDbEntity
8
0-1
6
DASHED
62
4
100
AcDbCircle
10
830.500000000000
20
309.924786468922
30
0.0
40
0.500000000000
100
AcDbArc
50
180.000000000000
51
270.000000000000
0
LINE
5
574
100
AcDbEntity
8
0-1
6
CENTER
62
4
100
AcDbLine
10
850.000000000000
20
307.424786468922
30
0.0
11
850.000000000000
21
334.424786468922
31
0.0
0
LINE
5
575
100
AcDbEntity
8
0-1
6
DASHED
62
4
100
AcDbLine
10
830.000000000000
20
334.424786468922
30
0.0
11
830.000000000000
21
309.924786468922
31
0.0
0
LINE
5
576
100
AcDbEntity
8
0-1
6
DASHED
62
4
100
AcDbLine
10
870.000000000000
20
309.924786468922
30
0.0
11
870.000000000000
21
334.424786468922
31
0.0
0
LINE
5
577
100
AcDbEntity
8
0-1
6
DASHED
62
4
100
AcDbLine
10
830.500000000000
20
309.424786468922
30
0.0
11
869.500000000000
21
309.424786468922
31
0.0
0
ARC
5
578
100
AcDbEntity
8
0-1
6
DASHED
62
4
100
AcDbCircle
10
869.500000000000
20
250.500000000000
30
0.0
40
0.500000000000
100
AcDbArc
50
270.000000000000
51
360.000000000000
0
ARC
5
579
100
AcDbEntity
8
0-1
6
DASHED
62
4
100
AcDbCircle
10
830.500000000000
20
250.500000000000
30
0.0
40
0.500000000000
100
AcDbArc
50
180.000000000000
51
270.000000000000
0
ARC
5
57a
100
AcDbEntity
8
0-1
6
DASHED
62
4
100
AcDbCircle
10
830.500000000000
20
289.500000000000
30
0.0
40
0.500000000000
100
AcDbArc
50
90.000000000000
51
180.000000000000
0
ARC
5
57b
100
AcDbEntity
8
0-1
6
DASHED
62
4
100
AcDbCircle
10
869.500000000000
20
289.500000000000
30
0.0
40
0.500000000000
100
AcDbArc
50
0.000000000000
51
90.000000000000
0
LINE
5
57c
100
AcDbEntity
8
0-1
6
DASHED
62
4
100
AcDbLine
10
870.000000000000
20
250.500000000000
30
0.0
11
870.000000000000
21
289.500000000000
31
0.0
0
LINE
5
57d
100
AcDbEntity
8
0-1
6
DASHED
62
4
100
AcDbLine
10
869.500000000000
20
290.000000000000
30
0.0
11
830.500000000000
21
290.000000000000
31
0.0
0
LINE
5
57e
100
AcDbEntity
8
0-1
6
DASHED
62
4
100
AcDbLine
10
830.000000000000
20
289.500000000000
30
0.0
11
830.000000000000
21
250.500000000000
31
0.0
0
LINE
5
57f
100
AcDbEntity
8
0-1
6
DASHED
62
4
100
AcDbLine
10
830.500000000000
20
250.000000000000
30
0.0
11
869.500000000000
21
250.000000000000
31
0.0
0
LINE
5
580
100
AcDbEntity
8
0-1
6
CENTER
62
4
100
AcDbLine
10
864.000000000000
20
291.140792570544
30
0.0
11
864.000000000000
21
276.119679064129
31
0.0
0
LINE
5
581
100
AcDbEntity
8
0-1
6
CENTER
62
4
100
AcDbLine
10
856.315277310177
20
284.000000000000
30
0.0
11
871.919106426755
21
284.000000000000
31
0.0
0
LINE
5
582
100
AcDbEntity
8
0-1
6
CENTER
62
4
100
AcDbLine
10
850.000000000000
20
248.000000000000
30
0.0
11
850.000000000000
21
292.000000000000
31
0.0
0
LINE
5
583
100
AcDbEntity
8
0-1
6
CENTER
62
4
100
AcDbLine
10
872.000000000000
20
270.000000000000
30
0.0
11
828.000000000000
21
270.000000000000
31
0.0
0
ARC
5
584
100
AcDbEntity
8
0-0
6
CONTINUOUS
62
7
100
AcDbCircle
10
870.000000000000
20
309.424786468922
30
0.0
40
2.000000000000
100
AcDbArc
50
270.000000000000
51
360.000000000000
0
ARC
5
585
100
AcDbEntity
8
0-0
6
CONTINUOUS
62
7
100
AcDbCircle
10
830.000000000000
20
309.424786468922
30
0.0
40
2.000000000000
100
AcDbArc
50
180.000000000000
51
270.000000000000
0
LINE
5
586
100
AcDbEntity
8
0-0
6
CONTINUOUS
62
7
100
AcDbLine
10
872.000000000000
20
309.424786468922
30
0.0
11
872.000000000000
21
334.424786468922
31
0.0
0
LINE
5
587
100
AcDbEntity
8
0-0
6
CONTINUOUS
62
7
100
AcDbLine
10
830.000000000000
20
307.424786468922
30
0.0
11
870.000000000000
21
307.424786468922
31
0.0
0
POLYLINE
5
588
100
AcDbEntity
8
0-0
6
CONTINUOUS
62
  7
100
AcDb2dPolyline
66
1
10
0.0
20
0.0
30
0.0
70
0
0
VERTEX
5
589
100
AcDbEntity
8
0-0
6
CONTINUOUS
62
  7
100
AcDbVertex
100
AcDb2dVertex
10
872.000000000000
20
334.424786468922
30
0.0
0
VERTEX
5
58a
100
AcDbEntity
8
0-0
6
CONTINUOUS
62
  7
100
AcDbVertex
100
AcDb2dVertex
10
828.000000000000
20
334.424786468922
30
0.0
0
VERTEX
5
58b
100
AcDbEntity
8
0-0
6
CONTINUOUS
62
  7
100
AcDbVertex
100
AcDb2dVertex
10
828.000000000000
20
309.424786468922
30
0.0
0
SEQEND
5
58c
100
AcDbEntity
8
0-0
0
ARC
5
58d
100
AcDbEntity
8
0-0
6
CONTINUOUS
62
7
100
AcDbCircle
10
870.000000000000
20
290.000000000000
30
0.0
40
2.000000000000
100
AcDbArc
50
0.000000000000
51
90.000000000000
0
ARC
5
58e
100
AcDbEntity
8
0-0
6
CONTINUOUS
62
7
100
AcDbCircle
10
830.000000000000
20
290.000000000000
30
0.0
40
2.000000000000
100
AcDbArc
50
90.000000000000
51
180.000000000000
0
ARC
5
58f
100
AcDbEntity
8
0-0
6
CONTINUOUS
62
7
100
AcDbCircle
10
870.000000000000
20
250.000000000000
30
0.0
40
2.000000000000
100
AcDbArc
50
270.000000000000
51
360.000000000000
0
ARC
5
590
100
AcDbEntity
8
0-0
6
CONTINUOUS
62
7
100
AcDbCircle
10
830.000000000000
20
250.000000000000
30
0.0
40
2.000000000000
100
AcDbArc
50
180.000000000000
51
270.000000000000
0
CIRCLE
5
591
100
AcDbEntity
8
0-0
6
CONTINUOUS
62
7
100
AcDbCircle
10
864.000000000000
20
284.000000000000
30
0.0
40
5.250000000000
0
LINE
5
592
100
AcDbEntity
8
0-0
6
CONTINUOUS
62
7
100
AcDbLine
10
830.000000000000
20
292.000000000000
30
0.0
11
870.000000000000
21
292.000000000000
31
0.0
0
LINE
5
593
100
AcDbEntity
8
0-0
6
CONTINUOUS
62
7
100
AcDbLine
10
828.000000000000
20
250.000000000000
30
0.0
11
828.000000000000
21
290.000000000000
31
0.0
0
LINE
5
594
100
AcDbEntity
8
0-0
6
CONTINUOUS
62
7
100
AcDbLine
10
870.000000000000
20
248.000000000000
30
0.0
11
830.000000000000
21
248.000000000000
31
0.0
0
LINE
5
595
100
AcDbEntity
8
0-0
6
CONTINUOUS
62
7
100
AcDbLine
10
872.000000000000
20
290.000000000000
30
0.0
11
872.000000000000
21
250.000000000000
31
0.0
0
ARC
5
596
100
AcDbEntity
8
0-1
6
DASHED
62
4
100
AcDbCircle
10
809.500000000000
20
309.924786468922
30
0.0
40
0.500000000000
100
AcDbArc
50
270.000000000000
51
360.000000000000
0
ARC
5
597
100
AcDbEntity
8
0-1
6
DASHED
62
4
100
AcDbCircle
10
770.500000000000
20
309.924786468922
30
0.0
40
0.500000000000
100
AcDbArc
50
180.000000000000
51
270.000000000000
0
LINE
5
598
100
AcDbEntity
8
0-1
6
CENTER
62
4
100
AcDbLine
10
790.000000000000
20
307.424786468922
30
0.0
11
790.000000000000
21
334.424786468922
31
0.0
0
LINE
5
599
100
AcDbEntity
8
0-1
6
DASHED
62
4
100
AcDbLine
10
810.000000000000
20
309.924786468922
30
0.0
11
810.000000000000
21
334.424786468922
31
0.0
0
LINE
5
59a
100
AcDbEntity
8
0-1
6
DASHED
62
4
100
AcDbLine
10
770.000000000000
20
309.924786468922
30
0.0
11
770.000000000000
21
334.424786468922
31
0.0
0
LINE
5
59b
100
AcDbEntity
8
0-1
6
DASHED
62
4
100
AcDbLine
10
809.500000000000
20
309.424786468922
30
0.0
11
770.500000000000
21
309.424786468922
31
0.0
0
ARC
5
59c
100
AcDbEntity
8
0-1
6
DASHED
62
4
100
AcDbCircle
10
809.500000000000
20
250.500000000000
30
0.0
40
0.500000000000
100
AcDbArc
50
270.000000000000
51
360.000000000000
0
ARC
5
59d
100
AcDbEntity
8
0-1
6
DASHED
62
4
100
AcDbCircle
10
770.500000000000
20
250.500000000000
30
0.0
40
0.500000000000
100
AcDbArc
50
180.000000000000
51
270.000000000000
0
ARC
5
59e
100
AcDbEntity
8
0-1
6
DASHED
62
4
100
AcDbCircle
10
809.500000000000
20
289.500000000000
30
0.0
40
0.500000000000
100
AcDbArc
50
0.000000000000
51
90.000000000000
0
ARC
5
59f
100
AcDbEntity
8
0-1
6
DASHED
62
4
100
AcDbCircle
10
770.500000000000
20
289.500000000000
30
0.0
40
0.500000000000
100
AcDbArc
50
90.000000000000
51
180.000000000000
0
LINE
5
5a0
100
AcDbEntity
8
0-1
6
DASHED
62
4
100
AcDbLine
10
770.500000000000
20
250.000000000000
30
0.0
11
809.500000000000
21
250.000000000000
31
0.0
0
LINE
5
5a1
100
AcDbEntity
8
0-1
6
DASHED
62
4
100
AcDbLine
10
810.000000000000
20
250.500000000000
30
0.0
11
810.000000000000
21
289.500000000000
31
0.0
0
LINE
5
5a2
100
AcDbEntity
8
0-1
6
DASHED
62
4
100
AcDbLine
10
809.500000000000
20
290.000000000000
30
0.0
11
770.500000000000
21
290.000000000000
31
0.0
0
LINE
5
5a3
100
AcDbEntity
8
0-1
6
DASHED
62
4
100
AcDbLine
10
770.000000000000
20
289.500000000000
30
0.0
11
770.000000000000
21
250.500000000000
31
0.0
0
LINE
5
5a4
100
AcDbEntity
8
0-1
6
CENTER
62
4
100
AcDbLine
10
812.000000000000
20
270.000000000000
30
0.0
11
768.000000000000
21
270.000000000000
31
0.0
0
ARC
5
5a5
100
AcDbEntity
8
0-0
6
CONTINUOUS
62
7
100
AcDbCircle
10
810.000000000000
20
309.424786468922
30
0.0
40
2.000000000000
100
AcDbArc
50
270.000000000000
51
360.000000000000
0
ARC
5
5a6
100
AcDbEntity
8
0-0
6
CONTINUOUS
62
7
100
AcDbCircle
10
770.000000000000
20
309.424786468922
30
0.0
40
2.000000000000
100
AcDbArc
50
180.000000000000
51
270.000000000000
0
LINE
5
5a7
100
AcDbEntity
8
0-0
6
CONTINUOUS
62
7
100
AcDbLine
10
770.000000000000
20
307.424786468922
30
0.0
11
810.000000000000
21
307.424786468922
31
0.0
0
LINE
5
5a8
100
AcDbEntity
8
0-0
6
CONTINUOUS
62
7
100
AcDbLine
10
768.000000000000
20
334.424786468922
30
0.0
11
768.000000000000
21
309.424786468922
31
0.0
0
LINE
5
5a9
100
AcDbEntity
8
0-0
6
CONTINUOUS
62
7
100
AcDbLine
10
812.000000000000
20
334.424786468922
30
0.0
11
812.000000000000
21
309.424786468922
31
0.0
0
LINE
5
5aa
100
AcDbEntity
8
0-0
6
CONTINUOUS
62
7
100
AcDbLine
10
768.000000000000
20
334.424786468922
30
0.0
11
812.000000000000
21
334.424786468922
31
0.0
0
ARC
5
5ab
100
AcDbEntity
8
0-0
6
CONTINUOUS
62
7
100
AcDbCircle
10
810.000000000000
20
290.000000000000
30
0.0
40
2.000000000000
100
AcDbArc
50
0.000000000000
51
90.000000000000
0
ARC
5
5ac
100
AcDbEntity
8
0-0
6
CONTINUOUS
62
7
100
AcDbCircle
10
770.000000000000
20
290.000000000000
30
0.0
40
2.000000000000
100
AcDbArc
50
90.000000000000
51
180.000000000000
0
ARC
5
5ad
100
AcDbEntity
8
0-0
6
CONTINUOUS
62
7
100
AcDbCircle
10
810.000000000000
20
250.000000000000
30
0.0
40
2.000000000000
100
AcDbArc
50
270.000000000000
51
360.000000000000
0
ARC
5
5ae
100
AcDbEntity
8
0-0
6
CONTINUOUS
62
7
100
AcDbCircle
10
770.000000000000
20
250.000000000000
30
0.0
40
2.000000000000
100
AcDbArc
50
180.000000000000
51
270.000000000000
0
CIRCLE
5
5af
100
AcDbEntity
8
0-0
6
CONTINUOUS
62
7
100
AcDbCircle
10
790.000000000000
20
270.000000000000
30
0.0
40
6.500000000000
0
LINE
5
5b0
100
AcDbEntity
8
0-0
6
CONTINUOUS
62
7
100
AcDbLine
10
812.000000000000
20
250.000000000000
30
0.0
11
812.000000000000
21
290.000000000000
31
0.0
0
LINE
5
5b1
100
AcDbEntity
8
0-0
6
CONTINUOUS
62
7
100
AcDbLine
10
770.000000000000
20
248.000000000000
30
0.0
11
810.000000000000
21
248.000000000000
31
0.0
0
LINE
5
5b2
100
AcDbEntity
8
0-0
6
CONTINUOUS
62
7
100
AcDbLine
10
768.000000000000
20
290.000000000000
30
0.0
11
768.000000000000
21
250.000000000000
31
0.0
0
LINE
5
5b3
100
AcDbEntity
8
0-0
6
CONTINUOUS
62
7
100
AcDbLine
10
810.000000000000
20
292.000000000000
30
0.0
11
770.000000000000
21
292.000000000000
31
0.0
0
LINE
5
5b4
100
AcDbEntity
8
0-1
6
CENTER
62
4
100
AcDbLine
10
790.000000000000
20
248.000000000000
30
0.0
11
790.000000000000
21
292.000000000000
31
0.0
0
ARC
5
5b5
100
AcDbEntity
8
0-1
6
DASHED
62
4
100
AcDbCircle
10
749.500000000000
20
309.924786468922
30
0.0
40
0.500000000000
100
AcDbArc
50
270.000000000000
51
360.000000000000
0
ARC
5
5b6
100
AcDbEntity
8
0-1
6
DASHED
62
4
100
AcDbCircle
10
710.500000000000
20
309.924786468922
30
0.0
40
0.500000000000
100
AcDbArc
50
180.000000000000
51
270.000000000000
0
LINE
5
5b7
100
AcDbEntity
8
0-1
6
DASHED
62
4
100
AcDbLine
10
750.000000000000
20
309.924786468922
30
0.0
11
750.000000000000
21
334.424786468922
31
0.0
0
LINE
5
5b8
100
AcDbEntity
8
0-1
6
DASHED
62
4
100
AcDbLine
10
710.000000000000
20
309.924786468922
30
0.0
11
710.000000000000
21
334.424786468922
31
0.0
0
LINE
5
5b9
100
AcDbEntity
8
0-1
6
DASHED
62
4
100
AcDbLine
10
749.500000000000
20
309.424786468922
30
0.0
11
710.500000000000
21
309.424786468922
31
0.0
0
LINE
5
5ba
100
AcDbEntity
8
0-1
6
CENTER
62
4
100
AcDbLine
10
730.000000000000
20
334.424786468922
30
0.0
11
730.000000000000
21
307.424786468922
31
0.0
0
ARC
5
5bb
100
AcDbEntity
8
0-0
6
CONTINUOUS
62
7
100
AcDbCircle
10
750.000000000000
20
309.424786468922
30
0.0
40
2.000000000000
100
AcDbArc
50
270.000000000000
51
360.000000000000
0
ARC
5
5bc
100
AcDbEntity
8
0-0
6
CONTINUOUS
62
7
100
AcDbCircle
10
710.000000000000
20
309.424786468922
30
0.0
40
2.000000000000
100
AcDbArc
50
180.000000000000
51
270.000000000000
0
LINE
5
5bd
100
AcDbEntity
8
0-0
6
CONTINUOUS
62
7
100
AcDbLine
10
708.000000000000
20
334.424786468922
30
0.0
11
708.000000000000
21
309.424786468922
31
0.0
0
LINE
5
5be
100
AcDbEntity
8
0-0
6
CONTINUOUS
62
7
100
AcDbLine
10
752.000000000000
20
334.424786468922
30
0.0
11
752.000000000000
21
309.424786468922
31
0.0
0
LINE
5
5bf
100
AcDbEntity
8
0-0
6
CONTINUOUS
62
7
100
AcDbLine
10
708.000000000000
20
334.424786468922
30
0.0
11
752.000000000000
21
334.424786468922
31
0.0
0
LINE
5
5c0
100
AcDbEntity
8
0-0
6
CONTINUOUS
62
7
100
AcDbLine
10
710.000000000000
20
307.424786468922
30
0.0
11
750.000000000000
21
307.424786468922
31
0.0
0
ARC
5
5c1
100
AcDbEntity
8
0-1
6
DASHED
62
4
100
AcDbCircle
10
749.500000000000
20
289.500000000000
30
0.0
40
0.500000000000
100
AcDbArc
50
0.000000000000
51
90.000000000000
0
ARC
5
5c2
100
AcDbEntity
8
0-1
6
DASHED
62
4
100
AcDbCircle
10
710.500000000000
20
289.500000000000
30
0.0
40
0.500000000000
100
AcDbArc
50
90.000000000000
51
180.000000000000
0
ARC
5
5c3
100
AcDbEntity
8
0-1
6
DASHED
62
4
100
AcDbCircle
10
749.500000000000
20
250.500000000000
30
0.0
40
0.500000000000
100
AcDbArc
50
270.000000000000
51
360.000000000000
0
ARC
5
5c4
100
AcDbEntity
8
0-1
6
DASHED
62
4
100
AcDbCircle
10
710.500000000000
20
250.500000000000
30
0.0
40
0.500000000000
100
AcDbArc
50
180.000000000000
51
270.000000000000
0
LINE
5
5c5
100
AcDbEntity
8
0-1
6
DASHED
62
4
100
AcDbLine
10
750.000000000000
20
289.500000000000
30
0.0
11
750.000000000000
21
250.500000000000
31
0.0
0
LINE
5
5c6
100
AcDbEntity
8
0-1
6
DASHED
62
4
100
AcDbLine
10
749.500000000000
20
250.000000000000
30
0.0
11
710.500000000000
21
250.000000000000
31
0.0
0
LINE
5
5c7
100
AcDbEntity
8
0-1
6
DASHED
62
4
100
AcDbLine
10
710.000000000000
20
250.500000000000
30
0.0
11
710.000000000000
21
289.500000000000
31
0.0
0
LINE
5
5c8
100
AcDbEntity
8
0-1
6
DASHED
62
4
100
AcDbLine
10
710.500000000000
20
290.000000000000
30
0.0
11
749.500000000000
21
290.000000000000
31
0.0
0
LINE
5
5c9
100
AcDbEntity
8
0-1
6
CENTER
62
4
100
AcDbLine
10
752.000000000000
20
270.000000000000
30
0.0
11
708.000000000000
21
270.000000000000
31
0.0
0
ARC
5
5ca
100
AcDbEntity
8
0-0
6
CONTINUOUS
62
7
100
AcDbCircle
10
750.000000000000
20
290.000000000000
30
0.0
40
2.000000000000
100
AcDbArc
50
0.000000000000
51
90.000000000000
0
ARC
5
5cb
100
AcDbEntity
8
0-0
6
CONTINUOUS
62
7
100
AcDbCircle
10
710.000000000000
20
290.000000000000
30
0.0
40
2.000000000000
100
AcDbArc
50
90.000000000000
51
180.000000000000
0
ARC
5
5cc
100
AcDbEntity
8
0-0
6
CONTINUOUS
62
7
100
AcDbCircle
10
750.000000000000
20
250.000000000000
30
0.0
40
2.000000000000
100
AcDbArc
50
270.000000000000
51
360.000000000000
0
ARC
5
5cd
100
AcDbEntity
8
0-0
6
CONTINUOUS
62
7
100
AcDbCircle
10
710.000000000000
20
250.000000000000
30
0.0
40
2.000000000000
100
AcDbArc
50
180.000000000000
51
270.000000000000
0
CIRCLE
5
5ce
100
AcDbEntity
8
0-0
6
CONTINUOUS
62
7
100
AcDbCircle
10
730.000000000000
20
270.000000000000
30
0.0
40
8.500000000000
0
LINE
5
5cf
100
AcDbEntity
8
0-0
6
CONTINUOUS
62
7
100
AcDbLine
10
750.000000000000
20
292.000000000000
30
0.0
11
710.000000000000
21
292.000000000000
31
0.0
0
LINE
5
5d0
100
AcDbEntity
8
0-0
6
CONTINUOUS
62
7
100
AcDbLine
10
752.000000000000
20
250.000000000000
30
0.0
11
752.000000000000
21
290.000000000000
31
0.0
0
LINE
5
5d1
100
AcDbEntity
8
0-0
6
CONTINUOUS
62
7
100
AcDbLine
10
710.000000000000
20
248.000000000000
30
0.0
11
750.000000000000
21
248.000000000000
31
0.0
0
LINE
5
5d2
100
AcDbEntity
8
0-0
6
CONTINUOUS
62
7
100
AcDbLine
10
708.000000000000
20
290.000000000000
30
0.0
11
708.000000000000
21
250.000000000000
31
0.0
0
ARC
5
5d3
100
AcDbEntity
8
0-1
6
DASHED
62
4
100
AcDbCircle
10
895.500000000000
20
394.500000000000
30
0.0
40
0.500000000000
100
AcDbArc
50
90.000000000000
51
180.000000000000
0
ARC
5
5d4
100
AcDbEntity
8
0-1
6
DASHED
62
4
100
AcDbCircle
10
924.500000000000
20
394.500000000000
30
0.0
40
0.500000000000
100
AcDbArc
50
0.000000000000
51
90.000000000000
0
ARC
5
5d5
100
AcDbEntity
8
0-1
6
DASHED
62
4
100
AcDbCircle
10
895.500000000000
20
365.500000000000
30
0.0
40
0.500000000000
100
AcDbArc
50
180.000000000000
51
270.000000000000
0
ARC
5
5d6
100
AcDbEntity
8
0-1
6
DASHED
62
4
100
AcDbCircle
10
924.500000000000
20
365.500000000000
30
0.0
40
0.500000000000
100
AcDbArc
50
270.000000000000
51
360.000000000000
0
LINE
5
5d7
100
AcDbEntity
8
0-1
6
DASHED
62
4
100
AcDbLine
10
925.000000000000
20
365.500000000000
30
0.0
11
925.000000000000
21
394.500000000000
31
0.0
0
LINE
5
5d8
100
AcDbEntity
8
0-1
6
DASHED
62
4
100
AcDbLine
10
895.500000000000
20
365.000000000000
30
0.0
11
924.500000000000
21
365.000000000000
31
0.0
0
LINE
5
5d9
100
AcDbEntity
8
0-1
6
DASHED
62
4
100
AcDbLine
10
895.000000000000
20
394.500000000000
30
0.0
11
895.000000000000
21
365.500000000000
31
0.0
0
LINE
5
5da
100
AcDbEntity
8
0-1
6
DASHED
62
4
100
AcDbLine
10
924.500000000000
20
395.000000000000
30
0.0
11
895.500000000000
21
395.000000000000
31
0.0
0
LINE
5
5db
100
AcDbEntity
8
0-1
6
CENTER
62
4
100
AcDbLine
10
910.000000000000
20
363.000000000000
30
0.0
11
910.000000000000
21
397.000000000000
31
0.0
0
LINE
5
5dc
100
AcDbEntity
8
0-1
6
CENTER
62
4
100
AcDbLine
10
893.000000000000
20
380.000000000000
30
0.0
11
927.000000000000
21
380.000000000000
31
0.0
0
ARC
5
5dd
100
AcDbEntity
8
0-1
6
DASHED
62
4
100
AcDbCircle
10
895.500000000000
20
418.505244650273
30
0.0
40
0.500000000000
100
AcDbArc
50
180.000000000000
51
270.000000000000
0
ARC
5
5de
100
AcDbEntity
8
0-1
6
DASHED
62
4
100
AcDbCircle
10
924.500000000000
20
418.505244650273
30
0.0
40
0.500000000000
100
AcDbArc
50
270.000000000000
51
360.000000000000
0
LINE
5
5df
100
AcDbEntity
8
0-1
6
CENTER
62
4
100
AcDbLine
10
910.000000000000
20
438.005244650273
30
0.0
11
910.000000000000
21
416.005244650273
31
0.0
0
LINE
5
5e0
100
AcDbEntity
8
0-1
6
DASHED
62
4
100
AcDbLine
10
925.000000000000
20
438.005244650273
30
0.0
11
925.000000000000
21
418.505244650273
31
0.0
0
LINE
5
5e1
100
AcDbEntity
8
0-1
6
DASHED
62
4
100
AcDbLine
10
895.000000000000
20
418.505244650273
30
0.0
11
895.000000000000
21
438.005244650273
31
0.0
0
LINE
5
5e2
100
AcDbEntity
8
0-1
6
DASHED
62
4
100
AcDbLine
10
924.500000000000
20
418.005244650273
30
0.0
11
895.500000000000
21
418.005244650273
31
0.0
0
ARC
5
5e3
100
AcDbEntity
8
0-0
6
CONTINUOUS
62
7
100
AcDbCircle
10
895.000000000000
20
395.000000000000
30
0.0
40
2.000000000000
100
AcDbArc
50
90.000000000000
51
180.000000000000
0
ARC
5
5e4
100
AcDbEntity
8
0-0
6
CONTINUOUS
62
7
100
AcDbCircle
10
925.000000000000
20
395.000000000000
30
0.0
40
2.000000000000
100
AcDbArc
50
0.000000000000
51
90.000000000000
0
ARC
5
5e5
100
AcDbEntity
8
0-0
6
CONTINUOUS
62
7
100
AcDbCircle
10
895.000000000000
20
365.000000000000
30
0.0
40
2.000000000000
100
AcDbArc
50
180.000000000000
51
270.000000000000
0
ARC
5
5e6
100
AcDbEntity
8
0-0
6
CONTINUOUS
62
7
100
AcDbCircle
10
925.000000000000
20
365.000000000000
30
0.0
40
2.000000000000
100
AcDbArc
50
270.000000000000
51
360.000000000000
0
LINE
5
5e7
100
AcDbEntity
8
0-0
6
CONTINUOUS
62
7
100
AcDbLine
10
893.000000000000
20
365.000000000000
30
0.0
11
893.000000000000
21
395.000000000000
31
0.0
0
LINE
5
5e8
100
AcDbEntity
8
0-0
6
CONTINUOUS
62
7
100
AcDbLine
10
925.000000000000
20
363.000000000000
30
0.0
11
895.000000000000
21
363.000000000000
31
0.0
0
LINE
5
5e9
100
AcDbEntity
8
0-0
6
CONTINUOUS
62
7
100
AcDbLine
10
927.000000000000
20
395.000000000000
30
0.0
11
927.000000000000
21
365.000000000000
31
0.0
0
LINE
5
5ea
100
AcDbEntity
8
0-0
6
CONTINUOUS
62
7
100
AcDbLine
10
895.000000000000
20
397.000000000000
30
0.0
11
925.000000000000
21
397.000000000000
31
0.0
0
ARC
5
5eb
100
AcDbEntity
8
0-0
6
CONTINUOUS
62
7
100
AcDbCircle
10
895.000000000000
20
418.005244650273
30
0.0
40
2.000000000000
100
AcDbArc
50
180.000000000000
51
270.000000000000
0
ARC
5
5ec
100
AcDbEntity
8
0-0
6
CONTINUOUS
62
7
100
AcDbCircle
10
925.000000000000
20
418.005244650273
30
0.0
40
2.000000000000
100
AcDbArc
50
270.000000000000
51
360.000000000000
0
LINE
5
5ed
100
AcDbEntity
8
0-0
6
CONTINUOUS
62
7
100
AcDbLine
10
893.000000000000
20
418.005244650273
30
0.0
11
893.000000000000
21
438.005244650273
31
0.0
0
LINE
5
5ee
100
AcDbEntity
8
0-0
6
CONTINUOUS
62
7
100
AcDbLine
10
925.000000000000
20
416.005244650273
30
0.0
11
895.000000000000
21
416.005244650273
31
0.0
0
POLYLINE
5
5ef
100
AcDbEntity
8
0-0
6
CONTINUOUS
62
  7
100
AcDb2dPolyline
66
1
10
0.0
20
0.0
30
0.0
70
0
0
VERTEX
5
5f0
100
AcDbEntity
8
0-0
6
CONTINUOUS
62
  7
100
AcDbVertex
100
AcDb2dVertex
10
893.000000000000
20
438.005244650273
30
0.0
0
VERTEX
5
5f1
100
AcDbEntity
8
0-0
6
CONTINUOUS
62
  7
100
AcDbVertex
100
AcDb2dVertex
10
927.000000000000
20
438.005244650273
30
0.0
0
VERTEX
5
5f2
100
AcDbEntity
8
0-0
6
CONTINUOUS
62
  7
100
AcDbVertex
100
AcDb2dVertex
10
927.000000000000
20
418.005244650273
30
0.0
0
SEQEND
5
5f3
100
AcDbEntity
8
0-0
0
ARC
5
5f4
100
AcDbEntity
8
0-1
6
DASHED
62
4
100
AcDbCircle
10
835.500000000000
20
394.500000000000
30
0.0
40
0.500000000000
100
AcDbArc
50
90.000000000000
51
180.000000000000
0
ARC
5
5f5
100
AcDbEntity
8
0-1
6
DASHED
62
4
100
AcDbCircle
10
864.500000000000
20
394.500000000000
30
0.0
40
0.500000000000
100
AcDbArc
50
0.000000000000
51
90.000000000000
0
ARC
5
5f6
100
AcDbEntity
8
0-1
6
DASHED
62
4
100
AcDbCircle
10
835.500000000000
20
365.500000000000
30
0.0
40
0.500000000000
100
AcDbArc
50
180.000000000000
51
270.000000000000
0
ARC
5
5f7
100
AcDbEntity
8
0-1
6
DASHED
62
4
100
AcDbCircle
10
864.500000000000
20
365.500000000000
30
0.0
40
0.500000000000
100
AcDbArc
50
270.000000000000
51
360.000000000000
0
LINE
5
5f8
100
AcDbEntity
8
0-1
6
DASHED
62
4
100
AcDbLine
10
835.500000000000
20
365.000000000000
30
0.0
11
864.500000000000
21
365.000000000000
31
0.0
0
LINE
5
5f9
100
AcDbEntity
8
0-1
6
DASHED
62
4
100
AcDbLine
10
835.000000000000
20
394.500000000000
30
0.0
11
835.000000000000
21
365.500000000000
31
0.0
0
LINE
5
5fa
100
AcDbEntity
8
0-1
6
DASHED
62
4
100
AcDbLine
10
864.500000000000
20
395.000000000000
30
0.0
11
835.500000000000
21
395.000000000000
31
0.0
0
LINE
5
5fb
100
AcDbEntity
8
0-1
6
DASHED
62
4
100
AcDbLine
10
865.000000000000
20
365.500000000000
30
0.0
11
865.000000000000
21
394.500000000000
31
0.0
0
LINE
5
5fc
100
AcDbEntity
8
0-1
6
CENTER
62
4
100
AcDbLine
10
867.000000000000
20
380.000000000000
30
0.0
11
833.000000000000
21
380.000000000000
31
0.0
0
LINE
5
5fd
100
AcDbEntity
8
0-1
6
CENTER
62
4
100
AcDbLine
10
859.000000000000
20
396.140792570544
30
0.0
11
859.000000000000
21
381.119679064130
31
0.0
0
LINE
5
5fe
100
AcDbEntity
8
0-1
6
CENTER
62
4
100
AcDbLine
10
851.315277310178
20
389.000000000000
30
0.0
11
866.919106426755
21
389.000000000000
31
0.0
0
LINE
5
5ff
100
AcDbEntity
8
0-1
6
CENTER
62
4
100
AcDbLine
10
850.000000000000
20
363.000000000000
30
0.0
11
850.000000000000
21
397.000000000000
31
0.0
0
ARC
5
600
100
AcDbEntity
8
0-1
6
DASHED
62
4
100
AcDbCircle
10
835.500000000000
20
418.505244650273
30
0.0
40
0.500000000000
100
AcDbArc
50
180.000000000000
51
270.000000000000
0
ARC
5
601
100
AcDbEntity
8
0-1
6
DASHED
62
4
100
AcDbCircle
10
864.500000000000
20
418.505244650273
30
0.0
40
0.500000000000
100
AcDbArc
50
270.000000000000
51
360.000000000000
0
LINE
5
602
100
AcDbEntity
8
0-1
6
CENTER
62
4
100
AcDbLine
10
850.000000000000
20
438.005244650273
30
0.0
11
850.000000000000
21
416.005244650273
31
0.0
0
LINE
5
603
100
AcDbEntity
8
0-1
6
DASHED
62
4
100
AcDbLine
10
835.000000000000
20
418.505244650273
30
0.0
11
835.000000000000
21
438.005244650273
31
0.0
0
LINE
5
604
100
AcDbEntity
8
0-1
6
DASHED
62
4
100
AcDbLine
10
865.000000000000
20
418.505244650273
30
0.0
11
865.000000000000
21
438.005244650273
31
0.0
0
LINE
5
605
100
AcDbEntity
8
0-1
6
DASHED
62
4
100
AcDbLine
10
835.500000000000
20
418.005244650273
30
0.0
11
864.500000000000
21
418.005244650273
31
0.0
0
ARC
5
606
100
AcDbEntity
8
0-0
6
CONTINUOUS
62
7
100
AcDbCircle
10
835.000000000000
20
395.000000000000
30
0.0
40
2.000000000000
100
AcDbArc
50
90.000000000000
51
180.000000000000
0
ARC
5
607
100
AcDbEntity
8
0-0
6
CONTINUOUS
62
7
100
AcDbCircle
10
865.000000000000
20
395.000000000000
30
0.0
40
2.000000000000
100
AcDbArc
50
0.000000000000
51
90.000000000000
0
ARC
5
608
100
AcDbEntity
8
0-0
6
CONTINUOUS
62
7
100
AcDbCircle
10
835.000000000000
20
365.000000000000
30
0.0
40
2.000000000000
100
AcDbArc
50
180.000000000000
51
270.000000000000
0
ARC
5
609
100
AcDbEntity
8
0-0
6
CONTINUOUS
62
7
100
AcDbCircle
10
865.000000000000
20
365.000000000000
30
0.0
40
2.000000000000
100
AcDbArc
50
270.000000000000
51
360.000000000000
0
CIRCLE
5
60a
100
AcDbEntity
8
0-0
6
CONTINUOUS
62
7
100
AcDbCircle
10
859.000000000000
20
389.000000000000
30
0.0
40
5.250000000000
0
LINE
5
60b
100
AcDbEntity
8
0-0
6
CONTINUOUS
62
7
100
AcDbLine
10
835.000000000000
20
397.000000000000
30
0.0
11
865.000000000000
21
397.000000000000
31
0.0
0
LINE
5
60c
100
AcDbEntity
8
0-0
6
CONTINUOUS
62
7
100
AcDbLine
10
833.000000000000
20
365.000000000000
30
0.0
11
833.000000000000
21
395.000000000000
31
0.0
0
LINE
5
60d
100
AcDbEntity
8
0-0
6
CONTINUOUS
62
7
100
AcDbLine
10
865.000000000000
20
363.000000000000
30
0.0
11
835.000000000000
21
363.000000000000
31
0.0
0
LINE
5
60e
100
AcDbEntity
8
0-0
6
CONTINUOUS
62
7
100
AcDbLine
10
867.000000000000
20
395.000000000000
30
0.0
11
867.000000000000
21
365.000000000000
31
0.0
0
ARC
5
60f
100
AcDbEntity
8
0-0
6
CONTINUOUS
62
7
100
AcDbCircle
10
835.000000000000
20
418.005244650273
30
0.0
40
2.000000000000
100
AcDbArc
50
180.000000000000
51
270.000000000000
0
ARC
5
610
100
AcDbEntity
8
0-0
6
CONTINUOUS
62
7
100
AcDbCircle
10
865.000000000000
20
418.005244650273
30
0.0
40
2.000000000000
100
AcDbArc
50
270.000000000000
51
360.000000000000
0
LINE
5
611
100
AcDbEntity
8
0-0
6
CONTINUOUS
62
7
100
AcDbLine
10
833.000000000000
20
438.005244650273
30
0.0
11
867.000000000000
21
438.005244650273
31
0.0
0
LINE
5
612
100
AcDbEntity
8
0-0
6
CONTINUOUS
62
7
100
AcDbLine
10
865.000000000000
20
416.005244650273
30
0.0
11
835.000000000000
21
416.005244650273
31
0.0
0
LINE
5
613
100
AcDbEntity
8
0-0
6
CONTINUOUS
62
7
100
AcDbLine
10
867.000000000000
20
438.005244650273
30
0.0
11
867.000000000000
21
418.005244650273
31
0.0
0
LINE
5
614
100
AcDbEntity
8
0-0
6
CONTINUOUS
62
7
100
AcDbLine
10
833.000000000000
20
438.005244650273
30
0.0
11
833.000000000000
21
418.005244650273
31
0.0
0
LINE
5
615
100
AcDbEntity
8
0-1
6
DASHED
62
4
100
AcDbLine
10
775.500000000000
20
395.000000000000
30
0.0
11
804.500000000000
21
395.000000000000
31
0.0
0
ARC
5
616
100
AcDbEntity
8
0-1
6
DASHED
62
4
100
AcDbCircle
10
775.500000000000
20
394.500000000000
30
0.0
40
0.500000000000
100
AcDbArc
50
90.000000000000
51
180.000000000000
0
ARC
5
617
100
AcDbEntity
8
0-1
6
DASHED
62
4
100
AcDbCircle
10
804.500000000000
20
394.500000000000
30
0.0
40
0.500000000000
100
AcDbArc
50
0.000000000000
51
90.000000000000
0
ARC
5
618
100
AcDbEntity
8
0-1
6
DASHED
62
4
100
AcDbCircle
10
775.500000000000
20
365.500000000000
30
0.0
40
0.500000000000
100
AcDbArc
50
180.000000000000
51
270.000000000000
0
ARC
5
619
100
AcDbEntity
8
0-1
6
DASHED
62
4
100
AcDbCircle
10
804.500000000000
20
365.500000000000
30
0.0
40
0.500000000000
100
AcDbArc
50
270.000000000000
51
360.000000000000
0
LINE
5
61a
100
AcDbEntity
8
0-1
6
DASHED
62
4
100
AcDbLine
10
775.000000000000
20
365.500000000000
30
0.0
11
775.000000000000
21
394.500000000000
31
0.0
0
LINE
5
61b
100
AcDbEntity
8
0-1
6
DASHED
62
4
100
AcDbLine
10
804.500000000000
20
365.000000000000
30
0.0
11
775.500000000000
21
365.000000000000
31
0.0
0
LINE
5
61c
100
AcDbEntity
8
0-1
6
DASHED
62
4
100
AcDbLine
10
805.000000000000
20
394.500000000000
30
0.0
11
805.000000000000
21
365.500000000000
31
0.0
0
LINE
5
61d
100
AcDbEntity
8
0-1
6
CENTER
62
4
100
AcDbLine
10
790.000000000000
20
397.000000000000
30
0.0
11
790.000000000000
21
363.000000000000
31
0.0
0
LINE
5
61e
100
AcDbEntity
8
0-1
6
CENTER
62
4
100
AcDbLine
10
804.500000000000
20
385.000000000000
30
0.0
11
785.000558196647
21
385.000000000000
31
0.0
0
LINE
5
61f
100
AcDbEntity
8
0-1
6
CENTER
62
4
100
AcDbLine
10
807.000000000000
20
380.000000000000
30
0.0
11
773.000000000000
21
380.000000000000
31
0.0
0
LINE
5
620
100
AcDbEntity
8
0-1
6
CENTER
62
4
100
AcDbLine
10
795.000000000000
20
394.500000000000
30
0.0
11
795.000000000000
21
375.394121656163
31
0.0
0
ARC
5
621
100
AcDbEntity
8
0-1
6
DASHED
62
4
100
AcDbCircle
10
775.500000000000
20
418.505244650273
30
0.0
40
0.500000000000
100
AcDbArc
50
180.000000000000
51
270.000000000000
0
ARC
5
622
100
AcDbEntity
8
0-1
6
DASHED
62
4
100
AcDbCircle
10
804.500000000000
20
418.505244650273
30
0.0
40
0.500000000000
100
AcDbArc
50
270.000000000000
51
360.000000000000
0
LINE
5
623
100
AcDbEntity
8
0-1
6
DASHED
62
4
100
AcDbLine
10
805.000000000000
20
418.505244650273
30
0.0
11
805.000000000000
21
438.005244650273
31
0.0
0
LINE
5
624
100
AcDbEntity
8
0-1
6
CENTER
62
4
100
AcDbLine
10
790.000000000000
20
438.005244650273
30
0.0
11
790.000000000000
21
416.005244650273
31
0.0
0
LINE
5
625
100
AcDbEntity
8
0-1
6
DASHED
62
4
100
AcDbLine
10
775.000000000000
20
418.505244650273
30
0.0
11
775.000000000000
21
438.005244650273
31
0.0
0
LINE
5
626
100
AcDbEntity
8
0-1
6
DASHED
62
4
100
AcDbLine
10
804.500000000000
20
418.005244650273
30
0.0
11
775.500000000000
21
418.005244650273
31
0.0
0
ARC
5
627
100
AcDbEntity
8
0-0
6
CONTINUOUS
62
7
100
AcDbCircle
10
775.000000000000
20
395.000000000000
30
0.0
40
2.000000000000
100
AcDbArc
50
90.000000000000
51
180.000000000000
0
ARC
5
628
100
AcDbEntity
8
0-0
6
CONTINUOUS
62
7
100
AcDbCircle
10
805.000000000000
20
395.000000000000
30
0.0
40
2.000000000000
100
AcDbArc
50
0.000000000000
51
90.000000000000
0
ARC
5
629
100
AcDbEntity
8
0-0
6
CONTINUOUS
62
7
100
AcDbCircle
10
775.000000000000
20
365.000000000000
30
0.0
40
2.000000000000
100
AcDbArc
50
180.000000000000
51
270.000000000000
0
ARC
5
62a
100
AcDbEntity
8
0-0
6
CONTINUOUS
62
7
100
AcDbCircle
10
805.000000000000
20
365.000000000000
30
0.0
40
2.000000000000
100
AcDbArc
50
270.000000000000
51
360.000000000000
0
CIRCLE
5
62b
100
AcDbEntity
8
0-0
6
CONTINUOUS
62
7
100
AcDbCircle
10
795.000000000000
20
385.000000000000
30
0.0
40
6.500000000000
0
LINE
5
62c
100
AcDbEntity
8
0-0
6
CONTINUOUS
62
7
100
AcDbLine
10
807.000000000000
20
365.000000000000
30
0.0
11
807.000000000000
21
395.000000000000
31
0.0
0
LINE
5
62d
100
AcDbEntity
8
0-0
6
CONTINUOUS
62
7
100
AcDbLine
10
775.000000000000
20
363.000000000000
30
0.0
11
805.000000000000
21
363.000000000000
31
0.0
0
LINE
5
62e
100
AcDbEntity
8
0-0
6
CONTINUOUS
62
7
100
AcDbLine
10
773.000000000000
20
395.000000000000
30
0.0
11
773.000000000000
21
365.000000000000
31
0.0
0
LINE
5
62f
100
AcDbEntity
8
0-0
6
CONTINUOUS
62
7
100
AcDbLine
10
805.000000000000
20
397.000000000000
30
0.0
11
775.000000000000
21
397.000000000000
31
0.0
0
ARC
5
630
100
AcDbEntity
8
0-0
6
CONTINUOUS
62
7
100
AcDbCircle
10
775.000000000000
20
418.005244650273
30
0.0
40
2.000000000000
100
AcDbArc
50
180.000000000000
51
270.000000000000
0
ARC
5
631
100
AcDbEntity
8
0-0
6
CONTINUOUS
62
7
100
AcDbCircle
10
805.000000000000
20
418.005244650273
30
0.0
40
2.000000000000
100
AcDbArc
50
270.000000000000
51
360.000000000000
0
LINE
5
632
100
AcDbEntity
8
0-0
6
CONTINUOUS
62
7
100
AcDbLine
10
805.000000000000
20
416.005244650273
30
0.0
11
775.000000000000
21
416.005244650273
31
0.0
0
LINE
5
633
100
AcDbEntity
8
0-0
6
CONTINUOUS
62
7
100
AcDbLine
10
807.000000000000
20
438.005244650273
30
0.0
11
807.000000000000
21
418.005244650273
31
0.0
0
LINE
5
634
100
AcDbEntity
8
0-0
6
CONTINUOUS
62
7
100
AcDbLine
10
773.000000000000
20
438.005244650273
30
0.0
11
807.000000000000
21
438.005244650273
31
0.0
0
LINE
5
635
100
AcDbEntity
8
0-0
6
CONTINUOUS
62
7
100
AcDbLine
10
773.000000000000
20
418.005244650273
30
0.0
11
773.000000000000
21
438.005244650273
31
0.0
0
ARC
5
636
100
AcDbEntity
8
0-1
6
DASHED
62
4
100
AcDbCircle
10
715.500000000000
20
418.505244650273
30
0.0
40
0.500000000000
100
AcDbArc
50
180.000000000000
51
270.000000000000
0
ARC
5
637
100
AcDbEntity
8
0-1
6
DASHED
62
4
100
AcDbCircle
10
744.500000000000
20
418.505244650273
30
0.0
40
0.500000000000
100
AcDbArc
50
270.000000000000
51
360.000000000000
0
LINE
5
638
100
AcDbEntity
8
0-1
6
CENTER
62
4
100
AcDbLine
10
730.000000000000
20
438.005244650273
30
0.0
11
730.000000000000
21
416.005244650273
31
0.0
0
LINE
5
639
100
AcDbEntity
8
0-1
6
DASHED
62
4
100
AcDbLine
10
745.000000000000
20
418.505244650273
30
0.0
11
745.000000000000
21
438.005244650273
31
0.0
0
LINE
5
63a
100
AcDbEntity
8
0-1
6
DASHED
62
4
100
AcDbLine
10
715.000000000000
20
418.505244650273
30
0.0
11
715.000000000000
21
438.005244650273
31
0.0
0
LINE
5
63b
100
AcDbEntity
8
0-1
6
DASHED
62
4
100
AcDbLine
10
744.500000000000
20
418.005244650273
30
0.0
11
715.500000000000
21
418.005244650273
31
0.0
0
ARC
5
63c
100
AcDbEntity
8
0-0
6
CONTINUOUS
62
7
100
AcDbCircle
10
715.000000000000
20
418.005244650273
30
0.0
40
2.000000000000
100
AcDbArc
50
180.000000000000
51
270.000000000000
0
ARC
5
63d
100
AcDbEntity
8
0-0
6
CONTINUOUS
62
7
100
AcDbCircle
10
745.000000000000
20
418.005244650273
30
0.0
40
2.000000000000
100
AcDbArc
50
270.000000000000
51
360.000000000000
0
LINE
5
63e
100
AcDbEntity
8
0-0
6
CONTINUOUS
62
7
100
AcDbLine
10
715.000000000000
20
416.005244650273
30
0.0
11
745.000000000000
21
416.005244650273
31
0.0
0
LINE
5
63f
100
AcDbEntity
8
0-0
6
CONTINUOUS
62
7
100
AcDbLine
10
713.000000000000
20
438.005244650273
30
0.0
11
713.000000000000
21
418.005244650273
31
0.0
0
LINE
5
640
100
AcDbEntity
8
0-0
6
CONTINUOUS
62
7
100
AcDbLine
10
747.000000000000
20
438.005244650273
30
0.0
11
747.000000000000
21
418.005244650273
31
0.0
0
LINE
5
641
100
AcDbEntity
8
0-0
6
CONTINUOUS
62
7
100
AcDbLine
10
713.000000000000
20
438.005244650273
30
0.0
11
747.000000000000
21
438.005244650273
31
0.0
0
ARC
5
642
100
AcDbEntity
8
0-1
6
DASHED
62
4
100
AcDbCircle
10
744.500000000000
20
365.500000000000
30
0.0
40
0.500000000000
100
AcDbArc
50
270.000000000000
51
360.000000000000
0
ARC
5
643
100
AcDbEntity
8
0-1
6
DASHED
62
4
100
AcDbCircle
10
715.500000000000
20
365.500000000000
30
0.0
40
0.500000000000
100
AcDbArc
50
180.000000000000
51
270.000000000000
0
ARC
5
644
100
AcDbEntity
8
0-1
6
DASHED
62
4
100
AcDbCircle
10
715.500000000000
20
394.500000000000
30
0.0
40
0.500000000000
100
AcDbArc
50
90.000000000000
51
180.000000000000
0
ARC
5
645
100
AcDbEntity
8
0-1
6
DASHED
62
4
100
AcDbCircle
10
744.500000000000
20
394.500000000000
30
0.0
40
0.500000000000
100
AcDbArc
50
0.000000000000
51
90.000000000000
0
LINE
5
646
100
AcDbEntity
8
0-1
6
DASHED
62
4
100
AcDbLine
10
745.000000000000
20
394.500000000000
30
0.0
11
745.000000000000
21
365.500000000000
31
0.0
0
LINE
5
647
100
AcDbEntity
8
0-1
6
DASHED
62
4
100
AcDbLine
10
715.500000000000
20
395.000000000000
30
0.0
11
744.500000000000
21
395.000000000000
31
0.0
0
LINE
5
648
100
AcDbEntity
8
0-1
6
DASHED
62
4
100
AcDbLine
10
715.000000000000
20
365.500000000000
30
0.0
11
715.000000000000
21
394.500000000000
31
0.0
0
LINE
5
649
100
AcDbEntity
8
0-1
6
DASHED
62
4
100
AcDbLine
10
744.500000000000
20
365.000000000000
30
0.0
11
715.500000000000
21
365.000000000000
31
0.0
0
LINE
5
64a
100
AcDbEntity
8
0-1
6
CENTER
62
4
100
AcDbLine
10
744.500000000000
20
385.000000000000
30
0.0
11
725.000558196647
21
385.000000000000
31
0.0
0
LINE
5
64b
100
AcDbEntity
8
0-1
6
CENTER
62
4
100
AcDbLine
10
735.000000000000
20
394.500000000000
30
0.0
11
735.000000000000
21
375.394121656163
31
0.0
0
LINE
5
64c
100
AcDbEntity
8
0-1
6
CENTER
62
4
100
AcDbLine
10
730.000000000000
20
363.000000000000
30
0.0
11
730.000000000000
21
397.000000000000
31
0.0
0
LINE
5
64d
100
AcDbEntity
8
0-1
6
CENTER
62
4
100
AcDbLine
10
747.000000000000
20
380.000000000000
30
0.0
11
713.000000000000
21
380.000000000000
31
0.0
0
ARC
5
64e
100
AcDbEntity
8
0-0
6
CONTINUOUS
62
7
100
AcDbCircle
10
715.000000000000
20
395.000000000000
30
0.0
40
2.000000000000
100
AcDbArc
50
90.000000000000
51
180.000000000000
0
ARC
5
64f
100
AcDbEntity
8
0-0
6
CONTINUOUS
62
7
100
AcDbCircle
10
745.000000000000
20
395.000000000000
30
0.0
40
2.000000000000
100
AcDbArc
50
0.000000000000
51
90.000000000000
0
ARC
5
650
100
AcDbEntity
8
0-0
6
CONTINUOUS
62
7
100
AcDbCircle
10
715.000000000000
20
365.000000000000
30
0.0
40
2.000000000000
100
AcDbArc
50
180.000000000000
51
270.000000000000
0
ARC
5
651
100
AcDbEntity
8
0-0
6
CONTINUOUS
62
7
100
AcDbCircle
10
745.000000000000
20
365.000000000000
30
0.0
40
2.000000000000
100
AcDbArc
50
270.000000000000
51
360.000000000000
0
CIRCLE
5
652
100
AcDbEntity
8
0-0
6
CONTINUOUS
62
7
100
AcDbCircle
10
735.000000000000
20
385.000000000000
30
0.0
40
8.500000000000
0
LINE
5
653
100
AcDbEntity
8
0-0
6
CONTINUOUS
62
7
100
AcDbLine
10
747.000000000000
20
395.000000000000
30
0.0
11
747.000000000000
21
365.000000000000
31
0.0
0
LINE
5
654
100
AcDbEntity
8
0-0
6
CONTINUOUS
62
7
100
AcDbLine
10
715.000000000000
20
397.000000000000
30
0.0
11
745.000000000000
21
397.000000000000
31
0.0
0
LINE
5
655
100
AcDbEntity
8
0-0
6
CONTINUOUS
62
7
100
AcDbLine
10
713.000000000000
20
365.000000000000
30
0.0
11
713.000000000000
21
395.000000000000
31
0.0
0
LINE
5
656
100
AcDbEntity
8
0-0
6
CONTINUOUS
62
7
100
AcDbLine
10
745.000000000000
20
363.000000000000
30
0.0
11
715.000000000000
21
363.000000000000
31
0.0
0
TEXT
5
657
100
AcDbEntity
8
0-0
62
7
370
-3
100
AcDbText
10
700.200
20
350.767
30
0.0
40
4.208
1
EC30-H16
41
0.551
50
0.000
100
AcDbText
0
TEXT
5
658
100
AcDbEntity
8
0-0
62
7
370
-3
100
AcDbText
10
760.200
20
350.767
30
0.0
40
4.208
1
EC30-H12
41
0.544
50
0.000
100
AcDbText
0
TEXT
5
659
100
AcDbEntity
8
0-0
62
7
370
-3
100
AcDbText
10
820.200
20
350.767
30
0.0
40
4.208
1
EC30-H10
41
0.566
50
0.000
100
AcDbText
0
TEXT
5
65a
100
AcDbEntity
8
0-0
62
7
370
-3
100
AcDbText
10
880.200
20
350.767
30
0.0
40
4.208
1
EC30
41
0.536
50
0.000
100
AcDbText
0
TEXT
5
65b
100
AcDbEntity
8
0-0
62
7
370
-3
100
AcDbText
10
880.200
20
240.767
30
0.0
40
4.208
1
EC40
41
0.544
50
0.000
100
AcDbText
0
TEXT
5
65c
100
AcDbEntity
8
0-0
62
7
370
-3
100
AcDbText
10
820.200
20
240.767
30
0.0
40
4.208
1
EC40-H10
41
0.570
50
0.000
100
AcDbText
0
TEXT
5
65d
100
AcDbEntity
8
0-0
62
7
370
-3
100
AcDbText
10
760.200
20
240.767
30
0.0
40
4.208
1
EC40-H12
41
0.548
50
0.000
100
AcDbText
0
TEXT
5
65e
100
AcDbEntity
8
0-0
62
7
370
-3
100
AcDbText
10
700.200
20
240.767
30
0.0
40
4.208
1
EC40-H16
41
0.555
50
0.000
100
AcDbText
0
LINE
5
65f
100
AcDbEntity
8
0-1
6
CENTER
62
4
100
AcDbLine
10
730.000000000000
20
292.000000000000
30
0.0
11
730.000000000000
21
248.000000000000
31
0.0
0
POLYLINE
5
660
100
AcDbEntity
8
0-0
6
CONTINUOUS
62
  7
100
AcDb2dPolyline
66
1
10
0.0
20
0.0
30
0.0
70
0
0
VERTEX
5
661
100
AcDbEntity
8
0-0
6
CONTINUOUS
62
  7
100
AcDbVertex
100
AcDb2dVertex
10
87.200000000000
20
81.000000000000
30
0.0
0
VERTEX
5
662
100
AcDbEntity
8
0-0
6
CONTINUOUS
62
  7
100
AcDbVertex
100
AcDb2dVertex
10
87.200000000000
20
82.500000000000
30
0.0
0
VERTEX
5
663
100
AcDbEntity
8
0-0
6
CONTINUOUS
62
  7
100
AcDbVertex
100
AcDb2dVertex
10
92.800000000000
20
82.500000000000
30
0.0
0
VERTEX
5
664
100
AcDbEntity
8
0-0
6
CONTINUOUS
62
  7
100
AcDbVertex
100
AcDb2dVertex
10
92.800000000000
20
81.000000000000
30
0.0
0
VERTEX
5
665
100
AcDbEntity
8
0-0
6
CONTINUOUS
62
  7
100
AcDbVertex
100
AcDb2dVertex
10
87.200000000000
20
81.000000000000
30
0.0
0
SEQEND
5
666
100
AcDbEntity
8
0-0
0
POLYLINE
5
667
100
AcDbEntity
8
0-0
6
CONTINUOUS
62
  7
100
AcDb2dPolyline
66
1
10
0.0
20
0.0
30
0.0
70
0
0
VERTEX
5
668
100
AcDbEntity
8
0-0
6
CONTINUOUS
62
  7
100
AcDbVertex
100
AcDb2dVertex
10
87.200000000000
20
81.410511776651
30
0.0
0
VERTEX
5
669
100
AcDbEntity
8
0-0
6
CONTINUOUS
62
  7
100
AcDbVertex
100
AcDb2dVertex
10
83.000000000000
20
81.410511776651
30
0.0
0
VERTEX
5
66a
100
AcDbEntity
8
0-0
6
CONTINUOUS
62
  7
100
AcDbVertex
100
AcDb2dVertex
10
83.000000000000
20
80.000000000000
30
0.0
0
VERTEX
5
66b
100
AcDbEntity
8
0-0
6
CONTINUOUS
62
  7
100
AcDbVertex
100
AcDb2dVertex
10
97.000000000000
20
80.000000000000
30
0.0
0
VERTEX
5
66c
100
AcDbEntity
8
0-0
6
CONTINUOUS
62
  7
100
AcDbVertex
100
AcDb2dVertex
10
97.000000000000
20
81.410511776651
30
0.0
0
VERTEX
5
66d
100
AcDbEntity
8
0-0
6
CONTINUOUS
62
  7
100
AcDbVertex
100
AcDb2dVertex
10
94.500000000000
20
82.080384757729
30
0.0
0
VERTEX
5
66e
100
AcDbEntity
8
0-0
6
CONTINUOUS
62
  7
100
AcDbVertex
100
AcDb2dVertex
10
94.500000000000
20
83.600000000000
30
0.0
0
SEQEND
5
66f
100
AcDbEntity
8
0-0
0
LINE
5
670
100
AcDbEntity
8
0-0
6
CONTINUOUS
62
7
100
AcDbLine
10
94.200000000000
20
83.900000000000
30
0.0
11
85.800000000000
21
83.900000000000
31
0.0
0
POLYLINE
5
671
100
AcDbEntity
8
0-0
6
CONTINUOUS
62
  7
100
AcDb2dPolyline
66
1
10
0.0
20
0.0
30
0.0
70
0
0
VERTEX
5
672
100
AcDbEntity
8
0-0
6
CONTINUOUS
62
  7
100
AcDbVertex
100
AcDb2dVertex
10
85.500000000000
20
83.600000000000
30
0.0
0
VERTEX
5
673
100
AcDbEntity
8
0-0
6
CONTINUOUS
62
  7
100
AcDbVertex
100
AcDb2dVertex
10
85.500000000000
20
82.080384757729
30
0.0
0
VERTEX
5
674
100
AcDbEntity
8
0-0
6
CONTINUOUS
62
  7
100
AcDbVertex
100
AcDb2dVertex
10
83.000000000000
20
81.410511776651
30
0.0
0
SEQEND
5
675
100
AcDbEntity
8
0-0
0
LINE
5
676
100
AcDbEntity
8
0-0
6
CONTINUOUS
62
7
100
AcDbLine
10
85.500000000000
20
82.080384757729
30
0.0
11
87.200000000000
21
82.080384757729
31
0.0
0
LINE
5
677
100
AcDbEntity
8
0-0
6
CONTINUOUS
62
7
100
AcDbLine
10
84.969188219352
20
80.000000000000
30
0.0
11
84.969188219352
21
78.800000000000
31
0.0
0
POLYLINE
5
678
100
AcDbEntity
8
0-0
6
CONTINUOUS
62
  7
100
AcDb2dPolyline
66
1
10
0.0
20
0.0
30
0.0
70
0
0
VERTEX
5
679
100
AcDbEntity
8
0-0
6
CONTINUOUS
62
  7
100
AcDbVertex
100
AcDb2dVertex
10
85.269188219352
20
78.500000000000
30
0.0
0
VERTEX
5
67a
100
AcDbEntity
8
0-0
6
CONTINUOUS
62
  7
100
AcDbVertex
100
AcDb2dVertex
10
88.700000000000
20
78.500000000000
30
0.0
0
VERTEX
5
67b
100
AcDbEntity
8
0-0
6
CONTINUOUS
62
  7
100
AcDbVertex
100
AcDb2dVertex
10
88.700000000000
20
74.800000000000
30
0.0
0
VERTEX
5
67c
100
AcDbEntity
8
0-0
6
CONTINUOUS
62
  7
100
AcDbVertex
100
AcDb2dVertex
10
87.971552469955
20
74.800000000000
30
0.0
0
VERTEX
5
67d
100
AcDbEntity
8
0-0
6
CONTINUOUS
62
  7
100
AcDbVertex
100
AcDb2dVertex
10
84.433744527854
20
76.842554367713
30
0.0
0
SEQEND
5
67e
100
AcDbEntity
8
0-0
0
POLYLINE
5
67f
100
AcDbEntity
8
0-0
6
CONTINUOUS
62
  7
100
AcDb2dPolyline
66
1
10
0.0
20
0.0
30
0.0
70
0
0
VERTEX
5
680
100
AcDbEntity
8
0-0
6
CONTINUOUS
62
  7
100
AcDbVertex
100
AcDb2dVertex
10
84.439969299309
20
76.837838779775
30
0.0
0
VERTEX
5
681
100
AcDbEntity
8
0-0
6
CONTINUOUS
62
  7
100
AcDbVertex
100
AcDb2dVertex
10
82.900000000000
20
77.016813528882
30
0.0
0
VERTEX
5
682
100
AcDbEntity
8
0-0
6
CONTINUOUS
62
  7
100
AcDbVertex
100
AcDb2dVertex
10
82.900000000000
20
76.284871084882
30
0.0
0
VERTEX
5
683
100
AcDbEntity
8
0-0
6
CONTINUOUS
62
  7
100
AcDbVertex
100
AcDb2dVertex
10
85.495884974245
20
73.688986110637
30
0.0
0
VERTEX
5
684
100
AcDbEntity
8
0-0
6
CONTINUOUS
62
  7
100
AcDbVertex
100
AcDb2dVertex
10
87.901679488877
20
72.300000000000
30
0.0
0
SEQEND
5
685
100
AcDbEntity
8
0-0
0
POLYLINE
5
686
100
AcDbEntity
8
0-0
6
CONTINUOUS
62
  7
100
AcDb2dPolyline
66
1
10
0.0
20
0.0
30
0.0
70
0
0
VERTEX
5
687
100
AcDbEntity
8
0-0
6
CONTINUOUS
62
  7
100
AcDbVertex
100
AcDb2dVertex
10
87.962270394604
20
72.300000000000
30
0.0
0
VERTEX
5
688
100
AcDbEntity
8
0-0
6
CONTINUOUS
62
  7
100
AcDbVertex
100
AcDb2dVertex
10
92.098320511123
20
72.300000000000
30
0.0
0
VERTEX
5
689
100
AcDbEntity
8
0-0
6
CONTINUOUS
62
  7
100
AcDbVertex
100
AcDb2dVertex
10
94.504115025755
20
73.688986110637
30
0.0
0
VERTEX
5
68a
100
AcDbEntity
8
0-0
6
CONTINUOUS
62
  7
100
AcDbVertex
100
AcDb2dVertex
10
97.100000000000
20
76.284871084882
30
0.0
0
VERTEX
5
68b
100
AcDbEntity
8
0-0
6
CONTINUOUS
62
  7
100
AcDbVertex
100
AcDb2dVertex
10
97.100000000000
20
77.016813528882
30
0.0
0
VERTEX
5
68c
100
AcDbEntity
8
0-0
6
CONTINUOUS
62
  7
100
AcDbVertex
100
AcDb2dVertex
10
95.560030700691
20
76.837838779775
30
0.0
0
SEQEND
5
68d
100
AcDbEntity
8
0-0
0
POLYLINE
5
68e
100
AcDbEntity
8
0-0
6
CONTINUOUS
62
  7
100
AcDb2dPolyline
66
1
10
0.0
20
0.0
30
0.0
70
0
0
VERTEX
5
68f
100
AcDbEntity
8
0-0
6
CONTINUOUS
62
  7
100
AcDbVertex
100
AcDb2dVertex
10
95.566255472146
20
76.842554367713
30
0.0
0
VERTEX
5
690
100
AcDbEntity
8
0-0
6
CONTINUOUS
62
  7
100
AcDbVertex
100
AcDb2dVertex
10
92.028447530045
20
74.800000000000
30
0.0
0
VERTEX
5
691
100
AcDbEntity
8
0-0
6
CONTINUOUS
62
  7
100
AcDbVertex
100
AcDb2dVertex
10
91.300000000000
20
74.800000000000
30
0.0
0
VERTEX
5
692
100
AcDbEntity
8
0-0
6
CONTINUOUS
62
  7
100
AcDbVertex
100
AcDb2dVertex
10
91.300000000000
20
80.000000000000
30
0.0
0
SEQEND
5
693
100
AcDbEntity
8
0-0
0
LINE
5
694
100
AcDbEntity
8
0-0
6
CONTINUOUS
62
7
100
AcDbLine
10
91.300000000000
20
78.500000000000
30
0.0
11
94.469188219352
21
78.500000000000
31
0.0
0
LINE
5
695
100
AcDbEntity
8
0-0
6
CONTINUOUS
62
7
100
AcDbLine
10
94.769188219352
20
78.800000000000
30
0.0
11
94.769188219352
21
80.000000000000
31
0.0
0
LINE
5
696
100
AcDbEntity
8
0-0
6
CONTINUOUS
62
7
100
AcDbLine
10
94.500000000000
20
82.080384757729
30
0.0
11
92.800000000000
21
82.080384757729
31
0.0
0
LINE
5
697
100
AcDbEntity
8
0-0
6
CONTINUOUS
62
7
100
AcDbLine
10
92.800000000000
20
81.410511776651
30
0.0
11
97.000000000000
21
81.410511776651
31
0.0
0
LINE
5
698
100
AcDbEntity
8
0-0
6
CONTINUOUS
62
7
100
AcDbLine
10
94.453318660642
20
76.200000000000
30
0.0
11
97.015128915118
21
76.200000000000
31
0.0
0
ARC
5
699
100
AcDbEntity
8
0-0
6
CONTINUOUS
62
7
100
AcDbCircle
10
85.800000000000
20
83.600000000000
30
0.0
40
0.300000000000
100
AcDbArc
50
90.000000000000
51
180.000000000000
0
ARC
5
69a
100
AcDbEntity
8
0-0
6
CONTINUOUS
62
7
100
AcDbCircle
10
94.200000000000
20
83.600000000000
30
0.0
40
0.300000000000
100
AcDbArc
50
0.000000000000
51
90.000000000000
0
ARC
5
69b
100
AcDbEntity
8
0-0
6
CONTINUOUS
62
7
100
AcDbCircle
10
85.269188219352
20
78.800000000000
30
0.0
40
0.300000000000
100
AcDbArc
50
180.000000000000
51
270.000000000000
0
ARC
5
69c
100
AcDbEntity
8
0-0
6
CONTINUOUS
62
7
100
AcDbCircle
10
94.469188219352
20
78.800000000000
30
0.0
40
0.300000000000
100
AcDbArc
50
270.000000000000
51
360.000000000000
0
LINE
5
69d
100
AcDbEntity
8
0-0
6
CONTINUOUS
62
7
100
AcDbLine
10
87.127552865049
20
117.093814970183
30
0.0
11
87.170326389622
21
114.643321388550
31
0.0
0
LINE
5
69e
100
AcDbEntity
8
0-0
6
CONTINUOUS
62
7
100
AcDbLine
10
85.598754184834
20
112.971271238220
30
0.0
11
83.049506418368
21
113.015768523502
31
0.0
0
POLYLINE
5
69f
100
AcDbEntity
8
0-0
6
CONTINUOUS
62
  7
100
AcDb2dPolyline
66
1
10
0.0
20
0.0
30
0.0
70
0
0
VERTEX
5
6a0
100
AcDbEntity
8
0-0
6
CONTINUOUS
62
  7
100
AcDbVertex
100
AcDb2dVertex
10
83.000000000000
20
110.143321388550
30
0.0
0
VERTEX
5
6a1
100
AcDbEntity
8
0-0
6
CONTINUOUS
62
  7
100
AcDbVertex
100
AcDb2dVertex
10
83.122185454498
20
103.143321388550
30
0.0
0
VERTEX
5
6a2
100
AcDbEntity
8
0-0
6
CONTINUOUS
62
  7
100
AcDbVertex
100
AcDb2dVertex
10
96.877814545502
20
103.143321388550
30
0.0
0
VERTEX
5
6a3
100
AcDbEntity
8
0-0
6
CONTINUOUS
62
  7
100
AcDbVertex
100
AcDb2dVertex
10
97.000000000000
20
110.143321388550
30
0.0
0
VERTEX
5
6a4
100
AcDbEntity
8
0-0
6
CONTINUOUS
62
  7
100
AcDbVertex
100
AcDb2dVertex
10
96.877814545502
20
117.143321388550
30
0.0
0
VERTEX
5
6a5
100
AcDbEntity
8
0-0
6
CONTINUOUS
62
  7
100
AcDbVertex
100
AcDb2dVertex
10
83.122185454498
20
117.143321388550
30
0.0
0
VERTEX
5
6a6
100
AcDbEntity
8
0-0
6
CONTINUOUS
62
  7
100
AcDbVertex
100
AcDb2dVertex
10
83.000000000000
20
110.143321388550
30
0.0
0
SEQEND
5
6a7
100
AcDbEntity
8
0-0
0
POLYLINE
5
6a8
100
AcDbEntity
8
0-0
6
CONTINUOUS
62
  7
100
AcDb2dPolyline
66
1
10
0.0
20
0.0
30
0.0
70
0
0
VERTEX
5
6a9
100
AcDbEntity
8
0-0
6
CONTINUOUS
62
  7
100
AcDbVertex
100
AcDb2dVertex
10
94.500000000000
20
110.143321388550
30
0.0
0
VERTEX
5
6aa
100
AcDbEntity
8
0-0
6
CONTINUOUS
62
  7
100
AcDbVertex
100
AcDb2dVertex
10
94.342856537287
20
105.643321388550
30
0.0
0
VERTEX
5
6ab
100
AcDbEntity
8
0-0
6
CONTINUOUS
62
  7
100
AcDbVertex
100
AcDb2dVertex
10
85.657143462713
20
105.643321388550
30
0.0
0
VERTEX
5
6ac
100
AcDbEntity
8
0-0
6
CONTINUOUS
62
  7
100
AcDbVertex
100
AcDb2dVertex
10
85.500000000000
20
110.143321388550
30
0.0
0
VERTEX
5
6ad
100
AcDbEntity
8
0-0
6
CONTINUOUS
62
  7
100
AcDbVertex
100
AcDb2dVertex
10
85.657143462713
20
114.643321388550
30
0.0
0
VERTEX
5
6ae
100
AcDbEntity
8
0-0
6
CONTINUOUS
62
  7
100
AcDbVertex
100
AcDb2dVertex
10
94.342856537287
20
114.643321388550
30
0.0
0
VERTEX
5
6af
100
AcDbEntity
8
0-0
6
CONTINUOUS
62
  7
100
AcDbVertex
100
AcDb2dVertex
10
94.500000000000
20
110.143321388550
30
0.0
0
SEQEND
5
6b0
100
AcDbEntity
8
0-0
0
LINE
5
6b1
100
AcDbEntity
8
0-0
6
CONTINUOUS
62
7
100
AcDbLine
10
94.401245815165
20
107.315371538881
30
0.0
11
96.950493581632
21
107.270874253599
31
0.0
0
LINE
5
6b2
100
AcDbEntity
8
0-0
6
CONTINUOUS
62
7
100
AcDbLine
10
92.829673610378
20
105.643321388550
30
0.0
11
92.872447134951
21
103.192827806918
31
0.0
0
LINE
5
6b3
100
AcDbEntity
8
0-0
6
CONTINUOUS
62
7
100
AcDbLine
10
94.342856537287
20
105.643321388550
30
0.0
11
96.877814545502
21
103.143321388550
31
0.0
0
LINE
5
6b4
100
AcDbEntity
8
0-0
6
CONTINUOUS
62
7
100
AcDbLine
10
87.127552865049
20
103.192827806918
30
0.0
11
87.170326389622
21
105.643321388550
31
0.0
0
LINE
5
6b5
100
AcDbEntity
8
0-0
6
CONTINUOUS
62
7
100
AcDbLine
10
85.598754184834
20
107.315371538881
30
0.0
11
83.049506418368
21
107.270874253599
31
0.0
0
LINE
5
6b6
100
AcDbEntity
8
0-0
6
CONTINUOUS
62
7
100
AcDbLine
10
83.122185454498
20
103.143321388550
30
0.0
11
85.657143462713
21
105.643321388550
31
0.0
0
LINE
5
6b7
100
AcDbEntity
8
0-0
6
CONTINUOUS
62
7
100
AcDbLine
10
85.657143462713
20
114.643321388550
30
0.0
11
83.122185454498
21
117.143321388550
31
0.0
0
LINE
5
6b8
100
AcDbEntity
8
0-0
6
CONTINUOUS
62
7
100
AcDbLine
10
92.872447134951
20
117.093814970183
30
0.0
11
92.829673610378
21
114.643321388550
31
0.0
0
LINE
5
6b9
100
AcDbEntity
8
0-0
6
CONTINUOUS
62
7
100
AcDbLine
10
94.401245815165
20
112.971271238220
30
0.0
11
96.950493581632
21
113.015768523502
31
0.0
0
LINE
5
6ba
100
AcDbEntity
8
0-0
6
CONTINUOUS
62
7
100
AcDbLine
10
96.877814545502
20
117.143321388550
30
0.0
11
94.342856537287
21
114.643321388550
31
0.0
0
LINE
5
6bb
100
AcDbEntity
8
0-1
6
DASHED
62
4
100
AcDbLine
10
83.000000000000
20
81.000000000000
30
0.0
11
87.200000000000
21
81.000000000000
31
0.0
0
LINE
5
6bc
100
AcDbEntity
8
0-1
6
DASHED
62
4
100
AcDbLine
10
87.200000000000
20
82.500000000000
30
0.0
11
85.500000000000
21
82.500000000000
31
0.0
0
LINE
5
6bd
100
AcDbEntity
8
0-1
6
DASHED
62
4
100
AcDbLine
10
92.800000000000
20
82.500000000000
30
0.0
11
94.500000000000
21
82.500000000000
31
0.0
0
LINE
5
6be
100
AcDbEntity
8
0-1
6
DASHED
62
4
100
AcDbLine
10
97.000000000000
20
81.000000000000
30
0.0
11
92.800000000000
21
81.000000000000
31
0.0
0
LINE
5
6bf
100
AcDbEntity
8
0-1
6
CENTER
62
4
100
AcDbLine
10
90.000000000000
20
71.588861732378
30
0.0
11
90.000000000000
21
85.063523401945
31
0.0
0
POLYLINE
5
6c0
100
AcDbEntity
8
0-1
6
PHANTOM
62
  4
100
AcDb2dPolyline
66
1
10
0.0
20
0.0
30
0.0
70
0
0
VERTEX
5
6c1
100
AcDbEntity
8
0-1
6
PHANTOM
62
  4
100
AcDbVertex
100
AcDb2dVertex
10
110.000000000000
20
80.000000000000
30
0.0
0
VERTEX
5
6c2
100
AcDbEntity
8
0-1
6
PHANTOM
62
  4
100
AcDbVertex
100
AcDb2dVertex
10
110.000000000000
20
40.000000000000
30
0.0
0
VERTEX
5
6c3
100
AcDbEntity
8
0-1
6
PHANTOM
62
  4
100
AcDbVertex
100
AcDb2dVertex
10
70.000000000000
20
40.000000000000
30
0.0
0
VERTEX
5
6c4
100
AcDbEntity
8
0-1
6
PHANTOM
62
  4
100
AcDbVertex
100
AcDb2dVertex
10
70.000000000000
20
80.000000000000
30
0.0
0
VERTEX
5
6c5
100
AcDbEntity
8
0-1
6
PHANTOM
62
  4
100
AcDbVertex
100
AcDb2dVertex
10
110.000000000000
20
80.000000000000
30
0.0
0
SEQEND
5
6c6
100
AcDbEntity
8
0-1
0
LINE
5
6c7
100
AcDbEntity
8
0-1
6
CENTER
62
4
100
AcDbLine
10
90.000000000000
20
103.143321388550
30
0.0
11
90.000000000000
21
117.143321388550
31
0.0
0
POLYLINE
5
6c8
100
AcDbEntity
8
0-1
6
CENTER
62
  4
100
AcDb2dPolyline
66
1
10
0.0
20
0.0
30
0.0
70
0
0
VERTEX
5
6c9
100
AcDbEntity
8
0-1
6
CENTER
62
  4
100
AcDbVertex
100
AcDb2dVertex
10
87.170326389622
20
114.643321388550
30
0.0
0
VERTEX
5
6ca
100
AcDbEntity
8
0-1
6
CENTER
62
  4
100
AcDbVertex
100
AcDb2dVertex
10
87.200000000000
20
112.943321388551
30
0.0
0
VERTEX
5
6cb
100
AcDbEntity
8
0-1
6
CENTER
62
  4
100
AcDbVertex
100
AcDb2dVertex
10
85.598754184834
20
112.971271238220
30
0.0
0
SEQEND
5
6cc
100
AcDbEntity
8
0-1
0
LINE
5
6cd
100
AcDbEntity
8
0-1
6
CENTER
62
4
100
AcDbLine
10
83.000000000000
20
110.143321388550
30
0.0
11
97.000000000000
21
110.143321388550
31
0.0
0
POLYLINE
5
6ce
100
AcDbEntity
8
0-1
6
CENTER
62
  4
100
AcDb2dPolyline
66
1
10
0.0
20
0.0
30
0.0
70
0
0
VERTEX
5
6cf
100
AcDbEntity
8
0-1
6
CENTER
62
  4
100
AcDbVertex
100
AcDb2dVertex
10
94.401245815165
20
107.315371538881
30
0.0
0
VERTEX
5
6d0
100
AcDbEntity
8
0-1
6
CENTER
62
  4
100
AcDbVertex
100
AcDb2dVertex
10
92.800000000000
20
107.343321388551
30
0.0
0
VERTEX
5
6d1
100
AcDbEntity
8
0-1
6
CENTER
62
  4
100
AcDbVertex
100
AcDb2dVertex
10
92.829673610378
20
105.643321388550
30
0.0
0
SEQEND
5
6d2
100
AcDbEntity
8
0-1
0
POLYLINE
5
6d3
100
AcDbEntity
8
0-1
6
CENTER
62
  4
100
AcDb2dPolyline
66
1
10
0.0
20
0.0
30
0.0
70
0
0
VERTEX
5
6d4
100
AcDbEntity
8
0-1
6
CENTER
62
  4
100
AcDbVertex
100
AcDb2dVertex
10
87.170326389622
20
105.643321388550
30
0.0
0
VERTEX
5
6d5
100
AcDbEntity
8
0-1
6
CENTER
62
  4
100
AcDbVertex
100
AcDb2dVertex
10
87.200000000000
20
107.343321388551
30
0.0
0
VERTEX
5
6d6
100
AcDbEntity
8
0-1
6
CENTER
62
  4
100
AcDbVertex
100
AcDb2dVertex
10
85.598754184834
20
107.315371538881
30
0.0
0
SEQEND
5
6d7
100
AcDbEntity
8
0-1
0
POLYLINE
5
6d8
100
AcDbEntity
8
0-1
6
CENTER
62
  4
100
AcDb2dPolyline
66
1
10
0.0
20
0.0
30
0.0
70
0
0
VERTEX
5
6d9
100
AcDbEntity
8
0-1
6
CENTER
62
  4
100
AcDbVertex
100
AcDb2dVertex
10
92.829673610378
20
114.643321388550
30
0.0
0
VERTEX
5
6da
100
AcDbEntity
8
0-1
6
CENTER
62
  4
100
AcDbVertex
100
AcDb2dVertex
10
92.800000000000
20
112.943321388551
30
0.0
0
VERTEX
5
6db
100
AcDbEntity
8
0-1
6
CENTER
62
  4
100
AcDbVertex
100
AcDb2dVertex
10
94.401245815165
20
112.971271238220
30
0.0
0
SEQEND
5
6dc
100
AcDbEntity
8
0-1
0
POLYLINE
5
6dd
100
AcDbEntity
8
0-0
6
CONTINUOUS
62
  7
100
AcDb2dPolyline
66
1
10
0.0
20
0.0
30
0.0
70
0
0
VERTEX
5
6de
100
AcDbEntity
8
0-0
6
CONTINUOUS
62
  7
100
AcDbVertex
100
AcDb2dVertex
10
23.000000000000
20
81.410511776651
30
0.0
0
VERTEX
5
6df
100
AcDbEntity
8
0-0
6
CONTINUOUS
62
  7
100
AcDbVertex
100
AcDb2dVertex
10
23.000000000000
20
80.000000000000
30
0.0
0
VERTEX
5
6e0
100
AcDbEntity
8
0-0
6
CONTINUOUS
62
  7
100
AcDbVertex
100
AcDb2dVertex
10
37.000000000000
20
80.000000000000
30
0.0
0
VERTEX
5
6e1
100
AcDbEntity
8
0-0
6
CONTINUOUS
62
  7
100
AcDbVertex
100
AcDb2dVertex
10
37.000000000000
20
81.410511776651
30
0.0
0
VERTEX
5
6e2
100
AcDbEntity
8
0-0
6
CONTINUOUS
62
  7
100
AcDbVertex
100
AcDb2dVertex
10
34.500000000000
20
82.080384757729
30
0.0
0
VERTEX
5
6e3
100
AcDbEntity
8
0-0
6
CONTINUOUS
62
  7
100
AcDbVertex
100
AcDb2dVertex
10
34.500000000000
20
83.600000000000
30
0.0
0
SEQEND
5
6e4
100
AcDbEntity
8
0-0
0
LINE
5
6e5
100
AcDbEntity
8
0-0
6
CONTINUOUS
62
7
100
AcDbLine
10
34.200000000000
20
83.900000000000
30
0.0
11
25.800000000000
21
83.900000000000
31
0.0
0
POLYLINE
5
6e6
100
AcDbEntity
8
0-0
6
CONTINUOUS
62
  7
100
AcDb2dPolyline
66
1
10
0.0
20
0.0
30
0.0
70
0
0
VERTEX
5
6e7
100
AcDbEntity
8
0-0
6
CONTINUOUS
62
  7
100
AcDbVertex
100
AcDb2dVertex
10
25.500000000000
20
83.600000000000
30
0.0
0
VERTEX
5
6e8
100
AcDbEntity
8
0-0
6
CONTINUOUS
62
  7
100
AcDbVertex
100
AcDb2dVertex
10
25.500000000000
20
82.080384757729
30
0.0
0
VERTEX
5
6e9
100
AcDbEntity
8
0-0
6
CONTINUOUS
62
  7
100
AcDbVertex
100
AcDb2dVertex
10
23.000000000000
20
81.410511776651
30
0.0
0
VERTEX
5
6ea
100
AcDbEntity
8
0-0
6
CONTINUOUS
62
  7
100
AcDbVertex
100
AcDb2dVertex
10
27.200000000000
20
81.410511776651
30
0.0
0
SEQEND
5
6eb
100
AcDbEntity
8
0-0
0
POLYLINE
5
6ec
100
AcDbEntity
8
0-0
6
CONTINUOUS
62
  7
100
AcDb2dPolyline
66
1
10
0.0
20
0.0
30
0.0
70
0
0
VERTEX
5
6ed
100
AcDbEntity
8
0-0
6
CONTINUOUS
62
  7
100
AcDbVertex
100
AcDb2dVertex
10
27.200000000000
20
81.000000000000
30
0.0
0
VERTEX
5
6ee
100
AcDbEntity
8
0-0
6
CONTINUOUS
62
  7
100
AcDbVertex
100
AcDb2dVertex
10
32.800000000000
20
81.000000000000
30
0.0
0
VERTEX
5
6ef
100
AcDbEntity
8
0-0
6
CONTINUOUS
62
  7
100
AcDbVertex
100
AcDb2dVertex
10
32.800000000000
20
82.500000000000
30
0.0
0
VERTEX
5
6f0
100
AcDbEntity
8
0-0
6
CONTINUOUS
62
  7
100
AcDbVertex
100
AcDb2dVertex
10
27.200000000000
20
82.500000000000
30
0.0
0
VERTEX
5
6f1
100
AcDbEntity
8
0-0
6
CONTINUOUS
62
  7
100
AcDbVertex
100
AcDb2dVertex
10
27.200000000000
20
81.000000000000
30
0.0
0
SEQEND
5
6f2
100
AcDbEntity
8
0-0
0
LINE
5
6f3
100
AcDbEntity
8
0-0
6
CONTINUOUS
62
7
100
AcDbLine
10
25.200000000000
20
80.000000000000
30
0.0
11
25.200000000000
21
72.600000000000
31
0.0
0
LINE
5
6f4
100
AcDbEntity
8
0-0
6
CONTINUOUS
62
7
100
AcDbLine
10
25.500000000000
20
72.300000000000
30
0.0
11
34.500000000000
21
72.300000000000
31
0.0
0
LINE
5
6f5
100
AcDbEntity
8
0-0
6
CONTINUOUS
62
7
100
AcDbLine
10
34.800000000000
20
72.600000000000
30
0.0
11
34.800000000000
21
80.000000000000
31
0.0
0
LINE
5
6f6
100
AcDbEntity
8
0-0
6
CONTINUOUS
62
7
100
AcDbLine
10
34.500000000000
20
78.500000000000
30
0.0
11
25.575595275593
21
78.500000000000
31
0.0
0
LINE
5
6f7
100
AcDbEntity
8
0-0
6
CONTINUOUS
62
7
100
AcDbLine
10
25.275595275593
20
78.800000000000
30
0.0
11
25.275595275593
21
80.000000000000
31
0.0
0
LINE
5
6f8
100
AcDbEntity
8
0-0
6
CONTINUOUS
62
7
100
AcDbLine
10
25.500000000000
20
82.080384757729
30
0.0
11
27.200000000000
21
82.080384757729
31
0.0
0
LINE
5
6f9
100
AcDbEntity
8
0-0
6
CONTINUOUS
62
7
100
AcDbLine
10
25.590671445545
20
76.315682866000
30
0.0
11
34.800000000000
21
76.315682866000
31
0.0
0
POLYLINE
5
6fa
100
AcDbEntity
8
0-0
6
CONTINUOUS
62
  7
100
AcDb2dPolyline
66
1
10
0.0
20
0.0
30
0.0
70
0
0
VERTEX
5
6fb
100
AcDbEntity
8
0-0
6
CONTINUOUS
62
  7
100
AcDbVertex
100
AcDb2dVertex
10
34.500000000000
20
77.011002767660
30
0.0
0
VERTEX
5
6fc
100
AcDbEntity
8
0-0
6
CONTINUOUS
62
  7
100
AcDbVertex
100
AcDb2dVertex
10
28.185640646055
20
77.011002767660
30
0.0
0
VERTEX
5
6fd
100
AcDbEntity
8
0-0
6
CONTINUOUS
62
  7
100
AcDbVertex
100
AcDb2dVertex
10
25.200000000000
20
76.211002767660
30
0.0
0
SEQEND
5
6fe
100
AcDbEntity
8
0-0
0
LINE
5
6ff
100
AcDbEntity
8
0-0
6
CONTINUOUS
62
7
100
AcDbLine
10
25.200000000000
20
73.688986111000
30
0.0
11
34.800000000000
21
73.688986111000
31
0.0
0
LINE
5
700
100
AcDbEntity
8
0-0
6
CONTINUOUS
62
7
100
AcDbLine
10
34.500000000000
20
82.080384757729
30
0.0
11
32.800000000000
21
82.080384757729
31
0.0
0
LINE
5
701
100
AcDbEntity
8
0-0
6
CONTINUOUS
62
7
100
AcDbLine
10
32.800000000000
20
81.410511776651
30
0.0
11
37.000000000000
21
81.410511776651
31
0.0
0
ARC
5
702
100
AcDbEntity
8
0-0
6
CONTINUOUS
62
7
100
AcDbCircle
10
25.575595275593
20
78.800000000000
30
0.0
40
0.300000000000
100
AcDbArc
50
180.000000000000
51
270.000000000000
0
ARC
5
703
100
AcDbEntity
8
0-0
6
CONTINUOUS
62
7
100
AcDbCircle
10
34.500000000000
20
78.800000000000
30
0.0
40
0.300000000000
100
AcDbArc
50
270.000000000000
51
360.000000000000
0
ARC
5
704
100
AcDbEntity
8
0-0
6
CONTINUOUS
62
7
100
AcDbCircle
10
25.500000000000
20
72.600000000000
30
0.0
40
0.300000000000
100
AcDbArc
50
180.000000000000
51
270.000000000000
0
ARC
5
705
100
AcDbEntity
8
0-0
6
CONTINUOUS
62
7
100
AcDbCircle
10
34.500000000000
20
72.600000000000
30
0.0
40
0.300000000000
100
AcDbArc
50
270.000000000000
51
360.000000000000
0
ARC
5
706
100
AcDbEntity
8
0-0
6
CONTINUOUS
62
7
100
AcDbCircle
10
34.500000000000
20
76.711002767660
30
0.0
40
0.300000000000
100
AcDbArc
50
0.000000000000
51
90.000000000000
0
ARC
5
707
100
AcDbEntity
8
0-0
6
CONTINUOUS
62
7
100
AcDbCircle
10
25.500000000000
20
75.980804671266
30
0.0
40
0.300000000000
100
AcDbArc
50
105.000000000000
51
180.000000000000
0
ARC
5
708
100
AcDbEntity
8
0-0
6
CONTINUOUS
62
7
100
AcDbCircle
10
25.800000000000
20
83.600000000000
30
0.0
40
0.300000000000
100
AcDbArc
50
90.000000000000
51
180.000000000000
0
ARC
5
709
100
AcDbEntity
8
0-0
6
CONTINUOUS
62
7
100
AcDbCircle
10
34.200000000000
20
83.600000000000
30
0.0
40
0.300000000000
100
AcDbArc
50
0.000000000000
51
90.000000000000
0
LINE
5
70a
100
AcDbEntity
8
0-1
6
PHANTOM
62
4
100
AcDbLine
10
9.551143921143
20
83.823531403406
30
0.0
11
22.164497688505
21
36.749854289770
31
0.0
0
LINE
5
70b
100
AcDbEntity
8
0-1
6
DASHED
62
4
100
AcDbLine
10
27.200000000000
20
81.000000000000
30
0.0
11
23.000000000000
21
81.000000000000
31
0.0
0
LINE
5
70c
100
AcDbEntity
8
0-1
6
DASHED
62
4
100
AcDbLine
10
27.200000000000
20
82.500000000000
30
0.0
11
25.500000000000
21
82.500000000000
31
0.0
0
LINE
5
70d
100
AcDbEntity
8
0-1
6
CENTER
62
4
100
AcDbLine
10
30.000000000000
20
71.339144551110
30
0.0
11
30.000000000000
21
84.793673982806
31
0.0
0
LINE
5
70e
100
AcDbEntity
8
0-1
6
DASHED
62
4
100
AcDbLine
10
32.800000000000
20
82.500000000000
30
0.0
11
34.500000000000
21
82.500000000000
31
0.0
0
LINE
5
70f
100
AcDbEntity
8
0-1
6
DASHED
62
4
100
AcDbLine
10
37.000000000000
20
81.000000000000
30
0.0
11
32.800000000000
21
81.000000000000
31
0.0
0
LINE
5
710
100
AcDbEntity
8
0-1
6
PHANTOM
62
4
100
AcDbLine
10
42.366928447476
20
83.370899892698
30
0.0
11
54.858999967075
21
36.749854289770
31
0.0
0
LINE
5
711
100
AcDbEntity
8
0-1
6
PHANTOM
62
4
100
AcDbLine
10
53.988126048735
20
40.000000000000
30
0.0
11
21.293623770166
21
40.000000000000
31
0.0
0
LINE
5
712
100
AcDbEntity
8
0-1
6
PHANTOM
62
4
100
AcDbLine
10
10.575656072921
20
80.000000000000
30
0.0
11
43.270158351490
21
80.000000000000
31
0.0
0
TEXT
5
713
100
AcDbEntity
8
0-F
62
7
370
-3
100
AcDbText
10
0.172
20
30.660
30
0.0
40
3.618
1
T40K
41
0.405
50
0.000
100
AcDbText
0
TEXT
5
714
100
AcDbEntity
8
0-0
62
7
370
-3
100
AcDbText
10
150.200
20
30.767
30
0.0
40
4.208
1
PW16-M4
41
0.523
50
0.000
100
AcDbText
0
TEXT
5
715
100
AcDbEntity
8
0-0
62
7
370
-3
100
AcDbText
10
210.200
20
30.767
30
0.0
40
4.208
1
PW16-M5
41
0.517
50
0.000
100
AcDbText
0
TEXT
5
716
100
AcDbEntity
8
0-0
62
7
370
-3
100
AcDbText
10
270.200
20
30.767
30
0.0
40
4.208
1
PW18D-M6
41
0.516
50
0.000
100
AcDbText
0
TEXT
5
717
100
AcDbEntity
8
0-0
62
7
370
-3
100
AcDbText
10
330.200
20
30.767
30
0.0
40
4.208
1
PW18-M8
41
0.513
50
0.000
100
AcDbText
0
TEXT
5
718
100
AcDbEntity
8
0-0
62
7
370
-3
100
AcDbText
10
270.200
20
105.767
30
0.0
40
4.208
1
PW18-40B
41
0.531
50
0.000
100
AcDbText
0
LINE
5
719
100
AcDbEntity
8
0-0
6
CONTINUOUS
62
7
100
AcDbLine
10
320.503917230466
20
68.250000000000
30
0.0
11
324.503917230466
21
68.250000000000
31
0.0
0
POLYLINE
5
71a
100
AcDbEntity
8
0-0
6
CONTINUOUS
62
  7
100
AcDb2dPolyline
66
1
10
0.0
20
0.0
30
0.0
70
0
0
VERTEX
5
71b
100
AcDbEntity
8
0-0
6
CONTINUOUS
62
  7
100
AcDbVertex
100
AcDb2dVertex
10
324.503917230466
20
74.000000000000
30
0.0
0
VERTEX
5
71c
100
AcDbEntity
8
0-0
6
CONTINUOUS
62
  7
100
AcDbVertex
100
AcDb2dVertex
10
320.503917230466
20
74.000000000000
30
0.0
0
VERTEX
5
71d
100
AcDbEntity
8
0-0
6
CONTINUOUS
62
  7
100
AcDbVertex
100
AcDb2dVertex
10
320.503917230466
20
56.000000000000
30
0.0
0
VERTEX
5
71e
100
AcDbEntity
8
0-0
6
CONTINUOUS
62
  7
100
AcDbVertex
100
AcDb2dVertex
10
324.503917230466
20
56.000000000000
30
0.0
0
VERTEX
5
71f
100
AcDbEntity
8
0-0
6
CONTINUOUS
62
  7
100
AcDbVertex
100
AcDb2dVertex
10
324.503917230466
20
74.000000000000
30
0.0
0
SEQEND
5
720
100
AcDbEntity
8
0-0
0
LINE
5
721
100
AcDbEntity
8
0-0
6
CONTINUOUS
62
7
100
AcDbLine
10
324.503917230466
20
61.750000000000
30
0.0
11
320.503917230466
21
61.750000000000
31
0.0
0
LINE
5
722
100
AcDbEntity
8
0-1
6
CENTER
62
4
100
AcDbLine
10
300.503917230466
20
74.892392393566
30
0.0
11
300.503917230466
21
54.701294540019
31
0.0
0
LINE
5
723
100
AcDbEntity
8
0-1
6
CENTER
62
4
100
AcDbLine
10
311.662119499922
20
65.000000000000
30
0.0
11
288.778875265901
21
65.000000000000
31
0.0
0
LINE
5
724
100
AcDbEntity
8
0-1
6
CENTER
62
4
100
AcDbLine
10
326.990009776931
20
65.000000000000
30
0.0
11
318.718487564463
21
65.000000000000
31
0.0
0
CIRCLE
5
725
100
AcDbEntity
8
0-0
6
CONTINUOUS
62
7
100
AcDbCircle
10
300.503917230466
20
65.000000000000
30
0.0
40
9.000000000000
0
CIRCLE
5
726
100
AcDbEntity
8
0-0
6
CONTINUOUS
62
7
100
AcDbCircle
10
300.503917230466
20
65.000000000000
30
0.0
40
3.250000000000
0
LINE
5
727
100
AcDbEntity
8
0-0
6
CONTINUOUS
62
7
100
AcDbLine
10
202.500000000000
20
67.250000000000
30
0.0
11
204.000000000000
21
67.250000000000
31
0.0
0
LINE
5
728
100
AcDbEntity
8
0-0
6
CONTINUOUS
62
7
100
AcDbLine
10
204.000000000000
20
62.750000000000
30
0.0
11
202.500000000000
21
62.750000000000
31
0.0
0
POLYLINE
5
729
100
AcDbEntity
8
0-0
6
CONTINUOUS
62
  7
100
AcDb2dPolyline
66
1
10
0.0
20
0.0
30
0.0
70
0
0
VERTEX
5
72a
100
AcDbEntity
8
0-0
6
CONTINUOUS
62
  7
100
AcDbVertex
100
AcDb2dVertex
10
202.500000000000
20
57.000000000000
30
0.0
0
VERTEX
5
72b
100
AcDbEntity
8
0-0
6
CONTINUOUS
62
  7
100
AcDbVertex
100
AcDb2dVertex
10
202.500000000000
20
73.000000000000
30
0.0
0
VERTEX
5
72c
100
AcDbEntity
8
0-0
6
CONTINUOUS
62
  7
100
AcDbVertex
100
AcDb2dVertex
10
204.000000000000
20
73.000000000000
30
0.0
0
VERTEX
5
72d
100
AcDbEntity
8
0-0
6
CONTINUOUS
62
  7
100
AcDbVertex
100
AcDb2dVertex
10
204.000000000000
20
57.000000000000
30
0.0
0
VERTEX
5
72e
100
AcDbEntity
8
0-0
6
CONTINUOUS
62
  7
100
AcDbVertex
100
AcDb2dVertex
10
202.500000000000
20
57.000000000000
30
0.0
0
SEQEND
5
72f
100
AcDbEntity
8
0-0
0
CIRCLE
5
730
100
AcDbEntity
8
0-0
6
CONTINUOUS
62
7
100
AcDbCircle
10
180.000000000000
20
65.000000000000
30
0.0
40
2.250000000000
0
CIRCLE
5
731
100
AcDbEntity
8
0-0
6
CONTINUOUS
62
7
100
AcDbCircle
10
180.000000000000
20
65.000000000000
30
0.0
40
8.000000000000
0
LINE
5
732
100
AcDbEntity
8
0-1
6
CENTER
62
4
100
AcDbLine
10
206.539240894649
20
65.000000000000
30
0.0
11
200.839460346268
21
65.000000000000
31
0.0
0
LINE
5
733
100
AcDbEntity
8
0-1
6
CENTER
62
4
100
AcDbLine
10
180.000000000000
20
74.892392393566
30
0.0
11
180.000000000000
21
54.701294540019
31
0.0
0
LINE
5
734
100
AcDbEntity
8
0-1
6
CENTER
62
4
100
AcDbLine
10
191.158202269456
20
65.000000000000
30
0.0
11
168.274958035435
21
65.000000000000
31
0.0
0
POLYLINE
5
735
100
AcDbEntity
8
0-0
6
CONTINUOUS
62
  7
100
AcDb2dPolyline
66
1
10
0.0
20
0.0
30
0.0
70
0
0
VERTEX
5
736
100
AcDbEntity
8
0-0
6
CONTINUOUS
62
  7
100
AcDbVertex
100
AcDb2dVertex
10
262.500000000000
20
57.000000000000
30
0.0
0
VERTEX
5
737
100
AcDbEntity
8
0-0
6
CONTINUOUS
62
  7
100
AcDbVertex
100
AcDb2dVertex
10
262.500000000000
20
73.000000000000
30
0.0
0
VERTEX
5
738
100
AcDbEntity
8
0-0
6
CONTINUOUS
62
  7
100
AcDbVertex
100
AcDb2dVertex
10
264.000000000000
20
73.000000000000
30
0.0
0
VERTEX
5
739
100
AcDbEntity
8
0-0
6
CONTINUOUS
62
  7
100
AcDbVertex
100
AcDb2dVertex
10
264.000000000000
20
57.000000000000
30
0.0
0
VERTEX
5
73a
100
AcDbEntity
8
0-0
6
CONTINUOUS
62
  7
100
AcDbVertex
100
AcDb2dVertex
10
262.500000000000
20
57.000000000000
30
0.0
0
SEQEND
5
73b
100
AcDbEntity
8
0-0
0
LINE
5
73c
100
AcDbEntity
8
0-0
6
CONTINUOUS
62
7
100
AcDbLine
10
262.500000000000
20
62.250000000000
30
0.0
11
264.000000000000
21
62.250000000000
31
0.0
0
LINE
5
73d
100
AcDbEntity
8
0-0
6
CONTINUOUS
62
7
100
AcDbLine
10
264.000000000000
20
67.750000000000
30
0.0
11
262.500000000000
21
67.750000000000
31
0.0
0
CIRCLE
5
73e
100
AcDbEntity
8
0-0
6
CONTINUOUS
62
7
100
AcDbCircle
10
240.000000000000
20
65.000000000000
30
0.0
40
2.750000000000
0
CIRCLE
5
73f
100
AcDbEntity
8
0-0
6
CONTINUOUS
62
7
100
AcDbCircle
10
240.000000000000
20
65.000000000000
30
0.0
40
8.000000000000
0
LINE
5
740
100
AcDbEntity
8
0-1
6
CENTER
62
4
100
AcDbLine
10
267.242788668586
20
65.000000000000
30
0.0
11
260.152912486471
21
65.000000000000
31
0.0
0
LINE
5
741
100
AcDbEntity
8
0-1
6
CENTER
62
4
100
AcDbLine
10
240.000000000000
20
74.892392393566
30
0.0
11
240.000000000000
21
54.701294540019
31
0.0
0
LINE
5
742
100
AcDbEntity
8
0-1
6
CENTER
62
4
100
AcDbLine
10
251.158202269456
20
65.000000000000
30
0.0
11
228.274958035435
21
65.000000000000
31
0.0
0
POLYLINE
5
743
100
AcDbEntity
8
0-0
6
CONTINUOUS
62
  7
100
AcDb2dPolyline
66
1
10
0.0
20
0.0
30
0.0
70
0
0
VERTEX
5
744
100
AcDbEntity
8
0-0
6
CONTINUOUS
62
  7
100
AcDbVertex
100
AcDb2dVertex
10
384.000000000000
20
74.000000000000
30
0.0
0
VERTEX
5
745
100
AcDbEntity
8
0-0
6
CONTINUOUS
62
  7
100
AcDbVertex
100
AcDb2dVertex
10
381.000000000000
20
74.000000000000
30
0.0
0
VERTEX
5
746
100
AcDbEntity
8
0-0
6
CONTINUOUS
62
  7
100
AcDbVertex
100
AcDb2dVertex
10
381.000000000000
20
56.000000000000
30
0.0
0
VERTEX
5
747
100
AcDbEntity
8
0-0
6
CONTINUOUS
62
  7
100
AcDbVertex
100
AcDb2dVertex
10
384.000000000000
20
56.000000000000
30
0.0
0
VERTEX
5
748
100
AcDbEntity
8
0-0
6
CONTINUOUS
62
  7
100
AcDbVertex
100
AcDb2dVertex
10
384.000000000000
20
74.000000000000
30
0.0
0
SEQEND
5
749
100
AcDbEntity
8
0-0
0
LINE
5
74a
100
AcDbEntity
8
0-0
6
CONTINUOUS
62
7
100
AcDbLine
10
384.000000000000
20
69.250000000000
30
0.0
11
381.000000000000
21
69.250000000000
31
0.0
0
LINE
5
74b
100
AcDbEntity
8
0-0
6
CONTINUOUS
62
7
100
AcDbLine
10
381.000000000000
20
60.750000000000
30
0.0
11
384.000000000000
21
60.750000000000
31
0.0
0
LINE
5
74c
100
AcDbEntity
8
0-1
6
CENTER
62
4
100
AcDbLine
10
371.158202269456
20
65.000000000000
30
0.0
11
348.274958035435
21
65.000000000000
31
0.0
0
LINE
5
74d
100
AcDbEntity
8
0-1
6
CENTER
62
4
100
AcDbLine
10
360.000000000000
20
75.773919830575
30
0.0
11
360.000000000000
21
54.701294540019
31
0.0
0
LINE
5
74e
100
AcDbEntity
8
0-1
6
CENTER
62
4
100
AcDbLine
10
386.488117348057
20
65.000000000000
30
0.0
11
378.043019049306
21
65.000000000000
31
0.0
0
CIRCLE
5
74f
100
AcDbEntity
8
0-0
6
CONTINUOUS
62
7
100
AcDbCircle
10
360.000000000000
20
65.000000000000
30
0.0
40
9.000000000000
0
CIRCLE
5
750
100
AcDbEntity
8
0-0
6
CONTINUOUS
62
7
100
AcDbCircle
10
360.000000000000
20
65.000000000000
30
0.0
40
4.250000000000
0
POLYLINE
5
751
100
AcDbEntity
8
0-0
6
CONTINUOUS
62
  7
100
AcDb2dPolyline
66
1
10
0.0
20
0.0
30
0.0
70
0
0
VERTEX
5
752
100
AcDbEntity
8
0-0
6
CONTINUOUS
62
  7
100
AcDbVertex
100
AcDb2dVertex
10
328.000000000000
20
144.000000000000
30
0.0
0
VERTEX
5
753
100
AcDbEntity
8
0-0
6
CONTINUOUS
62
  7
100
AcDbVertex
100
AcDb2dVertex
10
324.000000000000
20
144.000000000000
30
0.0
0
VERTEX
5
754
100
AcDbEntity
8
0-0
6
CONTINUOUS
62
  7
100
AcDbVertex
100
AcDb2dVertex
10
324.000000000000
20
126.000000000000
30
0.0
0
VERTEX
5
755
100
AcDbEntity
8
0-0
6
CONTINUOUS
62
  7
100
AcDbVertex
100
AcDb2dVertex
10
328.000000000000
20
126.000000000000
30
0.0
0
VERTEX
5
756
100
AcDbEntity
8
0-0
6
CONTINUOUS
62
  7
100
AcDbVertex
100
AcDb2dVertex
10
328.000000000000
20
144.000000000000
30
0.0
0
SEQEND
5
757
100
AcDbEntity
8
0-0
0
LINE
5
758
100
AcDbEntity
8
0-0
6
CONTINUOUS
62
7
100
AcDbLine
10
317.100000023842
20
139.375000000000
30
0.0
11
322.500000000000
21
139.375000000000
31
0.0
0
LINE
5
759
100
AcDbEntity
8
0-0
6
CONTINUOUS
62
7
100
AcDbLine
10
317.100000023842
20
136.875000000000
30
0.0
11
322.500000000000
21
136.875000000000
31
0.0
0
LINE
5
75a
100
AcDbEntity
8
0-0
6
CONTINUOUS
62
7
100
AcDbLine
10
317.100000023842
20
137.500000000000
30
0.0
11
322.500000000000
21
137.500000000000
31
0.0
0
LINE
5
75b
100
AcDbEntity
8
0-0
6
CONTINUOUS
62
7
100
AcDbLine
10
317.100000023842
20
138.125000000000
30
0.0
11
322.500000000000
21
138.125000000000
31
0.0
0
LINE
5
75c
100
AcDbEntity
8
0-0
6
CONTINUOUS
62
7
100
AcDbLine
10
317.100000023842
20
138.750000000000
30
0.0
11
322.500000000000
21
138.750000000000
31
0.0
0
LINE
5
75d
100
AcDbEntity
8
0-0
6
CONTINUOUS
62
7
100
AcDbLine
10
317.100000023842
20
130.000000000000
30
0.0
11
316.500000000000
21
130.599999904633
31
0.0
0
LINE
5
75e
100
AcDbEntity
8
0-0
6
CONTINUOUS
62
7
100
AcDbLine
10
316.500000000000
20
139.400000095367
30
0.0
11
316.500000000000
21
130.599999904633
31
0.0
0
LINE
5
75f
100
AcDbEntity
8
0-0
6
CONTINUOUS
62
7
100
AcDbLine
10
316.500000000000
20
139.400000095367
30
0.0
11
317.100000023842
21
140.000000000000
31
0.0
0
LINE
5
760
100
AcDbEntity
8
0-0
6
CONTINUOUS
62
7
100
AcDbLine
10
317.100000023842
20
130.000000000000
30
0.0
11
317.100000023842
21
140.000000000000
31
0.0
0
LINE
5
761
100
AcDbEntity
8
0-0
6
CONTINUOUS
62
7
100
AcDbLine
10
322.500000000000
20
130.000000000000
30
0.0
11
322.500000000000
21
140.000000000000
31
0.0
0
LINE
5
762
100
AcDbEntity
8
0-0
6
CONTINUOUS
62
7
100
AcDbLine
10
317.100000023842
20
130.000000000000
30
0.0
11
324.000000000000
21
130.000000000000
31
0.0
0
LINE
5
763
100
AcDbEntity
8
0-0
6
CONTINUOUS
62
7
100
AcDbLine
10
317.100000023842
20
140.000000000000
30
0.0
11
324.000000000000
21
140.000000000000
31
0.0
0
LINE
5
764
100
AcDbEntity
8
0-0
6
CONTINUOUS
62
7
100
AcDbLine
10
324.000000000000
20
135.433012694120
30
0.0
11
322.500000000000
21
134.566987305880
31
0.0
0
LINE
5
765
100
AcDbEntity
8
0-0
6
CONTINUOUS
62
7
100
AcDbLine
10
335.199997018851
20
131.500035701041
30
0.0
11
335.200022980993
21
138.499870496780
31
0.0
0
LINE
5
766
100
AcDbEntity
8
0-0
6
CONTINUOUS
62
7
100
AcDbLine
10
331.600000000000
20
140.087408539611
30
0.0
11
328.600011573792
21
139.824977850526
31
0.0
0
LINE
5
767
100
AcDbEntity
8
0-0
6
CONTINUOUS
62
7
100
AcDbLine
10
335.200022980993
20
138.499870496780
30
0.0
11
333.364758015824
21
141.678715478300
31
0.0
0
LINE
5
768
100
AcDbEntity
8
0-0
6
CONTINUOUS
62
7
100
AcDbLine
10
331.600000000000
20
141.999953971925
30
0.0
11
331.600000000000
21
140.087408539611
31
0.0
0
LINE
5
769
100
AcDbEntity
8
0-0
6
CONTINUOUS
62
7
100
AcDbLine
10
333.364758015824
20
141.678715478300
30
0.0
11
331.600000000000
21
141.999953971925
31
0.0
0
LINE
5
76a
100
AcDbEntity
8
0-0
6
CONTINUOUS
62
7
100
AcDbLine
10
331.600000000000
20
129.912518192166
30
0.0
11
328.599978426215
21
130.175022149512
31
0.0
0
LINE
5
76b
100
AcDbEntity
8
0-0
6
CONTINUOUS
62
7
100
AcDbLine
10
328.600011573792
20
139.824977850526
30
0.0
11
328.599978426215
21
130.175022149512
31
0.0
0
LINE
5
76c
100
AcDbEntity
8
0-0
6
CONTINUOUS
62
7
100
AcDbLine
10
335.200022980993
20
131.500117647071
30
0.0
11
333.364758015824
21
128.321272665551
31
0.0
0
LINE
5
76d
100
AcDbEntity
8
0-0
6
CONTINUOUS
62
7
100
AcDbLine
10
331.600000000000
20
128.000034171926
30
0.0
11
331.600000000000
21
129.912579604240
31
0.0
0
LINE
5
76e
100
AcDbEntity
8
0-0
6
CONTINUOUS
62
7
100
AcDbLine
10
333.364758015824
20
128.321272665551
30
0.0
11
331.600000000000
21
128.000034171926
31
0.0
0
LINE
5
76f
100
AcDbEntity
8
0-0
6
CONTINUOUS
62
7
100
AcDbLine
10
328.000000000000
20
138.000000000000
30
0.0
11
328.600005304997
21
138.000000000000
31
0.0
0
LINE
5
770
100
AcDbEntity
8
0-0
6
CONTINUOUS
62
7
100
AcDbLine
10
328.000000000000
20
132.000000000000
30
0.0
11
328.599984695010
21
132.000000000000
31
0.0
0
LINE
5
771
100
AcDbEntity
8
0-0
6
CONTINUOUS
62
7
100
AcDbLine
10
328.000000000000
20
132.450000047684
30
0.0
11
328.599986240759
21
132.450000047684
31
0.0
0
LINE
5
772
100
AcDbEntity
8
0-0
6
CONTINUOUS
62
7
100
AcDbLine
10
328.000000000000
20
137.549999952316
30
0.0
11
328.600003759248
21
137.549999952316
31
0.0
0
POLYLINE
5
773
100
AcDbEntity
8
0-0
6
CONTINUOUS
62
  7
100
AcDb2dPolyline
66
1
10
0.0
20
0.0
30
0.0
70
0
0
VERTEX
5
774
100
AcDbEntity
8
0-0
6
CONTINUOUS
62
  7
100
AcDbVertex
100
AcDb2dVertex
10
302.500000000000
20
133.556624293327
30
0.0
0
VERTEX
5
775
100
AcDbEntity
8
0-0
6
CONTINUOUS
62
  7
100
AcDbVertex
100
AcDb2dVertex
10
302.500000000000
20
136.443375706673
30
0.0
0
VERTEX
5
776
100
AcDbEntity
8
0-0
6
CONTINUOUS
62
  7
100
AcDbVertex
100
AcDb2dVertex
10
300.000000000000
20
137.886751413345
30
0.0
0
VERTEX
5
777
100
AcDbEntity
8
0-0
6
CONTINUOUS
62
  7
100
AcDbVertex
100
AcDb2dVertex
10
297.500000000000
20
136.443375706673
30
0.0
0
VERTEX
5
778
100
AcDbEntity
8
0-0
6
CONTINUOUS
62
  7
100
AcDbVertex
100
AcDb2dVertex
10
297.500000000000
20
133.556624293327
30
0.0
0
VERTEX
5
779
100
AcDbEntity
8
0-0
6
CONTINUOUS
62
  7
100
AcDbVertex
100
AcDb2dVertex
10
300.000000000000
20
132.113248586655
30
0.0
0
VERTEX
5
77a
100
AcDbEntity
8
0-0
6
CONTINUOUS
62
  7
100
AcDbVertex
100
AcDb2dVertex
10
302.500000000000
20
133.556624293327
30
0.0
0
SEQEND
5
77b
100
AcDbEntity
8
0-0
0
CIRCLE
5
77c
100
AcDbEntity
8
0-0
6
CONTINUOUS
62
7
100
AcDbCircle
10
300.000000000000
20
135.000000000000
30
0.0
40
5.000000000000
0
POLYLINE
5
77d
100
AcDbEntity
8
0-0
6
CONTINUOUS
62
  7
100
AcDb2dPolyline
66
1
10
0.0
20
0.0
30
0.0
70
0
0
VERTEX
5
77e
100
AcDbEntity
8
0-0
6
CONTINUOUS
62
  7
100
AcDbVertex
100
AcDb2dVertex
10
356.563507200591
20
144.000000000000
30
0.0
0
VERTEX
5
77f
100
AcDbEntity
8
0-0
6
CONTINUOUS
62
  7
100
AcDbVertex
100
AcDb2dVertex
10
352.563507200591
20
144.000000000000
30
0.0
0
VERTEX
5
780
100
AcDbEntity
8
0-0
6
CONTINUOUS
62
  7
100
AcDbVertex
100
AcDb2dVertex
10
352.563507200591
20
126.000000000000
30
0.0
0
VERTEX
5
781
100
AcDbEntity
8
0-0
6
CONTINUOUS
62
  7
100
AcDbVertex
100
AcDb2dVertex
10
356.563507200591
20
126.000000000000
30
0.0
0
VERTEX
5
782
100
AcDbEntity
8
0-0
6
CONTINUOUS
62
  7
100
AcDbVertex
100
AcDb2dVertex
10
356.563507200591
20
144.000000000000
30
0.0
0
SEQEND
5
783
100
AcDbEntity
8
0-0
0
LINE
5
784
100
AcDbEntity
8
0-0
6
CONTINUOUS
62
7
100
AcDbLine
10
345.663507224433
20
139.375000000000
30
0.0
11
351.063507200591
21
139.375000000000
31
0.0
0
LINE
5
785
100
AcDbEntity
8
0-0
6
CONTINUOUS
62
7
100
AcDbLine
10
345.663507224433
20
136.875000000000
30
0.0
11
351.063507200591
21
136.875000000000
31
0.0
0
LINE
5
786
100
AcDbEntity
8
0-0
6
CONTINUOUS
62
7
100
AcDbLine
10
345.663507224433
20
137.500000000000
30
0.0
11
351.063507200591
21
137.500000000000
31
0.0
0
LINE
5
787
100
AcDbEntity
8
0-0
6
CONTINUOUS
62
7
100
AcDbLine
10
345.663507224433
20
138.125000000000
30
0.0
11
351.063507200591
21
138.125000000000
31
0.0
0
LINE
5
788
100
AcDbEntity
8
0-0
6
CONTINUOUS
62
7
100
AcDbLine
10
345.663507224433
20
138.750000000000
30
0.0
11
351.063507200591
21
138.750000000000
31
0.0
0
LINE
5
789
100
AcDbEntity
8
0-0
6
CONTINUOUS
62
7
100
AcDbLine
10
345.663507224433
20
130.000000000000
30
0.0
11
345.063507200591
21
130.599999904633
31
0.0
0
LINE
5
78a
100
AcDbEntity
8
0-0
6
CONTINUOUS
62
7
100
AcDbLine
10
345.063507200591
20
139.400000095367
30
0.0
11
345.063507200591
21
130.599999904633
31
0.0
0
LINE
5
78b
100
AcDbEntity
8
0-0
6
CONTINUOUS
62
7
100
AcDbLine
10
345.063507200591
20
139.400000095367
30
0.0
11
345.663507224433
21
140.000000000000
31
0.0
0
LINE
5
78c
100
AcDbEntity
8
0-0
6
CONTINUOUS
62
7
100
AcDbLine
10
345.663507224433
20
130.000000000000
30
0.0
11
345.663507224433
21
140.000000000000
31
0.0
0
LINE
5
78d
100
AcDbEntity
8
0-0
6
CONTINUOUS
62
7
100
AcDbLine
10
351.063507200591
20
130.000000000000
30
0.0
11
351.063507200591
21
140.000000000000
31
0.0
0
LINE
5
78e
100
AcDbEntity
8
0-0
6
CONTINUOUS
62
7
100
AcDbLine
10
345.663507224433
20
130.000000000000
30
0.0
11
352.563507200591
21
130.000000000000
31
0.0
0
LINE
5
78f
100
AcDbEntity
8
0-0
6
CONTINUOUS
62
7
100
AcDbLine
10
345.663507224433
20
140.000000000000
30
0.0
11
352.563507200591
21
140.000000000000
31
0.0
0
LINE
5
790
100
AcDbEntity
8
0-0
6
CONTINUOUS
62
7
100
AcDbLine
10
352.563507200591
20
135.433012694120
30
0.0
11
351.063507200591
21
134.566987305880
31
0.0
0
LINE
5
791
100
AcDbEntity
8
0-0
6
CONTINUOUS
62
7
100
AcDbLine
10
356.563507200591
20
138.000000000000
30
0.0
11
357.163512505588
21
138.000000000000
31
0.0
0
LINE
5
792
100
AcDbEntity
8
0-0
6
CONTINUOUS
62
7
100
AcDbLine
10
356.563507200591
20
132.000000000000
30
0.0
11
357.163491895601
21
132.000000000000
31
0.0
0
LINE
5
793
100
AcDbEntity
8
0-0
6
CONTINUOUS
62
7
100
AcDbLine
10
356.563507200591
20
132.450000047684
30
0.0
11
357.163493441350
21
132.450000047684
31
0.0
0
LINE
5
794
100
AcDbEntity
8
0-0
6
CONTINUOUS
62
7
100
AcDbLine
10
356.563507200591
20
137.549999952316
30
0.0
11
357.163510959839
21
137.549999952316
31
0.0
0
LINE
5
795
100
AcDbEntity
8
0-0
6
CONTINUOUS
62
7
100
AcDbLine
10
363.763489383450
20
127.500000000000
30
0.0
11
357.163476438110
21
127.500000000000
31
0.0
0
POLYLINE
5
796
100
AcDbEntity
8
0-0
6
CONTINUOUS
62
  7
100
AcDb2dPolyline
66
1
10
0.0
20
0.0
30
0.0
70
0
0
VERTEX
5
797
100
AcDbEntity
8
0-0
6
CONTINUOUS
62
  7
100
AcDbVertex
100
AcDb2dVertex
10
363.763489383450
20
127.500000000000
30
0.0
0
VERTEX
5
798
100
AcDbEntity
8
0-0
6
CONTINUOUS
62
  7
100
AcDbVertex
100
AcDb2dVertex
10
363.763545017925
20
142.500000000000
30
0.0
0
VERTEX
5
799
100
AcDbEntity
8
0-0
6
CONTINUOUS
62
  7
100
AcDbVertex
100
AcDb2dVertex
10
357.163527963079
20
142.500000000000
30
0.0
0
VERTEX
5
79a
100
AcDbEntity
8
0-0
6
CONTINUOUS
62
  7
100
AcDbVertex
100
AcDb2dVertex
10
357.163476438110
20
127.500000000000
30
0.0
0
SEQEND
5
79b
100
AcDbEntity
8
0-0
0
LINE
5
79c
100
AcDbEntity
8
0-0
6
CONTINUOUS
62
7
100
AcDbLine
10
360.163507200591
20
142.500000000000
30
0.0
11
360.163507200591
21
127.500000000000
31
0.0
0
LINE
5
79d
100
AcDbEntity
8
0-0
6
CONTINUOUS
62
7
100
AcDbLine
10
361.928265216591
20
142.500000000000
30
0.0
11
361.928265216591
21
127.500000000000
31
0.0
0
LINE
5
79e
100
AcDbEntity
8
0-1
6
CENTER
62
4
100
AcDbLine
10
300.000000000000
20
144.892392393566
30
0.0
11
300.000000000000
21
124.701294540019
31
0.0
0
LINE
5
79f
100
AcDbEntity
8
0-1
6
CENTER
62
4
100
AcDbLine
10
311.158202269456
20
135.000000000000
30
0.0
11
288.274958035435
21
135.000000000000
31
0.0
0
LINE
5
7a0
100
AcDbEntity
8
0-1
6
DASHED
62
4
100
AcDbLine
10
324.000000000000
20
138.250000000000
30
0.0
11
328.000000000000
21
138.250000000000
31
0.0
0
LINE
5
7a1
100
AcDbEntity
8
0-1
6
DASHED
62
4
100
AcDbLine
10
328.000000000000
20
131.750000000000
30
0.0
11
324.000000000000
21
131.750000000000
31
0.0
0
LINE
5
7a2
100
AcDbEntity
8
0-1
6
DASHED
62
4
100
AcDbLine
10
324.000000000000
20
132.450000047684
30
0.0
11
334.500000000000
21
132.450000047684
31
0.0
0
LINE
5
7a3
100
AcDbEntity
8
0-1
6
DASHED
62
4
100
AcDbLine
10
334.500000000000
20
137.549999952316
30
0.0
11
324.000000000000
21
137.549999952316
31
0.0
0
LINE
5
7a4
100
AcDbEntity
8
0-1
6
DASHED
62
4
100
AcDbLine
10
334.049999237061
20
132.000000000000
30
0.0
11
334.500000000000
21
132.450000047684
31
0.0
0
LINE
5
7a5
100
AcDbEntity
8
0-1
6
DASHED
62
4
100
AcDbLine
10
334.500000000000
20
137.549999952316
30
0.0
11
334.500000000000
21
132.450000047684
31
0.0
0
LINE
5
7a6
100
AcDbEntity
8
0-1
6
DASHED
62
4
100
AcDbLine
10
334.500000000000
20
137.549999952316
30
0.0
11
334.049999237061
21
138.000000000000
31
0.0
0
LINE
5
7a7
100
AcDbEntity
8
0-1
6
DASHED
62
4
100
AcDbLine
10
334.049999237061
20
132.000000000000
30
0.0
11
334.049999237061
21
138.000000000000
31
0.0
0
LINE
5
7a8
100
AcDbEntity
8
0-1
6
DASHED
62
4
100
AcDbLine
10
334.049999237061
20
132.000000000000
30
0.0
11
324.000000000000
21
132.000000000000
31
0.0
0
LINE
5
7a9
100
AcDbEntity
8
0-1
6
DASHED
62
4
100
AcDbLine
10
334.049999237061
20
138.000000000000
30
0.0
11
324.000000000000
21
138.000000000000
31
0.0
0
LINE
5
7aa
100
AcDbEntity
8
0-1
6
CENTER
62
4
100
AcDbLine
10
336.442550158705
20
135.000000000000
30
0.0
11
315.374683117065
21
135.000000000000
31
0.0
0
LINE
5
7ab
100
AcDbEntity
8
0-1
6
DASHED
62
4
100
AcDbLine
10
352.563507200591
20
138.250000000000
30
0.0
11
356.563507200591
21
138.250000000000
31
0.0
0
LINE
5
7ac
100
AcDbEntity
8
0-1
6
DASHED
62
4
100
AcDbLine
10
356.563507200591
20
131.750000000000
30
0.0
11
352.563507200591
21
131.750000000000
31
0.0
0
LINE
5
7ad
100
AcDbEntity
8
0-1
6
DASHED
62
4
100
AcDbLine
10
352.563507200591
20
132.450000047684
30
0.0
11
363.063507200591
21
132.450000047684
31
0.0
0
LINE
5
7ae
100
AcDbEntity
8
0-1
6
DASHED
62
4
100
AcDbLine
10
363.063507200591
20
137.549999952316
30
0.0
11
352.563507200591
21
137.549999952316
31
0.0
0
LINE
5
7af
100
AcDbEntity
8
0-1
6
DASHED
62
4
100
AcDbLine
10
362.613506437652
20
132.000000000000
30
0.0
11
363.063507200591
21
132.450000047684
31
0.0
0
LINE
5
7b0
100
AcDbEntity
8
0-1
6
DASHED
62
4
100
AcDbLine
10
363.063507200591
20
137.549999952316
30
0.0
11
363.063507200591
21
132.450000047684
31
0.0
0
LINE
5
7b1
100
AcDbEntity
8
0-1
6
DASHED
62
4
100
AcDbLine
10
363.063507200591
20
137.549999952316
30
0.0
11
362.613506437652
21
138.000000000000
31
0.0
0
LINE
5
7b2
100
AcDbEntity
8
0-1
6
DASHED
62
4
100
AcDbLine
10
362.613506437652
20
132.000000000000
30
0.0
11
362.613506437652
21
138.000000000000
31
0.0
0
LINE
5
7b3
100
AcDbEntity
8
0-1
6
DASHED
62
4
100
AcDbLine
10
362.613506437652
20
132.000000000000
30
0.0
11
352.563507200591
21
132.000000000000
31
0.0
0
LINE
5
7b4
100
AcDbEntity
8
0-1
6
DASHED
62
4
100
AcDbLine
10
362.613506437652
20
138.000000000000
30
0.0
11
352.563507200591
21
138.000000000000
31
0.0
0
LINE
5
7b5
100
AcDbEntity
8
0-1
6
CENTER
62
4
100
AcDbLine
10
365.006057359296
20
135.000000000000
30
0.0
11
343.938190317656
21
135.000000000000
31
0.0
0
CIRCLE
5
7b6
100
AcDbEntity
8
0-0
6
CONTINUOUS
62
7
100
AcDbCircle
10
300.000000000000
20
135.000000000000
30
0.0
40
9.000000000000
0
POLYLINE
5
7b7
100
AcDbEntity
8
0-0
6
CONTINUOUS
62
  7
100
AcDb2dPolyline
66
1
10
0.0
20
0.0
30
0.0
70
0
0
VERTEX
5
7b8
100
AcDbEntity
8
0-0
6
CONTINUOUS
62
  7
100
AcDbVertex
100
AcDb2dVertex
10
328.000000000000
20
214.000000000000
30
0.0
0
VERTEX
5
7b9
100
AcDbEntity
8
0-0
6
CONTINUOUS
62
  7
100
AcDbVertex
100
AcDb2dVertex
10
324.000000000000
20
214.000000000000
30
0.0
0
VERTEX
5
7ba
100
AcDbEntity
8
0-0
6
CONTINUOUS
62
  7
100
AcDbVertex
100
AcDb2dVertex
10
324.000000000000
20
196.000000000000
30
0.0
0
VERTEX
5
7bb
100
AcDbEntity
8
0-0
6
CONTINUOUS
62
  7
100
AcDbVertex
100
AcDb2dVertex
10
328.000000000000
20
196.000000000000
30
0.0
0
VERTEX
5
7bc
100
AcDbEntity
8
0-0
6
CONTINUOUS
62
  7
100
AcDbVertex
100
AcDb2dVertex
10
328.000000000000
20
214.000000000000
30
0.0
0
SEQEND
5
7bd
100
AcDbEntity
8
0-0
0
POLYLINE
5
7be
100
AcDbEntity
8
0-0
6
CONTINUOUS
62
  7
100
AcDb2dPolyline
66
1
10
0.0
20
0.0
30
0.0
70
0
0
VERTEX
5
7bf
100
AcDbEntity
8
0-0
6
CONTINUOUS
62
  7
100
AcDbVertex
100
AcDb2dVertex
10
356.563507200591
20
214.000000000000
30
0.0
0
VERTEX
5
7c0
100
AcDbEntity
8
0-0
6
CONTINUOUS
62
  7
100
AcDbVertex
100
AcDb2dVertex
10
352.563507200591
20
214.000000000000
30
0.0
0
VERTEX
5
7c1
100
AcDbEntity
8
0-0
6
CONTINUOUS
62
  7
100
AcDbVertex
100
AcDb2dVertex
10
352.563507200591
20
196.000000000000
30
0.0
0
VERTEX
5
7c2
100
AcDbEntity
8
0-0
6
CONTINUOUS
62
  7
100
AcDbVertex
100
AcDb2dVertex
10
356.563507200591
20
196.000000000000
30
0.0
0
VERTEX
5
7c3
100
AcDbEntity
8
0-0
6
CONTINUOUS
62
  7
100
AcDbVertex
100
AcDb2dVertex
10
356.563507200591
20
214.000000000000
30
0.0
0
SEQEND
5
7c4
100
AcDbEntity
8
0-0
0
LINE
5
7c5
100
AcDbEntity
8
0-0
6
CONTINUOUS
62
7
100
AcDbLine
10
318.199999809265
20
206.214285731316
30
0.0
11
322.699999809265
21
206.214285731316
31
0.0
0
LINE
5
7c6
100
AcDbEntity
8
0-0
6
CONTINUOUS
62
7
100
AcDbLine
10
318.199999809265
20
206.821428537369
30
0.0
11
322.699999809265
21
206.821428537369
31
0.0
0
LINE
5
7c7
100
AcDbEntity
8
0-0
6
CONTINUOUS
62
7
100
AcDbLine
10
318.199999809265
20
208.035714387894
30
0.0
11
322.699999809265
21
208.035714387894
31
0.0
0
LINE
5
7c8
100
AcDbEntity
8
0-0
6
CONTINUOUS
62
7
100
AcDbLine
10
318.199999809265
20
208.642857074737
30
0.0
11
322.699999809265
21
208.642857074737
31
0.0
0
LINE
5
7c9
100
AcDbEntity
8
0-0
6
CONTINUOUS
62
7
100
AcDbLine
10
318.199999809265
20
207.428571462631
30
0.0
11
322.699999809265
21
207.428571462631
31
0.0
0
LINE
5
7ca
100
AcDbEntity
8
0-0
6
CONTINUOUS
62
7
100
AcDbLine
10
318.199999809265
20
200.750000000000
30
0.0
11
317.699999809265
21
201.250000000000
31
0.0
0
LINE
5
7cb
100
AcDbEntity
8
0-0
6
CONTINUOUS
62
7
100
AcDbLine
10
317.699999809265
20
208.750000000000
30
0.0
11
317.699999809265
21
201.250000000000
31
0.0
0
LINE
5
7cc
100
AcDbEntity
8
0-0
6
CONTINUOUS
62
7
100
AcDbLine
10
317.699999809265
20
208.750000000000
30
0.0
11
318.199999809265
21
209.250000000000
31
0.0
0
LINE
5
7cd
100
AcDbEntity
8
0-0
6
CONTINUOUS
62
7
100
AcDbLine
10
318.199999809265
20
200.750000000000
30
0.0
11
318.199999809265
21
209.250000000000
31
0.0
0
LINE
5
7ce
100
AcDbEntity
8
0-0
6
CONTINUOUS
62
7
100
AcDbLine
10
322.699999809265
20
200.750000000000
30
0.0
11
322.699999809265
21
209.250000000000
31
0.0
0
LINE
5
7cf
100
AcDbEntity
8
0-0
6
CONTINUOUS
62
7
100
AcDbLine
10
318.199999809265
20
200.750000000000
30
0.0
11
324.000000000000
21
200.750000000000
31
0.0
0
LINE
5
7d0
100
AcDbEntity
8
0-0
6
CONTINUOUS
62
7
100
AcDbLine
10
318.199999809265
20
209.250000000000
30
0.0
11
324.000000000000
21
209.250000000000
31
0.0
0
LINE
5
7d1
100
AcDbEntity
8
0-0
6
CONTINUOUS
62
7
100
AcDbLine
10
324.000000000000
20
205.375277668238
30
0.0
11
322.699999809265
21
204.624722331762
31
0.0
0
LINE
5
7d2
100
AcDbEntity
8
0-0
6
CONTINUOUS
62
7
100
AcDbLine
10
332.661400000000
20
201.844949000000
30
0.0
11
332.979390000000
21
202.718613000000
31
0.0
0
LINE
5
7d3
100
AcDbEntity
8
0-0
6
CONTINUOUS
62
7
100
AcDbLine
10
333.100000000000
20
203.402653000000
30
0.0
11
333.100000000000
21
206.597346000000
31
0.0
0
LINE
5
7d4
100
AcDbEntity
8
0-0
6
CONTINUOUS
62
7
100
AcDbLine
10
332.979390000000
20
207.281386000000
30
0.0
11
332.661400000000
21
208.155050000000
31
0.0
0
ARC
5
7d5
100
AcDbEntity
8
0-0
6
CONTINUOUS
62
7
100
AcDbCircle
10
331.100000000000
20
203.402653000000
30
0.0
40
2.000000000000
100
AcDbArc
50
340.000000000000
51
360.000000000000
0
ARC
5
7d6
100
AcDbEntity
8
0-0
6
CONTINUOUS
62
7
100
AcDbCircle
10
331.100000000000
20
206.597346000000
30
0.0
40
2.000000000000
100
AcDbArc
50
0.000000000000
51
20.000000000000
0
ARC
5
7d7
100
AcDbEntity
8
0-0
6
CONTINUOUS
62
7
100
AcDbCircle
10
330.312170000000
20
202.700000000000
30
0.0
40
2.500000000000
100
AcDbArc
50
258.178227994579
51
340.000000000000
0
LINE
5
7d8
100
AcDbEntity
8
0-0
6
CONTINUOUS
62
7
100
AcDbLine
10
329.800000000000
20
201.428462093208
30
0.0
11
329.800000000000
21
200.253025972532
31
0.0
0
ARC
5
7d9
100
AcDbEntity
8
0-0
6
CONTINUOUS
62
7
100
AcDbCircle
10
330.312170000000
20
207.300000000000
30
0.0
40
2.500000000000
100
AcDbArc
50
20.000000000000
51
101.821772005421
0
LINE
5
7da
100
AcDbEntity
8
0-0
6
CONTINUOUS
62
7
100
AcDbLine
10
329.800000000000
20
209.746974027467
30
0.0
11
329.800000000000
21
208.571536906792
31
0.0
0
LINE
5
7db
100
AcDbEntity
8
0-0
6
CONTINUOUS
62
7
100
AcDbLine
10
328.600000000000
20
208.250001093208
30
0.0
11
329.800000000000
21
208.571536906792
31
0.0
0
LINE
5
7dc
100
AcDbEntity
8
0-0
6
CONTINUOUS
62
7
100
AcDbLine
10
329.800000000000
20
201.428462093208
30
0.0
11
328.600000000000
21
201.749997906792
31
0.0
0
LINE
5
7dd
100
AcDbEntity
8
0-0
6
CONTINUOUS
62
7
100
AcDbLine
10
328.600000000000
20
208.250001093208
30
0.0
11
328.600000000000
21
201.749997906792
31
0.0
0
LINE
5
7de
100
AcDbEntity
8
0-0
6
CONTINUOUS
62
7
100
AcDbLine
10
361.663507200591
20
200.000000000000
30
0.0
11
357.163507200591
21
200.000000000000
31
0.0
0
LINE
5
7df
100
AcDbEntity
8
0-0
6
CONTINUOUS
62
7
100
AcDbLine
10
361.663507200591
20
200.000000000000
30
0.0
11
361.663507200591
21
210.000000000000
31
0.0
0
LINE
5
7e0
100
AcDbEntity
8
0-0
6
CONTINUOUS
62
7
100
AcDbLine
10
358.363507200591
20
200.000000000000
30
0.0
11
358.363507200591
21
210.000000000000
31
0.0
0
LINE
5
7e1
100
AcDbEntity
8
0-0
6
CONTINUOUS
62
7
100
AcDbLine
10
357.163507200591
20
200.000000000000
30
0.0
11
357.163507200591
21
210.000000000000
31
0.0
0
LINE
5
7e2
100
AcDbEntity
8
0-0
6
CONTINUOUS
62
7
100
AcDbLine
10
361.663507200591
20
210.000000000000
30
0.0
11
357.163507200591
21
210.000000000000
31
0.0
0
LINE
5
7e3
100
AcDbEntity
8
0-0
6
CONTINUOUS
62
7
100
AcDbLine
10
346.763507009856
20
206.214285731316
30
0.0
11
351.263507009856
21
206.214285731316
31
0.0
0
LINE
5
7e4
100
AcDbEntity
8
0-0
6
CONTINUOUS
62
7
100
AcDbLine
10
346.763507009856
20
206.821428537369
30
0.0
11
351.263507009856
21
206.821428537369
31
0.0
0
LINE
5
7e5
100
AcDbEntity
8
0-0
6
CONTINUOUS
62
7
100
AcDbLine
10
346.763507009856
20
208.035714387894
30
0.0
11
351.263507009856
21
208.035714387894
31
0.0
0
LINE
5
7e6
100
AcDbEntity
8
0-0
6
CONTINUOUS
62
7
100
AcDbLine
10
346.763507009856
20
208.642857074737
30
0.0
11
351.263507009856
21
208.642857074737
31
0.0
0
LINE
5
7e7
100
AcDbEntity
8
0-0
6
CONTINUOUS
62
7
100
AcDbLine
10
346.763507009856
20
207.428571462631
30
0.0
11
351.263507009856
21
207.428571462631
31
0.0
0
LINE
5
7e8
100
AcDbEntity
8
0-0
6
CONTINUOUS
62
7
100
AcDbLine
10
346.763507009856
20
200.750000000000
30
0.0
11
346.263507009856
21
201.250000000000
31
0.0
0
LINE
5
7e9
100
AcDbEntity
8
0-0
6
CONTINUOUS
62
7
100
AcDbLine
10
346.263507009856
20
208.750000000000
30
0.0
11
346.263507009856
21
201.250000000000
31
0.0
0
LINE
5
7ea
100
AcDbEntity
8
0-0
6
CONTINUOUS
62
7
100
AcDbLine
10
346.263507009856
20
208.750000000000
30
0.0
11
346.763507009856
21
209.250000000000
31
0.0
0
LINE
5
7eb
100
AcDbEntity
8
0-0
6
CONTINUOUS
62
7
100
AcDbLine
10
346.763507009856
20
200.750000000000
30
0.0
11
346.763507009856
21
209.250000000000
31
0.0
0
LINE
5
7ec
100
AcDbEntity
8
0-0
6
CONTINUOUS
62
7
100
AcDbLine
10
351.263507009856
20
200.750000000000
30
0.0
11
351.263507009856
21
209.250000000000
31
0.0
0
LINE
5
7ed
100
AcDbEntity
8
0-0
6
CONTINUOUS
62
7
100
AcDbLine
10
346.763507009856
20
200.750000000000
30
0.0
11
352.563507200591
21
200.750000000000
31
0.0
0
LINE
5
7ee
100
AcDbEntity
8
0-0
6
CONTINUOUS
62
7
100
AcDbLine
10
346.763507009856
20
209.250000000000
30
0.0
11
352.563507200591
21
209.250000000000
31
0.0
0
LINE
5
7ef
100
AcDbEntity
8
0-0
6
CONTINUOUS
62
7
100
AcDbLine
10
352.563507200591
20
205.375277668238
30
0.0
11
351.263507009856
21
204.624722331762
31
0.0
0
POLYLINE
5
7f0
100
AcDbEntity
8
0-0
6
CONTINUOUS
62
  7
100
AcDb2dPolyline
66
1
10
0.0
20
0.0
30
0.0
70
0
0
VERTEX
5
7f1
100
AcDbEntity
8
0-0
6
CONTINUOUS
62
  7
100
AcDbVertex
100
AcDb2dVertex
10
302.000000000000
20
203.845299482346
30
0.0
0
VERTEX
5
7f2
100
AcDbEntity
8
0-0
6
CONTINUOUS
62
  7
100
AcDbVertex
100
AcDb2dVertex
10
302.000000000000
20
206.154700517654
30
0.0
0
VERTEX
5
7f3
100
AcDbEntity
8
0-0
6
CONTINUOUS
62
  7
100
AcDbVertex
100
AcDb2dVertex
10
300.000000000000
20
207.309401035309
30
0.0
0
VERTEX
5
7f4
100
AcDbEntity
8
0-0
6
CONTINUOUS
62
  7
100
AcDbVertex
100
AcDb2dVertex
10
298.000000000000
20
206.154700517654
30
0.0
0
VERTEX
5
7f5
100
AcDbEntity
8
0-0
6
CONTINUOUS
62
  7
100
AcDbVertex
100
AcDb2dVertex
10
298.000000000000
20
203.845299482346
30
0.0
0
VERTEX
5
7f6
100
AcDbEntity
8
0-0
6
CONTINUOUS
62
  7
100
AcDbVertex
100
AcDb2dVertex
10
300.000000000000
20
202.690598964691
30
0.0
0
VERTEX
5
7f7
100
AcDbEntity
8
0-0
6
CONTINUOUS
62
  7
100
AcDbVertex
100
AcDb2dVertex
10
302.000000000000
20
203.845299482346
30
0.0
0
SEQEND
5
7f8
100
AcDbEntity
8
0-0
0
CIRCLE
5
7f9
100
AcDbEntity
8
0-0
6
CONTINUOUS
62
7
100
AcDbCircle
10
300.000000000000
20
205.000000000000
30
0.0
40
4.250000000000
0
LINE
5
7fa
100
AcDbEntity
8
0-1
6
CENTER
62
4
100
AcDbLine
10
336.442550158705
20
205.000000000000
30
0.0
11
315.374683117065
21
205.000000000000
31
0.0
0
LINE
5
7fb
100
AcDbEntity
8
0-1
6
CENTER
62
4
100
AcDbLine
10
300.000000000000
20
214.892392393566
30
0.0
11
300.000000000000
21
194.701294540019
31
0.0
0
LINE
5
7fc
100
AcDbEntity
8
0-1
6
CENTER
62
4
100
AcDbLine
10
311.158202269456
20
205.000000000000
30
0.0
11
288.274958035435
21
205.000000000000
31
0.0
0
LINE
5
7fd
100
AcDbEntity
8
0-1
6
CENTER
62
4
100
AcDbLine
10
365.006057359296
20
205.000000000000
30
0.0
11
343.938190317656
21
205.000000000000
31
0.0
0
LINE
5
7fe
100
AcDbEntity
8
0-1
6
DASHED
62
4
100
AcDbLine
10
328.000000000000
20
201.750000000000
30
0.0
11
324.000000000000
21
201.750000000000
31
0.0
0
LINE
5
7ff
100
AcDbEntity
8
0-1
6
DASHED
62
4
100
AcDbLine
10
328.000000000000
20
208.250000000000
30
0.0
11
324.000000000000
21
208.250000000000
31
0.0
0
LINE
5
800
100
AcDbEntity
8
0-1
6
DASHED
62
4
100
AcDbLine
10
324.000000000000
20
202.849999904633
30
0.0
11
332.699999809265
21
202.849999904633
31
0.0
0
POLYLINE
5
801
100
AcDbEntity
8
0-1
6
DASHED
62
  4
100
AcDb2dPolyline
66
1
10
0.0
20
0.0
30
0.0
70
0
0
VERTEX
5
802
100
AcDbEntity
8
0-1
6
DASHED
62
  4
100
AcDbVertex
100
AcDb2dVertex
10
324.000000000000
20
207.150000095367
30
0.0
0
VERTEX
5
803
100
AcDbEntity
8
0-1
6
DASHED
62
  4
100
AcDbVertex
100
AcDb2dVertex
10
332.699999809265
20
207.150000095367
30
0.0
0
VERTEX
5
804
100
AcDbEntity
8
0-1
6
DASHED
62
  4
100
AcDbVertex
100
AcDb2dVertex
10
332.699999809265
20
202.849999904633
30
0.0
0
SEQEND
5
805
100
AcDbEntity
8
0-1
0
LINE
5
806
100
AcDbEntity
8
0-1
6
DASHED
62
4
100
AcDbLine
10
332.349999427795
20
202.500000000000
30
0.0
11
332.699999809265
21
202.849999904633
31
0.0
0
LINE
5
807
100
AcDbEntity
8
0-1
6
DASHED
62
4
100
AcDbLine
10
332.699999809265
20
207.150000095367
30
0.0
11
332.349999427795
21
207.500000000000
31
0.0
0
LINE
5
808
100
AcDbEntity
8
0-1
6
DASHED
62
4
100
AcDbLine
10
332.349999427795
20
202.500000000000
30
0.0
11
332.349999427795
21
207.500000000000
31
0.0
0
LINE
5
809
100
AcDbEntity
8
0-1
6
DASHED
62
4
100
AcDbLine
10
332.349999427795
20
202.500000000000
30
0.0
11
324.000000000000
21
202.500000000000
31
0.0
0
LINE
5
80a
100
AcDbEntity
8
0-1
6
DASHED
62
4
100
AcDbLine
10
332.349999427795
20
207.500000000000
30
0.0
11
324.000000000000
21
207.500000000000
31
0.0
0
LINE
5
80b
100
AcDbEntity
8
0-1
6
DASHED
62
4
100
AcDbLine
10
356.563507200591
20
208.250000000000
30
0.0
11
352.563507200591
21
208.250000000000
31
0.0
0
LINE
5
80c
100
AcDbEntity
8
0-1
6
DASHED
62
4
100
AcDbLine
10
352.563507200591
20
202.849999904633
30
0.0
11
361.263507009856
21
202.849999904633
31
0.0
0
POLYLINE
5
80d
100
AcDbEntity
8
0-1
6
DASHED
62
  4
100
AcDb2dPolyline
66
1
10
0.0
20
0.0
30
0.0
70
0
0
VERTEX
5
80e
100
AcDbEntity
8
0-1
6
DASHED
62
  4
100
AcDbVertex
100
AcDb2dVertex
10
352.563507200591
20
207.150000095367
30
0.0
0
VERTEX
5
80f
100
AcDbEntity
8
0-1
6
DASHED
62
  4
100
AcDbVertex
100
AcDb2dVertex
10
361.263507009856
20
207.150000095367
30
0.0
0
VERTEX
5
810
100
AcDbEntity
8
0-1
6
DASHED
62
  4
100
AcDbVertex
100
AcDb2dVertex
10
361.263507009856
20
202.849999904633
30
0.0
0
SEQEND
5
811
100
AcDbEntity
8
0-1
0
LINE
5
812
100
AcDbEntity
8
0-1
6
DASHED
62
4
100
AcDbLine
10
360.913506628387
20
202.500000000000
30
0.0
11
361.263507009856
21
202.849999904633
31
0.0
0
LINE
5
813
100
AcDbEntity
8
0-1
6
DASHED
62
4
100
AcDbLine
10
361.263507009856
20
207.150000095367
30
0.0
11
360.913506628387
21
207.500000000000
31
0.0
0
LINE
5
814
100
AcDbEntity
8
0-1
6
DASHED
62
4
100
AcDbLine
10
360.913506628387
20
202.500000000000
30
0.0
11
360.913506628387
21
207.500000000000
31
0.0
0
LINE
5
815
100
AcDbEntity
8
0-1
6
DASHED
62
4
100
AcDbLine
10
360.913506628387
20
202.500000000000
30
0.0
11
352.563507200591
21
202.500000000000
31
0.0
0
LINE
5
816
100
AcDbEntity
8
0-1
6
DASHED
62
4
100
AcDbLine
10
360.913506628387
20
207.500000000000
30
0.0
11
352.563507200591
21
207.500000000000
31
0.0
0
LINE
5
817
100
AcDbEntity
8
0-1
6
DASHED
62
4
100
AcDbLine
10
356.563507200591
20
201.750000000000
30
0.0
11
352.563507200591
21
201.750000000000
31
0.0
0
CIRCLE
5
818
100
AcDbEntity
8
0-0
6
CONTINUOUS
62
7
100
AcDbCircle
10
300.000000000000
20
205.000000000000
30
0.0
40
9.000000000000
0
TEXT
5
819
100
AcDbEntity
8
0-0
62
7
370
-3
100
AcDbText
10
270.200
20
170.767
30
0.0
40
4.208
1
PW18-25B
41
0.506
50
0.000
100
AcDbText
0
LINE
5
81a
100
AcDbEntity
8
F-F_J_ADD
6
HIDDEN
62
253
100
AcDbLine
10
270.000000000000
20
480.000000000000
30
0.0
11
270.000000000000
21
30.000000000000
31
0.0
0
LINE
5
81b
100
AcDbEntity
8
F-F_J_ADD
6
HIDDEN
62
253
100
AcDbLine
10
0.000000000000
20
480.000000000000
30
0.0
11
0.000000000000
21
30.000000000000
31
0.0
0
LINE
5
81c
100
AcDbEntity
8
0-0
6
CONTINUOUS
62
7
100
AcDbLine
10
449.500010000000
20
123.500012000000
30
0.0
11
420.499990000000
21
123.500012000000
31
0.0
0
LINE
5
81d
100
AcDbEntity
8
0-0
6
CONTINUOUS
62
7
100
AcDbLine
10
449.500010000000
20
128.500010000000
30
0.0
11
420.499990000000
21
128.500010000000
31
0.0
0
LINE
5
81e
100
AcDbEntity
8
0-0
6
CONTINUOUS
62
7
100
AcDbLine
10
420.499990000000
20
141.500000000000
30
0.0
11
421.299970000000
21
141.500000000000
31
0.0
0
POLYLINE
5
81f
100
AcDbEntity
8
0-0
6
CONTINUOUS
62
  7
100
AcDb2dPolyline
66
1
10
0.0
20
0.0
30
0.0
70
0
0
VERTEX
5
820
100
AcDbEntity
8
0-0
6
CONTINUOUS
62
  7
100
AcDbVertex
100
AcDb2dVertex
10
421.299970000000
20
141.300000000000
30
0.0
0
VERTEX
5
821
100
AcDbEntity
8
0-0
6
CONTINUOUS
62
  7
100
AcDbVertex
100
AcDb2dVertex
10
421.299970000000
20
146.700000000000
30
0.0
0
VERTEX
5
822
100
AcDbEntity
8
0-0
6
CONTINUOUS
62
  7
100
AcDbVertex
100
AcDb2dVertex
10
425.699980000000
20
146.700000000000
30
0.0
0
VERTEX
5
823
100
AcDbEntity
8
0-0
6
CONTINUOUS
62
  7
100
AcDbVertex
100
AcDb2dVertex
10
425.699980000000
20
141.300000000000
30
0.0
0
VERTEX
5
824
100
AcDbEntity
8
0-0
6
CONTINUOUS
62
  7
100
AcDbVertex
100
AcDb2dVertex
10
421.299970000000
20
141.300000000000
30
0.0
0
SEQEND
5
825
100
AcDbEntity
8
0-0
0
LINE
5
826
100
AcDbEntity
8
0-0
6
CONTINUOUS
62
7
100
AcDbLine
10
421.299970000000
20
146.500000000000
30
0.0
11
420.499990000000
21
146.500000000000
31
0.0
0
LINE
5
827
100
AcDbEntity
8
0-0
6
CONTINUOUS
62
7
100
AcDbLine
10
433.499980000000
20
144.000000000000
30
0.0
11
434.199990000000
21
144.000000000000
31
0.0
0
LINE
5
828
100
AcDbEntity
8
0-0
6
CONTINUOUS
62
7
100
AcDbLine
10
435.499990000000
20
144.000000000000
30
0.0
11
448.200000000000
21
144.000000000000
31
0.0
0
POLYLINE
5
829
100
AcDbEntity
8
0-0
6
CONTINUOUS
62
  7
100
AcDb2dPolyline
66
1
10
0.0
20
0.0
30
0.0
70
0
0
VERTEX
5
82a
100
AcDbEntity
8
0-0
6
CONTINUOUS
62
  7
100
AcDbVertex
100
AcDb2dVertex
10
449.499980000000
20
147.500000000000
30
0.0
0
VERTEX
5
82b
100
AcDbEntity
8
0-0
6
CONTINUOUS
62
  7
100
AcDbVertex
100
AcDb2dVertex
10
449.499980000000
20
148.000000000000
30
0.0
0
VERTEX
5
82c
100
AcDbEntity
8
0-0
6
CONTINUOUS
62
  7
100
AcDbVertex
100
AcDb2dVertex
10
434.199990000000
20
148.000000000000
30
0.0
0
VERTEX
5
82d
100
AcDbEntity
8
0-0
6
CONTINUOUS
62
  7
100
AcDbVertex
100
AcDb2dVertex
10
434.199990000000
20
140.000000000000
30
0.0
0
VERTEX
5
82e
100
AcDbEntity
8
0-0
6
CONTINUOUS
62
  7
100
AcDbVertex
100
AcDb2dVertex
10
449.499980000000
20
140.000000000000
30
0.0
0
VERTEX
5
82f
100
AcDbEntity
8
0-0
6
CONTINUOUS
62
  7
100
AcDbVertex
100
AcDb2dVertex
10
449.499980000000
20
140.500000000000
30
0.0
0
VERTEX
5
830
100
AcDbEntity
8
0-0
6
CONTINUOUS
62
  7
100
AcDbVertex
100
AcDb2dVertex
10
451.499980000000
20
140.500000000000
30
0.0
0
VERTEX
5
831
100
AcDbEntity
8
0-0
6
CONTINUOUS
62
  7
100
AcDbVertex
100
AcDb2dVertex
10
451.499980000000
20
147.500000000000
30
0.0
0
VERTEX
5
832
100
AcDbEntity
8
0-0
6
CONTINUOUS
62
  7
100
AcDbVertex
100
AcDb2dVertex
10
449.499980000000
20
147.500000000000
30
0.0
0
VERTEX
5
833
100
AcDbEntity
8
0-0
6
CONTINUOUS
62
  7
100
AcDbVertex
100
AcDb2dVertex
10
449.499980000000
20
140.500000000000
30
0.0
0
SEQEND
5
834
100
AcDbEntity
8
0-0
0
ARC
5
835
100
AcDbEntity
8
0-0
6
CONTINUOUS
62
7
100
AcDbCircle
10
435.499990000000
20
146.700010000000
30
0.0
40
1.299999900000
100
AcDbArc
50
90.000000000000
51
180.000000000000
0
ARC
5
836
100
AcDbEntity
8
0-0
6
CONTINUOUS
62
7
100
AcDbCircle
10
435.499990000000
20
145.300010000000
30
0.0
40
1.299999900000
100
AcDbArc
50
180.000000000000
51
270.000000000000
0
ARC
5
837
100
AcDbEntity
8
0-0
6
CONTINUOUS
62
7
100
AcDbCircle
10
435.499990000000
20
142.700000000000
30
0.0
40
1.299999900000
100
AcDbArc
50
90.000000000000
51
180.000000000000
0
ARC
5
838
100
AcDbEntity
8
0-0
6
CONTINUOUS
62
7
100
AcDbCircle
10
435.499990000000
20
141.300000000000
30
0.0
40
1.299999900000
100
AcDbArc
50
180.000000000000
51
270.000000000000
0
ARC
5
839
100
AcDbEntity
8
0-0
6
CONTINUOUS
62
7
100
AcDbCircle
10
448.200000000000
20
141.300000000000
30
0.0
40
1.299999900000
100
AcDbArc
50
270.000000000000
51
360.000000000000
0
ARC
5
83a
100
AcDbEntity
8
0-0
6
CONTINUOUS
62
7
100
AcDbCircle
10
448.200000000000
20
142.700000000000
30
0.0
40
1.299999900000
100
AcDbArc
50
0.000000000000
51
90.000000000000
0
ARC
5
83b
100
AcDbEntity
8
0-0
6
CONTINUOUS
62
7
100
AcDbCircle
10
448.200000000000
20
145.300010000000
30
0.0
40
1.299999900000
100
AcDbArc
50
270.000000000000
51
360.000000000000
0
ARC
5
83c
100
AcDbEntity
8
0-0
6
CONTINUOUS
62
7
100
AcDbCircle
10
448.200000000000
20
146.700010000000
30
0.0
40
1.299999900000
100
AcDbArc
50
0.000000000000
51
90.000000000000
0
ARC
5
83d
100
AcDbEntity
8
0-0
6
CONTINUOUS
62
7
100
AcDbCircle
10
420.499990000000
20
135.000000000000
30
0.0
40
6.500000000000
100
AcDbArc
50
90.000000000000
51
270.000000000000
0
ARC
5
83e
100
AcDbEntity
8
0-0
6
CONTINUOUS
62
7
100
AcDbCircle
10
420.499990000000
20
135.000000000000
30
0.0
40
11.499998000000
100
AcDbArc
50
90.000000000000
51
270.000000000000
0
ARC
5
83f
100
AcDbEntity
8
0-0
6
CONTINUOUS
62
7
100
AcDbCircle
10
449.500010000000
20
135.000000000000
30
0.0
40
6.500000000000
100
AcDbArc
50
270.000000000000
51
432.079895000000
0
ARC
5
840
100
AcDbEntity
8
0-0
6
CONTINUOUS
62
7
100
AcDbCircle
10
449.500010000000
20
135.000000000000
30
0.0
40
11.499998000000
100
AcDbArc
50
270.000000000000
51
439.984649000000
0
LINE
5
841
100
AcDbEntity
8
0-1
6
CENTER
62
4
100
AcDbLine
10
420.499990000000
20
126.000000000000
30
0.0
11
449.500010000000
21
126.000000000000
31
0.0
0
LINE
5
842
100
AcDbEntity
8
0-1
6
CONTINUOUS
62
4
100
AcDbLine
10
421.299970000000
20
141.700000000000
30
0.0
11
425.699980000000
21
141.700000000000
31
0.0
0
LINE
5
843
100
AcDbEntity
8
0-1
6
CONTINUOUS
62
4
100
AcDbLine
10
425.699980000000
20
146.300000000000
30
0.0
11
421.299970000000
21
146.300000000000
31
0.0
0
LINE
5
844
100
AcDbEntity
8
0-1
6
CENTER
62
4
100
AcDbLine
10
420.499990000000
20
144.000000000000
30
0.0
11
433.499980000000
21
144.000000000000
31
0.0
0
ARC
5
845
100
AcDbEntity
8
0-1
6
CENTER
62
4
100
AcDbCircle
10
420.499990000000
20
135.000000000000
30
0.0
40
9.000000000000
100
AcDbArc
50
90.000000000000
51
270.000000000000
0
ARC
5
846
100
AcDbEntity
8
0-1
6
CENTER
62
4
100
AcDbCircle
10
449.500010000000
20
135.000000000000
30
0.0
40
9.000000000000
100
AcDbArc
50
270.000000000000
51
450.000000000000
0
LINE
5
847
100
AcDbEntity
8
0-0
6
CONTINUOUS
62
7
100
AcDbLine
10
452.000005000000
20
51.499999000000
30
0.0
11
417.999995000000
21
51.499999000000
31
0.0
0
LINE
5
848
100
AcDbEntity
8
0-0
6
CONTINUOUS
62
7
100
AcDbLine
10
452.000005000000
20
57.499998000000
30
0.0
11
417.999995000000
21
57.499998000000
31
0.0
0
LINE
5
849
100
AcDbEntity
8
0-0
6
CONTINUOUS
62
7
100
AcDbLine
10
417.999995000000
20
72.500000000000
30
0.0
11
420.199995000000
21
72.500000000000
31
0.0
0
LINE
5
84a
100
AcDbEntity
8
0-0
6
CONTINUOUS
62
7
100
AcDbLine
10
425.199995000000
20
72.250000000000
30
0.0
11
425.199995000000
21
78.750000000000
31
0.0
0
LINE
5
84b
100
AcDbEntity
8
0-0
6
CONTINUOUS
62
7
100
AcDbLine
10
420.199995000000
20
78.500000000000
30
0.0
11
417.999995000000
21
78.500000000000
31
0.0
0
LINE
5
84c
100
AcDbEntity
8
0-0
6
CONTINUOUS
62
7
100
AcDbLine
10
420.199995000000
20
78.750000000000
30
0.0
11
420.199995000000
21
72.250000000000
31
0.0
0
LINE
5
84d
100
AcDbEntity
8
0-0
6
CONTINUOUS
62
7
100
AcDbLine
10
451.200015000000
20
75.486250000000
30
0.0
11
436.199975000000
21
75.486250000000
31
0.0
0
POLYLINE
5
84e
100
AcDbEntity
8
0-0
6
CONTINUOUS
62
  7
100
AcDb2dPolyline
66
1
10
0.0
20
0.0
30
0.0
70
0
0
VERTEX
5
84f
100
AcDbEntity
8
0-0
6
CONTINUOUS
62
  7
100
AcDbVertex
100
AcDb2dVertex
10
434.699985000000
20
70.999990000000
30
0.0
0
VERTEX
5
850
100
AcDbEntity
8
0-0
6
CONTINUOUS
62
  7
100
AcDbVertex
100
AcDb2dVertex
10
452.700015000000
20
70.999990000000
30
0.0
0
VERTEX
5
851
100
AcDbEntity
8
0-0
6
CONTINUOUS
62
  7
100
AcDbVertex
100
AcDb2dVertex
10
452.700015000000
20
80.000000000000
30
0.0
0
VERTEX
5
852
100
AcDbEntity
8
0-0
6
CONTINUOUS
62
  7
100
AcDbVertex
100
AcDb2dVertex
10
434.699985000000
20
80.000000000000
30
0.0
0
VERTEX
5
853
100
AcDbEntity
8
0-0
6
CONTINUOUS
62
  7
100
AcDbVertex
100
AcDb2dVertex
10
434.699985000000
20
70.999990000000
30
0.0
0
SEQEND
5
854
100
AcDbEntity
8
0-0
0
POLYLINE
5
855
100
AcDbEntity
8
0-0
6
CONTINUOUS
62
  7
100
AcDb2dPolyline
66
1
10
0.0
20
0.0
30
0.0
70
0
0
VERTEX
5
856
100
AcDbEntity
8
0-0
6
CONTINUOUS
62
  7
100
AcDbVertex
100
AcDb2dVertex
10
452.700015000000
20
71.500000000000
30
0.0
0
VERTEX
5
857
100
AcDbEntity
8
0-0
6
CONTINUOUS
62
  7
100
AcDbVertex
100
AcDb2dVertex
10
454.700015000000
20
71.500000000000
30
0.0
0
VERTEX
5
858
100
AcDbEntity
8
0-0
6
CONTINUOUS
62
  7
100
AcDbVertex
100
AcDb2dVertex
10
454.700015000000
20
79.500000000000
30
0.0
0
VERTEX
5
859
100
AcDbEntity
8
0-0
6
CONTINUOUS
62
  7
100
AcDbVertex
100
AcDb2dVertex
10
452.700015000000
20
79.500000000000
30
0.0
0
SEQEND
5
85a
100
AcDbEntity
8
0-0
0
ARC
5
85b
100
AcDbEntity
8
0-0
6
CONTINUOUS
62
7
100
AcDbCircle
10
417.999995000000
20
65.000000000000
30
0.0
40
13.499999000000
100
AcDbArc
50
90.000152000000
51
270.000000000000
0
ARC
5
85c
100
AcDbEntity
8
0-0
6
CONTINUOUS
62
7
100
AcDbCircle
10
417.999995000000
20
65.000000000000
30
0.0
40
7.499999200000
100
AcDbArc
50
90.000152000000
51
270.000000000000
0
ARC
5
85d
100
AcDbEntity
8
0-0
6
CONTINUOUS
62
7
100
AcDbCircle
10
452.000005000000
20
65.000000000000
30
0.0
40
7.499999200000
100
AcDbArc
50
270.000000000000
51
428.899734000000
0
ARC
5
85e
100
AcDbEntity
8
0-0
6
CONTINUOUS
62
7
100
AcDbCircle
10
452.000005000000
20
65.000000000000
30
0.0
40
13.499999000000
100
AcDbArc
50
270.000150000000
51
438.462997000000
0
ARC
5
85f
100
AcDbEntity
8
0-0
6
CONTINUOUS
62
7
100
AcDbCircle
10
450.252175000000
20
77.743120000000
30
0.0
40
2.447832800000
100
AcDbArc
50
292.781400000000
51
427.218597000000
0
ARC
5
860
100
AcDbEntity
8
0-0
6
CONTINUOUS
62
7
100
AcDbCircle
10
450.272785000000
20
73.243120000000
30
0.0
40
2.427209500000
100
AcDbArc
50
292.458120000000
51
427.541946000000
0
ARC
5
861
100
AcDbEntity
8
0-0
6
CONTINUOUS
62
7
100
AcDbCircle
10
437.147825000000
20
77.743120000000
30
0.0
40
2.447832800000
100
AcDbArc
50
112.781400000000
51
247.218590000000
0
ARC
5
862
100
AcDbEntity
8
0-0
6
CONTINUOUS
62
7
100
AcDbCircle
10
437.127205000000
20
73.243120000000
30
0.0
40
2.427209500000
100
AcDbArc
50
112.458050000000
51
247.541870000000
0
LINE
5
863
100
AcDbEntity
8
0-0
6
CONTINUOUS
62
7
100
AcDbLine
10
420.199995000000
20
72.250000000000
30
0.0
11
425.199995000000
21
72.250000000000
31
0.0
0
LINE
5
864
100
AcDbEntity
8
0-0
6
CONTINUOUS
62
7
100
AcDbLine
10
420.199995000000
20
78.750000000000
30
0.0
11
425.199995000000
21
78.750000000000
31
0.0
0
LINE
5
865
100
AcDbEntity
8
0-1
6
CENTER
62
4
100
AcDbLine
10
417.999995000000
20
54.500000000000
30
0.0
11
452.000005000000
21
54.500000000000
31
0.0
0
LINE
5
866
100
AcDbEntity
8
0-1
6
CONTINUOUS
62
4
100
AcDbLine
10
420.199995000000
20
72.750000000000
30
0.0
11
425.199995000000
21
72.750000000000
31
0.0
0
LINE
5
867
100
AcDbEntity
8
0-1
6
CONTINUOUS
62
4
100
AcDbLine
10
425.199995000000
20
78.250000000000
30
0.0
11
420.199995000000
21
78.250000000000
31
0.0
0
LINE
5
868
100
AcDbEntity
8
0-1
6
CENTER
62
4
100
AcDbLine
10
417.999995000000
20
75.500000000000
30
0.0
11
452.000005000000
21
75.500000000000
31
0.0
0
ARC
5
869
100
AcDbEntity
8
0-1
6
CENTER
62
4
100
AcDbCircle
10
417.999995000000
20
65.000000000000
30
0.0
40
10.500000000000
100
AcDbArc
50
90.000000000000
51
270.000000000000
0
ARC
5
86a
100
AcDbEntity
8
0-1
6
CENTER
62
4
100
AcDbCircle
10
452.000005000000
20
65.000000000000
30
0.0
40
10.500000000000
100
AcDbArc
50
270.000000000000
51
450.000000000000
0
TEXT
5
86b
100
AcDbEntity
8
0-0
62
7
370
-3
100
AcDbText
10
390.200
20
100.767
30
0.0
40
4.208
1
SH-5
41
0.511
50
0.000
100
AcDbText
0
TEXT
5
86c
100
AcDbEntity
8
0-0
62
7
370
-3
100
AcDbText
10
390.200
20
30.767
30
0.0
40
4.208
1
SH-6
41
0.512
50
0.000
100
AcDbText
0
TEXT
5
86d
100
AcDbEntity
8
0-0
62
7
370
-3
100
AcDbText
10
479.979
20
100.767
30
0.0
40
4.208
1
ORI-5
41
0.554
50
0.000
100
AcDbText
0
TEXT
5
86e
100
AcDbEntity
8
0-0
62
7
370
-3
100
AcDbText
10
480.200
20
30.767
30
0.0
40
4.208
1
ORI-6
41
0.555
50
0.000
100
AcDbText
0
LINE
5
86f
100
AcDbEntity
8
0-0
6
CONTINUOUS
62
7
100
AcDbLine
10
557.000030000000
20
123.000001000000
30
0.0
11
562.499990000000
21
123.000001000000
31
0.0
0
POLYLINE
5
870
100
AcDbEntity
8
0-0
6
CONTINUOUS
62
  7
100
AcDb2dPolyline
66
1
10
0.0
20
0.0
30
0.0
70
0
0
VERTEX
5
871
100
AcDbEntity
8
0-0
6
CONTINUOUS
62
  7
100
AcDbVertex
100
AcDb2dVertex
10
562.499990000000
20
118.500004000000
30
0.0
0
VERTEX
5
872
100
AcDbEntity
8
0-0
6
CONTINUOUS
62
  7
100
AcDbVertex
100
AcDb2dVertex
10
565.000000000000
20
118.500004000000
30
0.0
0
VERTEX
5
873
100
AcDbEntity
8
0-0
6
CONTINUOUS
62
  7
100
AcDbVertex
100
AcDb2dVertex
10
565.000000000000
20
151.499987000000
30
0.0
0
VERTEX
5
874
100
AcDbEntity
8
0-0
6
CONTINUOUS
62
  7
100
AcDbVertex
100
AcDb2dVertex
10
562.499990000000
20
151.499987000000
30
0.0
0
VERTEX
5
875
100
AcDbEntity
8
0-0
6
CONTINUOUS
62
  7
100
AcDbVertex
100
AcDb2dVertex
10
562.499990000000
20
118.500004000000
30
0.0
0
SEQEND
5
876
100
AcDbEntity
8
0-0
0
LINE
5
877
100
AcDbEntity
8
0-0
6
CONTINUOUS
62
7
100
AcDbLine
10
562.499990000000
20
128.000008000000
30
0.0
11
557.000030000000
21
128.000008000000
31
0.0
0
LINE
5
878
100
AcDbEntity
8
0-0
6
CONTINUOUS
62
7
100
AcDbLine
10
552.500000000000
20
140.361891000000
30
0.0
11
552.500000000000
21
146.124277000000
31
0.0
0
ARC
5
879
100
AcDbEntity
8
0-0
6
CONTINUOUS
62
7
100
AcDbCircle
10
557.000030000000
20
135.000000000000
30
0.0
40
12.000000000000
100
AcDbArc
50
112.024445000000
51
270.000000000000
0
ARC
5
87a
100
AcDbEntity
8
0-0
6
CONTINUOUS
62
7
100
AcDbCircle
10
557.000030000000
20
135.000000000000
30
0.0
40
6.999999600000
100
AcDbArc
50
130.005417000000
51
270.000000000000
0
LINE
5
87b
100
AcDbEntity
8
0-1
6
DASHED
62
4
100
AcDbLine
10
562.500010000000
20
130.999995000000
30
0.0
11
565.000000000000
21
132.899999000000
31
0.0
0
LINE
5
87c
100
AcDbEntity
8
0-1
6
DASHED
62
4
100
AcDbLine
10
562.500010000000
20
139.000005000000
30
0.0
11
565.000000000000
21
137.100001000000
31
0.0
0
LINE
5
87d
100
AcDbEntity
8
0-0
6
CONTINUOUS
62
7
100
AcDbLine
10
562.500000000000
20
55.499996000000
30
0.0
11
554.500010000000
21
55.499996000000
31
0.0
0
LINE
5
87e
100
AcDbEntity
8
0-0
6
CONTINUOUS
62
7
100
AcDbLine
10
554.500010000000
20
49.499987000000
30
0.0
11
562.500000000000
21
49.499987000000
31
0.0
0
POLYLINE
5
87f
100
AcDbEntity
8
0-0
6
CONTINUOUS
62
  7
100
AcDb2dPolyline
66
1
10
0.0
20
0.0
30
0.0
70
0
0
VERTEX
5
880
100
AcDbEntity
8
0-0
6
CONTINUOUS
62
  7
100
AcDbVertex
100
AcDb2dVertex
10
562.500000000000
20
44.999999000000
30
0.0
0
VERTEX
5
881
100
AcDbEntity
8
0-0
6
CONTINUOUS
62
  7
100
AcDbVertex
100
AcDb2dVertex
10
565.000000000000
20
44.999999000000
30
0.0
0
VERTEX
5
882
100
AcDbEntity
8
0-0
6
CONTINUOUS
62
  7
100
AcDbVertex
100
AcDb2dVertex
10
565.000000000000
20
84.999986000000
30
0.0
0
VERTEX
5
883
100
AcDbEntity
8
0-0
6
CONTINUOUS
62
  7
100
AcDbVertex
100
AcDb2dVertex
10
562.500000000000
20
84.999986000000
30
0.0
0
VERTEX
5
884
100
AcDbEntity
8
0-0
6
CONTINUOUS
62
  7
100
AcDbVertex
100
AcDb2dVertex
10
562.500000000000
20
44.999999000000
30
0.0
0
SEQEND
5
885
100
AcDbEntity
8
0-0
0
LINE
5
886
100
AcDbEntity
8
0-0
6
CONTINUOUS
62
7
100
AcDbLine
10
549.500000000000
20
73.077726000000
30
0.0
11
549.500000000000
21
79.671376000000
31
0.0
0
ARC
5
887
100
AcDbEntity
8
0-0
6
CONTINUOUS
62
7
100
AcDbCircle
10
554.500010000000
20
65.000000000000
30
0.0
40
15.499999000000
100
AcDbArc
50
108.819245000000
51
270.000000000000
0
ARC
5
888
100
AcDbEntity
8
0-0
6
CONTINUOUS
62
7
100
AcDbCircle
10
554.500010000000
20
65.000000000000
30
0.0
40
9.499999700000
100
AcDbArc
50
121.757096000000
51
270.000000000000
0
POLYLINE
5
889
100
AcDbEntity
8
0-0
6
CONTINUOUS
62
  7
100
AcDb2dPolyline
66
1
10
0.0
20
0.0
30
0.0
70
0
0
VERTEX
5
88a
100
AcDbEntity
8
0-0
6
CONTINUOUS
62
  7
100
AcDbVertex
100
AcDb2dVertex
10
509.745184196068
20
79.659555325831
30
0.0
0
VERTEX
5
88b
100
AcDbEntity
8
0-0
6
CONTINUOUS
62
  7
100
AcDbVertex
100
AcDb2dVertex
10
510.269999953699
20
79.658100682969
30
0.0
0
VERTEX
5
88c
100
AcDbEntity
8
0-0
6
CONTINUOUS
62
  7
100
AcDbVertex
100
AcDb2dVertex
10
510.786611899363
20
79.556877175984
30
0.0
0
VERTEX
5
88d
100
AcDbEntity
8
0-0
6
CONTINUOUS
62
  7
100
AcDbVertex
100
AcDb2dVertex
10
511.279323040509
20
79.358960429915
30
0.0
0
VERTEX
5
88e
100
AcDbEntity
8
0-0
6
CONTINUOUS
62
  7
100
AcDbVertex
100
AcDb2dVertex
10
511.733162598439
20
79.070364044941
30
0.0
0
VERTEX
5
88f
100
AcDbEntity
8
0-0
6
CONTINUOUS
62
  7
100
AcDbVertex
100
AcDb2dVertex
10
512.134340887837
20
78.699856876181
30
0.0
0
VERTEX
5
890
100
AcDbEntity
8
0-0
6
CONTINUOUS
62
  7
100
AcDbVertex
100
AcDb2dVertex
10
512.470668309387
20
78.258696596473
30
0.0
0
VERTEX
5
891
100
AcDbEntity
8
0-0
6
CONTINUOUS
62
  7
100
AcDbVertex
100
AcDb2dVertex
10
512.731925724575
20
77.760287637678
30
0.0
0
VERTEX
5
892
100
AcDbEntity
8
0-0
6
CONTINUOUS
62
  7
100
AcDbVertex
100
AcDb2dVertex
10
512.910174959043
20
77.219773903802
30
0.0
0
VERTEX
5
893
100
AcDbEntity
8
0-0
6
CONTINUOUS
62
  7
100
AcDbVertex
100
AcDb2dVertex
10
513.000000000000
20
76.653578631136
30
0.0
0
VERTEX
5
894
100
AcDbEntity
8
0-0
6
CONTINUOUS
62
  7
100
AcDbVertex
100
AcDb2dVertex
10
513.000000000000
20
52.499991000000
30
0.0
0
SEQEND
5
895
100
AcDbEntity
8
0-0
0
POLYLINE
5
896
100
AcDbEntity
8
0-0
6
CONTINUOUS
62
  7
100
AcDb2dPolyline
66
1
10
0.0
20
0.0
30
0.0
70
0
0
VERTEX
5
897
100
AcDbEntity
8
0-0
6
CONTINUOUS
62
  7
100
AcDbVertex
100
AcDb2dVertex
10
506.999990000000
20
52.499991000000
30
0.0
0
VERTEX
5
898
100
AcDbEntity
8
0-0
6
CONTINUOUS
62
  7
100
AcDbVertex
100
AcDb2dVertex
10
506.999990000000
20
76.653449684475
30
0.0
0
VERTEX
5
899
100
AcDbEntity
8
0-0
6
CONTINUOUS
62
  7
100
AcDbVertex
100
AcDb2dVertex
10
507.001328440970
20
76.670205275131
30
0.0
0
VERTEX
5
89a
100
AcDbEntity
8
0-0
6
CONTINUOUS
62
  7
100
AcDbVertex
100
AcDb2dVertex
10
507.093769999860
20
77.235895355633
30
0.0
0
VERTEX
5
89b
100
AcDbEntity
8
0-0
6
CONTINUOUS
62
  7
100
AcDbVertex
100
AcDb2dVertex
10
507.274515886681
20
77.775414055189
30
0.0
0
VERTEX
5
89c
100
AcDbEntity
8
0-0
6
CONTINUOUS
62
  7
100
AcDbVertex
100
AcDb2dVertex
10
507.538074229123
20
78.272368371121
30
0.0
0
VERTEX
5
89d
100
AcDbEntity
8
0-0
6
CONTINUOUS
62
  7
100
AcDbVertex
100
AcDb2dVertex
10
507.876436940320
20
78.711658598013
30
0.0
0
VERTEX
5
89e
100
AcDbEntity
8
0-0
6
CONTINUOUS
62
  7
100
AcDbVertex
100
AcDb2dVertex
10
508.279323040509
20
79.079937124610
30
0.0
0
VERTEX
5
89f
100
AcDbEntity
8
0-0
6
CONTINUOUS
62
  7
100
AcDbVertex
100
AcDb2dVertex
10
508.734491039409
20
79.366013994241
30
0.0
0
VERTEX
5
8a0
100
AcDbEntity
8
0-0
6
CONTINUOUS
62
  7
100
AcDbVertex
100
AcDb2dVertex
10
509.228110887697
20
79.561196905983
30
0.0
0
VERTEX
5
8a1
100
AcDbEntity
8
0-0
6
CONTINUOUS
62
  7
100
AcDbVertex
100
AcDb2dVertex
10
509.745184196068
20
79.659555325831
30
0.0
0
SEQEND
5
8a2
100
AcDbEntity
8
0-0
0
CIRCLE
5
8a3
100
AcDbEntity
8
0-0
6
CONTINUOUS
62
7
100
AcDbCircle
10
510.000000000000
20
65.000000000000
30
0.0
40
20.000000000000
0
CIRCLE
5
8a4
100
AcDbEntity
8
0-0
6
CONTINUOUS
62
7
100
AcDbCircle
10
498.500000000000
20
65.000000000000
30
0.0
40
2.599999800000
0
CIRCLE
5
8a5
100
AcDbEntity
8
0-0
6
CONTINUOUS
62
7
100
AcDbCircle
10
521.500000000000
20
65.000000000000
30
0.0
40
2.599999800000
0
CIRCLE
5
8a6
100
AcDbEntity
8
0-0
6
CONTINUOUS
62
7
100
AcDbCircle
10
498.500000000000
20
65.000000000000
30
0.0
40
4.500000000000
0
CIRCLE
5
8a7
100
AcDbEntity
8
0-0
6
CONTINUOUS
62
7
100
AcDbCircle
10
521.500000000000
20
65.000000000000
30
0.0
40
4.500000000000
0
ARC
5
8a8
100
AcDbEntity
8
0-0
6
CONTINUOUS
62
7
100
AcDbCircle
10
510.000000000000
20
52.499991000000
30
0.0
40
2.999999900000
100
AcDbArc
50
180.000000000000
51
360.000000000000
0
LINE
5
8a9
100
AcDbEntity
8
0-1
6
CENTER
62
4
100
AcDbLine
10
510.000000000000
20
45.000000000000
30
0.0
11
510.000000000000
21
85.000000000000
31
0.0
0
LINE
5
8aa
100
AcDbEntity
8
0-1
6
CENTER
62
4
100
AcDbLine
10
498.500000000000
20
71.731238590518
30
0.0
11
498.500000000000
21
58.268761409482
31
0.0
0
LINE
5
8ab
100
AcDbEntity
8
0-1
6
CENTER
62
4
100
AcDbLine
10
490.000000000000
20
65.000000000000
30
0.0
11
530.000000000000
21
65.000000000000
31
0.0
0
LINE
5
8ac
100
AcDbEntity
8
0-1
6
CENTER
62
4
100
AcDbLine
10
521.500000000000
20
58.268761409482
30
0.0
11
521.500000000000
21
71.731238590518
31
0.0
0
LINE
5
8ad
100
AcDbEntity
8
0-0
6
CONTINUOUS
62
7
100
AcDbLine
10
507.500000000000
20
125.499996000000
30
0.0
11
507.500000000000
21
143.431975186501
31
0.0
0
LINE
5
8ae
100
AcDbEntity
8
0-0
6
CONTINUOUS
62
7
100
AcDbLine
10
512.500010000000
20
143.431800065540
30
0.0
11
512.500010000000
21
125.499996000000
31
0.0
0
CIRCLE
5
8af
100
AcDbEntity
8
0-0
6
CONTINUOUS
62
7
100
AcDbCircle
10
510.000000000000
20
135.000000000000
30
0.0
40
16.499999000000
0
CIRCLE
5
8b0
100
AcDbEntity
8
0-0
6
CONTINUOUS
62
7
100
AcDbCircle
10
500.500000000000
20
135.000000000000
30
0.0
40
2.099999800000
0
CIRCLE
5
8b1
100
AcDbEntity
8
0-0
6
CONTINUOUS
62
7
100
AcDbCircle
10
519.500010000000
20
135.000000000000
30
0.0
40
2.099999800000
0
CIRCLE
5
8b2
100
AcDbEntity
8
0-0
6
CONTINUOUS
62
7
100
AcDbCircle
10
500.500000000000
20
135.000000000000
30
0.0
40
3.999999900000
0
CIRCLE
5
8b3
100
AcDbEntity
8
0-0
6
CONTINUOUS
62
7
100
AcDbCircle
10
519.500010000000
20
135.000000000000
30
0.0
40
3.999999900000
0
ARC
5
8b4
100
AcDbEntity
8
0-0
6
CONTINUOUS
62
7
100
AcDbCircle
10
510.000000000000
20
125.499996000000
30
0.0
40
2.500000100000
100
AcDbArc
50
180.000000000000
51
359.999840000000
0
POLYLINE
5
8b5
100
AcDbEntity
8
0-0
6
CONTINUOUS
62
  7
100
AcDb2dPolyline
66
1
10
0.0
20
0.0
30
0.0
70
0
0
VERTEX
5
8b6
100
AcDbEntity
8
0-0
6
CONTINUOUS
62
  7
100
AcDbVertex
100
AcDb2dVertex
10
512.500010000000
20
143.431800065540
30
0.0
0
VERTEX
5
8b7
100
AcDbEntity
8
0-0
6
CONTINUOUS
62
  7
100
AcDbVertex
100
AcDb2dVertex
10
512.433534185217
20
143.928173630833
30
0.0
0
VERTEX
5
8b8
100
AcDbEntity
8
0-0
6
CONTINUOUS
62
  7
100
AcDbVertex
100
AcDb2dVertex
10
512.293116665644
20
144.403731251613
30
0.0
0
VERTEX
5
8b9
100
AcDbEntity
8
0-0
6
CONTINUOUS
62
  7
100
AcDbVertex
100
AcDb2dVertex
10
512.083023956558
20
144.844023350216
30
0.0
0
VERTEX
5
8ba
100
AcDbEntity
8
0-0
6
CONTINUOUS
62
  7
100
AcDbVertex
100
AcDb2dVertex
10
511.809639618614
20
145.235671874026
30
0.0
0
VERTEX
5
8bb
100
AcDbEntity
8
0-0
6
CONTINUOUS
62
  7
100
AcDbVertex
100
AcDb2dVertex
10
511.481270296579
20
145.566776780830
30
0.0
0
VERTEX
5
8bc
100
AcDbEntity
8
0-0
6
CONTINUOUS
62
  7
100
AcDbVertex
100
AcDb2dVertex
10
511.107893326142
20
145.827277615582
30
0.0
0
VERTEX
5
8bd
100
AcDbEntity
8
0-0
6
CONTINUOUS
62
  7
100
AcDbVertex
100
AcDb2dVertex
10
510.700853577611
20
146.009259192238
30
0.0
0
VERTEX
5
8be
100
AcDbEntity
8
0-0
6
CONTINUOUS
62
  7
100
AcDbVertex
100
AcDb2dVertex
10
510.272518747774
20
146.107192092679
30
0.0
0
VERTEX
5
8bf
100
AcDbEntity
8
0-0
6
CONTINUOUS
62
  7
100
AcDbVertex
100
AcDb2dVertex
10
509.835903573686
20
146.118100675280
30
0.0
0
VERTEX
5
8c0
100
AcDbEntity
8
0-0
6
CONTINUOUS
62
  7
100
AcDbVertex
100
AcDb2dVertex
10
509.404274386476
20
146.041653488279
30
0.0
0
VERTEX
5
8c1
100
AcDbEntity
8
0-0
6
CONTINUOUS
62
  7
100
AcDbVertex
100
AcDb2dVertex
10
508.990746020580
20
145.880173340770
30
0.0
0
VERTEX
5
8c2
100
AcDbEntity
8
0-0
6
CONTINUOUS
62
  7
100
AcDbVertex
100
AcDb2dVertex
10
508.607883326142
20
145.638566725322
30
0.0
0
VERTEX
5
8c3
100
AcDbEntity
8
0-0
6
CONTINUOUS
62
  7
100
AcDbVertex
100
AcDb2dVertex
10
508.267319392394
20
145.324174736685
30
0.0
0
VERTEX
5
8c4
100
AcDbEntity
8
0-0
6
CONTINUOUS
62
  7
100
AcDbVertex
100
AcDb2dVertex
10
507.979402082130
20
144.946550016346
30
0.0
0
VERTEX
5
8c5
100
AcDbEntity
8
0-0
6
CONTINUOUS
62
  7
100
AcDbVertex
100
AcDb2dVertex
10
507.752879617128
20
144.517166500343
30
0.0
0
VERTEX
5
8c6
100
AcDbEntity
8
0-0
6
CONTINUOUS
62
  7
100
AcDbVertex
100
AcDb2dVertex
10
507.594634767862
20
144.049070789533
30
0.0
0
VERTEX
5
8c7
100
AcDbEntity
8
0-0
6
CONTINUOUS
62
  7
100
AcDbVertex
100
AcDb2dVertex
10
507.509475724001
20
143.556485735220
30
0.0
0
VERTEX
5
8c8
100
AcDbEntity
8
0-0
6
CONTINUOUS
62
  7
100
AcDbVertex
100
AcDb2dVertex
10
507.500000000000
20
143.431975186501
30
0.0
0
SEQEND
5
8c9
100
AcDbEntity
8
0-0
0
LINE
5
8ca
100
AcDbEntity
8
0-1
6
CENTER
62
4
100
AcDbLine
10
526.499999000000
20
135.000000000000
30
0.0
11
493.500001000000
21
135.000000000000
31
0.0
0
LINE
5
8cb
100
AcDbEntity
8
0-1
6
CENTER
62
4
100
AcDbLine
10
500.500000000000
20
138.999999900000
30
0.0
11
500.500000000000
21
131.000000100000
31
0.0
0
LINE
5
8cc
100
AcDbEntity
8
0-1
6
CENTER
62
4
100
AcDbLine
10
519.500010000000
20
138.999999900000
30
0.0
11
519.500010000000
21
131.000000100000
31
0.0
0
LINE
5
8cd
100
AcDbEntity
8
0-1
6
CENTER
62
4
100
AcDbLine
10
510.000000000000
20
118.500001000000
30
0.0
11
510.000000000000
21
151.499999000000
31
0.0
0
LINE
5
8ce
100
AcDbEntity
8
F-F_J_ADD
6
HIDDEN
62
253
100
AcDbLine
10
390.000000000000
20
240.000000000000
30
0.0
11
390.000000000000
21
30.000000000000
31
0.0
0
LINE
5
8cf
100
AcDbEntity
8
F-F_J_ADD
6
HIDDEN
62
253
100
AcDbLine
10
480.000000000000
20
30.000000000000
30
0.0
11
480.000000000000
21
170.000000000000
31
0.0
0
LINE
5
8d0
100
AcDbEntity
8
F-F_J_ADD
6
HIDDEN
62
253
100
AcDbLine
10
435.000000000000
20
30.000000000000
30
0.0
11
435.000000000000
21
170.000000000000
31
0.0
0
LINE
5
8d1
100
AcDbEntity
8
0-1
6
DASHED
62
4
100
AcDbLine
10
562.500010000000
20
60.999999500000
30
0.0
11
565.000000000000
21
62.900003500000
31
0.0
0
LINE
5
8d2
100
AcDbEntity
8
0-1
6
DASHED
62
4
100
AcDbLine
10
562.500010000000
20
69.000009500000
30
0.0
11
565.000000000000
21
67.100005500000
31
0.0
0
LINE
5
8d3
100
AcDbEntity
8
0-1
6
CENTER
62
4
100
AcDbLine
10
521.838222522103
20
65.000000000000
30
0.0
11
645.562099590661
21
65.000000000000
31
0.0
0
LINE
5
8d4
100
AcDbEntity
8
0-0
6
CONTINUOUS
62
7
100
AcDbLine
10
607.500000000000
20
144.499995000000
30
0.0
11
607.500000000000
21
125.500013000000
31
0.0
0
LINE
5
8d5
100
AcDbEntity
8
0-0
6
CONTINUOUS
62
7
100
AcDbLine
10
612.500000000000
20
125.500004000000
30
0.0
11
612.500000000000
21
144.499995000000
31
0.0
0
CIRCLE
5
8d6
100
AcDbEntity
8
0-0
6
CONTINUOUS
62
7
100
AcDbCircle
10
619.500010000000
20
135.000000000000
30
0.0
40
3.699999800000
0
CIRCLE
5
8d7
100
AcDbEntity
8
0-0
6
CONTINUOUS
62
7
100
AcDbCircle
10
600.500000000000
20
135.000000000000
30
0.0
40
3.699999800000
0
CIRCLE
5
8d8
100
AcDbEntity
8
0-0
6
CONTINUOUS
62
7
100
AcDbCircle
10
619.500010000000
20
135.000000000000
30
0.0
40
2.099999800000
0
CIRCLE
5
8d9
100
AcDbEntity
8
0-0
6
CONTINUOUS
62
7
100
AcDbCircle
10
600.500000000000
20
135.000000000000
30
0.0
40
2.099999800000
0
CIRCLE
5
8da
100
AcDbEntity
8
0-0
6
CONTINUOUS
62
7
100
AcDbCircle
10
610.000000000000
20
135.000000000000
30
0.0
40
16.499999000000
0
ARC
5
8db
100
AcDbEntity
8
0-0
6
CONTINUOUS
62
7
100
AcDbCircle
10
610.000000000000
20
125.500004000000
30
0.0
40
2.500000100000
100
AcDbArc
50
180.000150000000
51
360.000000000000
0
ARC
5
8dc
100
AcDbEntity
8
0-0
6
CONTINUOUS
62
7
100
AcDbCircle
10
610.000000000000
20
144.499995000000
30
0.0
40
2.500000100000
100
AcDbArc
50
0.000000000000
51
179.999840000000
0
LINE
5
8dd
100
AcDbEntity
8
0-1
6
CENTER
62
4
100
AcDbLine
10
626.499999000000
20
135.000000000000
30
0.0
11
593.500001000000
21
135.000000000000
31
0.0
0
LINE
5
8de
100
AcDbEntity
8
0-1
6
CENTER
62
4
100
AcDbLine
10
600.499990000000
20
129.243913623045
30
0.0
11
600.499990000000
21
140.756086376955
31
0.0
0
LINE
5
8df
100
AcDbEntity
8
0-1
6
CENTER
62
4
100
AcDbLine
10
610.000000000000
20
151.499999000000
30
0.0
11
610.000000000000
21
118.500001000000
31
0.0
0
LINE
5
8e0
100
AcDbEntity
8
0-1
6
CENTER
62
4
100
AcDbLine
10
619.500010000000
20
129.243913623045
30
0.0
11
619.500010000000
21
140.756086376955
31
0.0
0
LINE
5
8e1
100
AcDbEntity
8
0-1
6
CENTER
62
4
100
AcDbLine
10
610.000000000000
20
85.000000000000
30
0.0
11
610.000000000000
21
42.000003500000
31
0.0
0
LINE
5
8e2
100
AcDbEntity
8
0-1
6
CENTER
62
4
100
AcDbLine
10
598.500000000000
20
72.671803861507
30
0.0
11
598.500000000000
21
57.328196138493
31
0.0
0
LINE
5
8e3
100
AcDbEntity
8
0-1
6
CENTER
62
4
100
AcDbLine
10
621.500000000000
20
72.671803861507
30
0.0
11
621.500000000000
21
57.328196138493
31
0.0
0
LINE
5
8e4
100
AcDbEntity
8
0-1
6
CENTER
62
4
100
AcDbLine
10
590.000000000000
20
65.000000000000
30
0.0
11
630.000000000000
21
65.000000000000
31
0.0
0
CIRCLE
5
8e5
100
AcDbEntity
8
0-0
6
CONTINUOUS
62
7
100
AcDbCircle
10
621.500000000000
20
65.000000000000
30
0.0
40
4.449999700000
0
CIRCLE
5
8e6
100
AcDbEntity
8
0-0
6
CONTINUOUS
62
7
100
AcDbCircle
10
598.500000000000
20
65.000000000000
30
0.0
40
4.449999700000
0
CIRCLE
5
8e7
100
AcDbEntity
8
0-0
6
CONTINUOUS
62
7
100
AcDbCircle
10
621.500000000000
20
65.000000000000
30
0.0
40
2.599999800000
0
CIRCLE
5
8e8
100
AcDbEntity
8
0-0
6
CONTINUOUS
62
7
100
AcDbCircle
10
598.500000000000
20
65.000000000000
30
0.0
40
2.599999800000
0
ARC
5
8e9
100
AcDbEntity
8
0-0
6
CONTINUOUS
62
7
100
AcDbCircle
10
610.000000000000
20
52.500001000000
30
0.0
40
2.999999900000
100
AcDbArc
50
180.000150000000
51
360.000000000000
0
ARC
5
8ea
100
AcDbEntity
8
0-0
6
CONTINUOUS
62
7
100
AcDbCircle
10
610.000000000000
20
77.499994000000
30
0.0
40
2.999999900000
100
AcDbArc
50
0.000000000000
51
179.999840000000
0
CIRCLE
5
8eb
100
AcDbEntity
8
0-0
6
CONTINUOUS
62
7
100
AcDbCircle
10
610.000000000000
20
65.000000000000
30
0.0
40
20.000000000000
0
LINE
5
8ec
100
AcDbEntity
8
0-0
6
CONTINUOUS
62
7
100
AcDbLine
10
607.000000000000
20
77.500004000000
30
0.0
11
607.000000000000
21
52.499992000000
31
0.0
0
LINE
5
8ed
100
AcDbEntity
8
0-0
6
CONTINUOUS
62
7
100
AcDbLine
10
613.000010000000
20
52.500001000000
30
0.0
11
613.000010000000
21
77.499994000000
31
0.0
0
LINE
5
8ee
100
AcDbEntity
8
0-1
6
DASHED
62
4
100
AcDbLine
10
664.099997800000
20
132.895782000000
30
0.0
11
665.000000000000
21
132.895782000000
31
0.0
0
LINE
5
8ef
100
AcDbEntity
8
0-1
6
CENTER
62
4
100
AcDbLine
10
665.000000000000
20
135.000000000000
30
0.0
11
644.999991000000
21
135.000000000000
31
0.0
0
LINE
5
8f0
100
AcDbEntity
8
0-1
6
DASHED
62
4
100
AcDbLine
10
664.100000000000
20
137.104209000000
30
0.0
11
665.000000000000
21
137.104209000000
31
0.0
0
LINE
5
8f1
100
AcDbEntity
8
0-1
6
DASHED
62
4
100
AcDbLine
10
664.100000000000
20
137.099999800000
30
0.0
11
662.500000000000
21
138.699999800000
31
0.0
0
LINE
5
8f2
100
AcDbEntity
8
0-1
6
DASHED
62
4
100
AcDbLine
10
664.099997800000
20
132.899998000000
30
0.0
11
664.100000000000
21
137.099999800000
31
0.0
0
LINE
5
8f3
100
AcDbEntity
8
0-1
6
DASHED
62
4
100
AcDbLine
10
662.500000000000
20
131.300000200000
30
0.0
11
664.099997800000
21
132.899998000000
31
0.0
0
ARC
5
8f4
100
AcDbEntity
8
0-0
6
CONTINUOUS
62
7
100
AcDbCircle
10
656.999990000000
20
135.000000000000
30
0.0
40
11.999999000000
100
AcDbArc
50
90.000153000000
51
90.000168000000
0
ARC
5
8f5
100
AcDbEntity
8
0-0
6
CONTINUOUS
62
7
100
AcDbCircle
10
656.999990000000
20
135.000000000000
30
0.0
40
11.999999000000
100
AcDbArc
50
90.000168000000
51
270.000000000000
0
ARC
5
8f6
100
AcDbEntity
8
0-0
6
CONTINUOUS
62
7
100
AcDbCircle
10
656.999990000000
20
135.000000000000
30
0.0
40
6.999999600000
100
AcDbArc
50
90.000168000000
51
270.000000000000
0
LINE
5
8f7
100
AcDbEntity
8
0-0
6
CONTINUOUS
62
7
100
AcDbLine
10
662.500000000000
20
146.999995000000
30
0.0
11
656.999950000000
21
146.999995000000
31
0.0
0
LINE
5
8f8
100
AcDbEntity
8
0-0
6
CONTINUOUS
62
7
100
AcDbLine
10
656.999970000000
20
141.999995000000
30
0.0
11
662.500000000000
21
141.999995000000
31
0.0
0
LINE
5
8f9
100
AcDbEntity
8
0-0
6
CONTINUOUS
62
7
100
AcDbLine
10
656.999990000000
20
127.999999000000
30
0.0
11
662.500000000000
21
127.999999000000
31
0.0
0
LINE
5
8fa
100
AcDbEntity
8
0-0
6
CONTINUOUS
62
7
100
AcDbLine
10
662.500000000000
20
123.000001000000
30
0.0
11
656.999990000000
21
123.000001000000
31
0.0
0
LINE
5
8fb
100
AcDbEntity
8
0-0
6
CONTINUOUS
62
7
100
AcDbLine
10
665.000000000000
20
151.449995000000
30
0.0
11
665.000000000000
21
118.550003000000
31
0.0
0
LINE
5
8fc
100
AcDbEntity
8
0-0
6
CONTINUOUS
62
7
100
AcDbLine
10
662.500000000000
20
151.449995000000
30
0.0
11
665.000000000000
21
151.449995000000
31
0.0
0
LINE
5
8fd
100
AcDbEntity
8
0-0
6
CONTINUOUS
62
7
100
AcDbLine
10
662.500000000000
20
118.550003000000
30
0.0
11
662.500000000000
21
151.449995000000
31
0.0
0
LINE
5
8fe
100
AcDbEntity
8
0-0
6
CONTINUOUS
62
7
100
AcDbLine
10
665.000000000000
20
118.550003000000
30
0.0
11
662.500000000000
21
118.550003000000
31
0.0
0
LINE
5
8ff
100
AcDbEntity
8
0-1
6
DASHED
62
4
100
AcDbLine
10
664.243850000000
20
62.449998000000
30
0.0
11
662.500010000000
21
60.549994000000
31
0.0
0
LINE
5
900
100
AcDbEntity
8
0-1
6
DASHED
62
4
100
AcDbLine
10
664.243850000000
20
67.550003000000
30
0.0
11
665.000000000000
21
67.550003000000
31
0.0
0
LINE
5
901
100
AcDbEntity
8
0-1
6
DASHED
62
4
100
AcDbLine
10
664.243850000000
20
67.550003000000
30
0.0
11
662.500010000000
21
69.450007000000
31
0.0
0
LINE
5
902
100
AcDbEntity
8
0-1
6
DASHED
62
4
100
AcDbLine
10
664.243850000000
20
62.449998000000
30
0.0
11
664.243850000000
21
67.550003000000
31
0.0
0
LINE
5
903
100
AcDbEntity
8
0-1
6
DASHED
62
4
100
AcDbLine
10
665.000000000000
20
62.449998000000
30
0.0
11
664.243850000000
21
62.449998000000
31
0.0
0
LINE
5
904
100
AcDbEntity
8
0-1
6
CENTER
62
4
100
AcDbLine
10
639.500011000000
20
65.000000000000
30
0.0
11
665.000000000000
21
65.000000000000
31
0.0
0
ARC
5
905
100
AcDbEntity
8
0-0
6
CONTINUOUS
62
7
100
AcDbCircle
10
655.000010000000
20
65.000000000000
30
0.0
40
15.499999000000
100
AcDbArc
50
91.847794000000
51
268.151400000000
0
ARC
5
906
100
AcDbEntity
8
0-0
6
CONTINUOUS
62
7
100
AcDbCircle
10
655.000010000000
20
65.000000000000
30
0.0
40
9.499999700000
100
AcDbArc
50
93.013001000000
51
266.982990000000
0
LINE
5
907
100
AcDbEntity
8
0-0
6
CONTINUOUS
62
7
100
AcDbLine
10
654.500000000000
20
80.500004000000
30
0.0
11
662.500010000000
21
80.500004000000
31
0.0
0
LINE
5
908
100
AcDbEntity
8
0-0
6
CONTINUOUS
62
7
100
AcDbLine
10
662.500010000000
20
74.500004000000
30
0.0
11
654.500000000000
21
74.500004000000
31
0.0
0
LINE
5
909
100
AcDbEntity
8
0-0
6
CONTINUOUS
62
7
100
AcDbLine
10
662.500010000000
20
84.935004000000
30
0.0
11
662.500010000000
21
45.065003000000
31
0.0
0
LINE
5
90a
100
AcDbEntity
8
0-0
6
CONTINUOUS
62
7
100
AcDbLine
10
665.000000000000
20
84.935004000000
30
0.0
11
662.500010000000
21
84.935004000000
31
0.0
0
LINE
5
90b
100
AcDbEntity
8
0-0
6
CONTINUOUS
62
7
100
AcDbLine
10
665.000000000000
20
45.065003000000
30
0.0
11
665.000000000000
21
84.935004000000
31
0.0
0
LINE
5
90c
100
AcDbEntity
8
0-0
6
CONTINUOUS
62
7
100
AcDbLine
10
662.500010000000
20
45.065003000000
30
0.0
11
665.000000000000
21
45.065003000000
31
0.0
0
LINE
5
90d
100
AcDbEntity
8
0-0
6
CONTINUOUS
62
7
100
AcDbLine
10
654.500000000000
20
49.499997000000
30
0.0
11
662.500010000000
21
49.499997000000
31
0.0
0
LINE
5
90e
100
AcDbEntity
8
0-0
6
CONTINUOUS
62
7
100
AcDbLine
10
662.500010000000
20
55.499996000000
30
0.0
11
654.500000000000
21
55.499996000000
31
0.0
0
TEXT
5
90f
100
AcDbEntity
8
0-0
62
7
370
-3
100
AcDbText
10
580.200
20
30.767
30
0.0
40
4.208
1
RI-6
41
0.563
50
0.000
100
AcDbText
0
TEXT
5
910
100
AcDbEntity
8
0-0
62
7
370
-3
100
AcDbText
10
580.200
20
100.767
30
0.0
40
4.208
1
RI-5
41
0.562
50
0.000
100
AcDbText
0
LINE
5
911
100
AcDbEntity
8
F-F_J_ADD
6
HIDDEN
62
253
100
AcDbLine
10
580.000000000000
20
30.000000000000
30
0.0
11
580.000000000000
21
170.000000000000
31
0.0
0
LINE
5
912
100
AcDbEntity
8
0-0
6
CONTINUOUS
62
7
100
AcDbLine
10
749.000000000000
20
72.483316500000
30
0.0
11
749.000000000000
21
79.142126500000
31
0.0
0
POLYLINE
5
913
100
AcDbEntity
8
0-0
6
CONTINUOUS
62
  7
100
AcDb2dPolyline
66
1
10
0.0
20
0.0
30
0.0
70
0
0
VERTEX
5
914
100
AcDbEntity
8
0-0
6
CONTINUOUS
62
  7
100
AcDbVertex
100
AcDb2dVertex
10
763.000000000000
20
94.999996500000
30
0.0
0
VERTEX
5
915
100
AcDbEntity
8
0-0
6
CONTINUOUS
62
  7
100
AcDbVertex
100
AcDb2dVertex
10
765.000000000000
20
94.999996500000
30
0.0
0
VERTEX
5
916
100
AcDbEntity
8
0-0
6
CONTINUOUS
62
  7
100
AcDbVertex
100
AcDb2dVertex
10
765.000000000000
20
35.000003500000
30
0.0
0
VERTEX
5
917
100
AcDbEntity
8
0-0
6
CONTINUOUS
62
  7
100
AcDbVertex
100
AcDb2dVertex
10
763.000000000000
20
35.000003500000
30
0.0
0
VERTEX
5
918
100
AcDbEntity
8
0-0
6
CONTINUOUS
62
  7
100
AcDbVertex
100
AcDb2dVertex
10
763.000000000000
20
94.999996500000
30
0.0
0
SEQEND
5
919
100
AcDbEntity
8
0-0
0
LINE
5
91a
100
AcDbEntity
8
0-0
6
CONTINUOUS
62
7
100
AcDbLine
10
763.000000000000
20
55.999996500000
30
0.0
11
753.999980000000
21
55.999996500000
31
0.0
0
LINE
5
91b
100
AcDbEntity
8
0-0
6
CONTINUOUS
62
7
100
AcDbLine
10
753.999980000000
20
49.999997500000
30
0.0
11
763.000000000000
21
49.999997500000
31
0.0
0
ARC
5
91c
100
AcDbEntity
8
0-0
6
CONTINUOUS
62
7
100
AcDbCircle
10
753.999980000000
20
64.999986500000
30
0.0
40
9.000000100000
100
AcDbArc
50
123.748887000000
51
270.000000000000
0
ARC
5
91d
100
AcDbEntity
8
0-0
6
CONTINUOUS
62
7
100
AcDbCircle
10
753.999980000000
20
64.999986500000
30
0.0
40
15.000000000000
100
AcDbArc
50
109.471177000000
51
270.000000000000
0
LINE
5
91e
100
AcDbEntity
8
0-1
6
CENTER
62
4
100
AcDbLine
10
765.000000000000
20
65.000000000000
30
0.0
11
738.999980000006
21
65.000000000000
31
0.0
0
LINE
5
91f
100
AcDbEntity
8
0-1
6
DASHED
62
4
100
AcDbLine
10
763.000000000000
20
83.499996500000
30
0.0
11
765.000000000000
21
85.399996500000
31
0.0
0
LINE
5
920
100
AcDbEntity
8
0-1
6
DASHED
62
4
100
AcDbLine
10
765.000000000000
20
90.599986500000
30
0.0
11
763.000000000000
21
92.499986500000
31
0.0
0
LINE
5
921
100
AcDbEntity
8
0-1
6
CENTER
62
4
100
AcDbLine
10
759.807561494539
20
87.999996500000
30
0.0
11
768.250290432936
21
87.999996500000
31
0.0
0
POLYLINE
5
922
100
AcDbEntity
8
0-0
6
CONTINUOUS
62
  7
100
AcDb2dPolyline
66
1
10
0.0
20
0.0
30
0.0
70
0
0
VERTEX
5
923
100
AcDbEntity
8
0-0
6
CONTINUOUS
62
  7
100
AcDbVertex
100
AcDb2dVertex
10
765.000000000000
20
157.500000000000
30
0.0
0
VERTEX
5
924
100
AcDbEntity
8
0-0
6
CONTINUOUS
62
  7
100
AcDbVertex
100
AcDb2dVertex
10
765.000000000000
20
112.500000000000
30
0.0
0
VERTEX
5
925
100
AcDbEntity
8
0-0
6
CONTINUOUS
62
  7
100
AcDbVertex
100
AcDb2dVertex
10
763.000000000000
20
112.500000000000
30
0.0
0
VERTEX
5
926
100
AcDbEntity
8
0-0
6
CONTINUOUS
62
  7
100
AcDbVertex
100
AcDb2dVertex
10
763.000000000000
20
157.500000000000
30
0.0
0
VERTEX
5
927
100
AcDbEntity
8
0-0
6
CONTINUOUS
62
  7
100
AcDbVertex
100
AcDb2dVertex
10
765.000000000000
20
157.500000000000
30
0.0
0
SEQEND
5
928
100
AcDbEntity
8
0-0
0
LINE
5
929
100
AcDbEntity
8
0-0
6
CONTINUOUS
62
7
100
AcDbLine
10
753.000000000000
20
146.661903789690
30
0.0
11
753.000000000000
21
141.000000000000
31
0.0
0
LINE
5
92a
100
AcDbEntity
8
0-0
6
CONTINUOUS
62
7
100
AcDbLine
10
763.000000000000
20
127.500000000000
30
0.0
11
757.500000000000
21
127.500000000000
31
0.0
0
LINE
5
92b
100
AcDbEntity
8
0-0
6
CONTINUOUS
62
7
100
AcDbLine
10
757.500000000000
20
122.500000000000
30
0.0
11
763.000000000000
21
122.500000000000
31
0.0
0
ARC
5
92c
100
AcDbEntity
8
0-0
6
CONTINUOUS
62
7
100
AcDbCircle
10
757.500000000000
20
135.000000000000
30
0.0
40
12.500000000000
100
AcDbArc
50
111.100196024093
51
270.000000000000
0
ARC
5
92d
100
AcDbEntity
8
0-0
6
CONTINUOUS
62
7
100
AcDbCircle
10
757.500000000000
20
135.000000000000
30
0.0
40
7.500000000000
100
AcDbArc
50
126.869897645844
51
270.000000000000
0
POLYLINE
5
92e
100
AcDbEntity
8
0-1
6
DASHED
62
  4
100
AcDb2dPolyline
66
1
10
0.0
20
0.0
30
0.0
70
0
0
VERTEX
5
92f
100
AcDbEntity
8
0-1
6
DASHED
62
  4
100
AcDbVertex
100
AcDb2dVertex
10
764.900000000000
20
154.600000000000
30
0.0
0
VERTEX
5
930
100
AcDbEntity
8
0-1
6
DASHED
62
  4
100
AcDbVertex
100
AcDb2dVertex
10
764.900000000000
20
150.400000000000
30
0.0
0
VERTEX
5
931
100
AcDbEntity
8
0-1
6
DASHED
62
  4
100
AcDbVertex
100
AcDb2dVertex
10
763.000000000000
20
148.500000000000
30
0.0
0
SEQEND
5
932
100
AcDbEntity
8
0-1
0
LINE
5
933
100
AcDbEntity
8
0-1
6
CENTER
62
4
100
AcDbLine
10
765.000000000000
20
152.500000000000
30
0.0
11
763.000000000000
21
152.500000000000
31
0.0
0
LINE
5
934
100
AcDbEntity
8
0-1
6
DASHED
62
4
100
AcDbLine
10
764.900000000000
20
154.600000000000
30
0.0
11
763.000000000000
21
156.500000000000
31
0.0
0
LINE
5
935
100
AcDbEntity
8
0-1
6
CENTER
62
4
100
AcDbLine
10
745.000000000000
20
135.000000000000
30
0.0
11
765.000000000000
21
135.000000000000
31
0.0
0
POLYLINE
5
936
100
AcDbEntity
8
0-1
6
DASHED
62
  4
100
AcDb2dPolyline
66
1
10
0.0
20
0.0
30
0.0
70
0
0
VERTEX
5
937
100
AcDbEntity
8
0-1
6
DASHED
62
  4
100
AcDbVertex
100
AcDb2dVertex
10
763.000000000000
20
121.500000000000
30
0.0
0
VERTEX
5
938
100
AcDbEntity
8
0-1
6
DASHED
62
  4
100
AcDbVertex
100
AcDb2dVertex
10
764.900000000000
20
119.600000000000
30
0.0
0
VERTEX
5
939
100
AcDbEntity
8
0-1
6
DASHED
62
  4
100
AcDbVertex
100
AcDb2dVertex
10
764.900000000000
20
115.400000000000
30
0.0
0
VERTEX
5
93a
100
AcDbEntity
8
0-1
6
DASHED
62
  4
100
AcDbVertex
100
AcDb2dVertex
10
763.000000000000
20
113.500000000000
30
0.0
0
SEQEND
5
93b
100
AcDbEntity
8
0-1
0
LINE
5
93c
100
AcDbEntity
8
0-1
6
CENTER
62
4
100
AcDbLine
10
765.000000000000
20
117.500000000000
30
0.0
11
763.000000000000
21
117.500000000000
31
0.0
0
LINE
5
93d
100
AcDbEntity
8
0-0
6
DASHED
62
4
100
AcDbLine
10
765.000000000000
20
154.600000000000
30
0.0
11
764.900000000000
21
154.600000000000
31
0.0
0
LINE
5
93e
100
AcDbEntity
8
0-0
6
DASHED
62
4
100
AcDbLine
10
764.900000000000
20
150.400000000000
30
0.0
11
765.000000000000
21
150.400000000000
31
0.0
0
LINE
5
93f
100
AcDbEntity
8
0-0
6
DASHED
62
4
100
AcDbLine
10
764.900000000000
20
115.400000000000
30
0.0
11
765.000000000000
21
115.400000000000
31
0.0
0
LINE
5
940
100
AcDbEntity
8
0-0
6
DASHED
62
4
100
AcDbLine
10
764.900000000000
20
119.600000000000
30
0.0
11
765.000000000000
21
119.600000000000
31
0.0
0
LINE
5
941
100
AcDbEntity
8
0-0
6
CONTINUOUS
62
7
100
AcDbLine
10
720.000000000000
20
45.000007500000
30
0.0
11
720.000000000000
21
85.000006500000
31
0.0
0
LINE
5
942
100
AcDbEntity
8
0-0
6
CONTINUOUS
62
7
100
AcDbLine
10
700.000000000000
20
85.000006500000
30
0.0
11
700.000000000000
21
45.000007500000
31
0.0
0
LINE
5
943
100
AcDbEntity
8
0-0
6
CONTINUOUS
62
7
100
AcDbLine
10
707.000000000000
20
53.000001500000
30
0.0
11
707.000000000000
21
77.477422004315
31
0.0
0
LINE
5
944
100
AcDbEntity
8
0-0
6
CONTINUOUS
62
7
100
AcDbLine
10
713.000000000000
20
77.477422004315
30
0.0
11
713.000000000000
21
53.000001500000
31
0.0
0
POLYLINE
5
945
100
AcDbEntity
8
0-0
6
CONTINUOUS
62
  7
100
AcDb2dPolyline
66
1
10
0.0
20
0.0
30
0.0
70
0
0
VERTEX
5
946
100
AcDbEntity
8
0-0
6
CONTINUOUS
62
  7
100
AcDbVertex
100
AcDb2dVertex
10
707.000000000000
20
77.477422004315
30
0.0
0
VERTEX
5
947
100
AcDbEntity
8
0-0
6
CONTINUOUS
62
  7
100
AcDbVertex
100
AcDb2dVertex
10
707.045576740964
20
77.769150942796
30
0.0
0
VERTEX
5
948
100
AcDbEntity
8
0-0
6
CONTINUOUS
62
  7
100
AcDbVertex
100
AcDb2dVertex
10
707.180922137642
20
78.052015845102
30
0.0
0
VERTEX
5
949
100
AcDbEntity
8
0-0
6
CONTINUOUS
62
  7
100
AcDbVertex
100
AcDb2dVertex
10
707.401923788647
20
78.317422004315
30
0.0
0
VERTEX
5
94a
100
AcDbEntity
8
0-0
6
CONTINUOUS
62
  7
100
AcDbVertex
100
AcDb2dVertex
10
707.701866670643
20
78.557305188589
30
0.0
0
VERTEX
5
94b
100
AcDbEntity
8
0-0
6
CONTINUOUS
62
  7
100
AcDbVertex
100
AcDb2dVertex
10
708.071637170941
20
78.764376668755
30
0.0
0
VERTEX
5
94c
100
AcDbEntity
8
0-0
6
CONTINUOUS
62
  7
100
AcDbVertex
100
AcDb2dVertex
10
708.500000000000
20
78.932344682673
30
0.0
0
VERTEX
5
94d
100
AcDbEntity
8
0-0
6
CONTINUOUS
62
  7
100
AcDbVertex
100
AcDb2dVertex
10
708.973939570023
20
79.056105607236
30
0.0
0
VERTEX
5
94e
100
AcDbEntity
8
0-0
6
CONTINUOUS
62
  7
100
AcDbVertex
100
AcDb2dVertex
10
709.479055467000
20
79.131899029376
30
0.0
0
VERTEX
5
94f
100
AcDbEntity
8
0-0
6
CONTINUOUS
62
  7
100
AcDbVertex
100
AcDb2dVertex
10
710.000000000000
20
79.157422004315
30
0.0
0
VERTEX
5
950
100
AcDbEntity
8
0-0
6
CONTINUOUS
62
  7
100
AcDbVertex
100
AcDb2dVertex
10
710.520944533001
20
79.131899029376
30
0.0
0
VERTEX
5
951
100
AcDbEntity
8
0-0
6
CONTINUOUS
62
  7
100
AcDbVertex
100
AcDb2dVertex
10
711.026060429977
20
79.056105607236
30
0.0
0
VERTEX
5
952
100
AcDbEntity
8
0-0
6
CONTINUOUS
62
  7
100
AcDbVertex
100
AcDb2dVertex
10
711.500000000000
20
78.932344682673
30
0.0
0
VERTEX
5
953
100
AcDbEntity
8
0-0
6
CONTINUOUS
62
  7
100
AcDbVertex
100
AcDb2dVertex
10
711.928362829060
20
78.764376668755
30
0.0
0
VERTEX
5
954
100
AcDbEntity
8
0-0
6
CONTINUOUS
62
  7
100
AcDbVertex
100
AcDb2dVertex
10
712.298133329357
20
78.557305188589
30
0.0
0
VERTEX
5
955
100
AcDbEntity
8
0-0
6
CONTINUOUS
62
  7
100
AcDbVertex
100
AcDb2dVertex
10
712.598076211353
20
78.317422004315
30
0.0
0
VERTEX
5
956
100
AcDbEntity
8
0-0
6
CONTINUOUS
62
  7
100
AcDbVertex
100
AcDb2dVertex
10
712.819077862358
20
78.052015845102
30
0.0
0
VERTEX
5
957
100
AcDbEntity
8
0-0
6
CONTINUOUS
62
  7
100
AcDbVertex
100
AcDb2dVertex
10
712.954423259037
20
77.769150942796
30
0.0
0
VERTEX
5
958
100
AcDbEntity
8
0-0
6
CONTINUOUS
62
  7
100
AcDbVertex
100
AcDb2dVertex
10
713.000000000000
20
77.477422004315
30
0.0
0
SEQEND
5
959
100
AcDbEntity
8
0-0
0
ARC
5
95a
100
AcDbEntity
8
0-0
6
CONTINUOUS
62
7
100
AcDbCircle
10
710.000000000000
20
53.000001500000
30
0.0
40
2.999999900000
100
AcDbArc
50
180.000150000000
51
360.000000000000
0
CIRCLE
5
95b
100
AcDbEntity
8
0-0
6
CONTINUOUS
62
7
100
AcDbCircle
10
710.000000000000
20
87.999996500000
30
0.0
40
4.500000000000
0
CIRCLE
5
95c
100
AcDbEntity
8
0-0
6
CONTINUOUS
62
7
100
AcDbCircle
10
710.000000000000
20
42.000003500000
30
0.0
40
4.500000000000
0
CIRCLE
5
95d
100
AcDbEntity
8
0-0
6
CONTINUOUS
62
7
100
AcDbCircle
10
710.000000000000
20
87.999996500000
30
0.0
40
2.599999800000
0
CIRCLE
5
95e
100
AcDbEntity
8
0-0
6
CONTINUOUS
62
7
100
AcDbCircle
10
710.000000000000
20
42.000003500000
30
0.0
40
2.599999800000
0
ARC
5
95f
100
AcDbEntity
8
0-0
6
CONTINUOUS
62
7
100
AcDbCircle
10
710.000000000000
20
45.000007500000
30
0.0
40
10.000000000000
100
AcDbArc
50
180.000000000000
51
359.999840000000
0
ARC
5
960
100
AcDbEntity
8
0-0
6
CONTINUOUS
62
7
100
AcDbCircle
10
710.000000000000
20
85.000006500000
30
0.0
40
10.000000000000
100
AcDbArc
50
0.000152500000
51
180.000000000000
0
LINE
5
961
100
AcDbEntity
8
0-1
6
CENTER
62
4
100
AcDbLine
10
715.984733820681
20
87.999996500000
30
0.0
11
704.015266179320
21
87.999996500000
31
0.0
0
LINE
5
962
100
AcDbEntity
8
0-1
6
CENTER
62
4
100
AcDbLine
10
719.918978370040
20
65.000000000000
30
0.0
11
700.000000000000
21
65.000000000000
31
0.0
0
LINE
5
963
100
AcDbEntity
8
0-0
6
CONTINUOUS
62
7
100
AcDbLine
10
717.500000000000
20
120.000000000000
30
0.0
11
717.500000000000
21
150.000000000000
31
0.0
0
LINE
5
964
100
AcDbEntity
8
0-0
6
CONTINUOUS
62
7
100
AcDbLine
10
702.500000000000
20
150.000000000000
30
0.0
11
702.500000000000
21
120.000000000000
31
0.0
0
LINE
5
965
100
AcDbEntity
8
0-0
6
CONTINUOUS
62
7
100
AcDbLine
10
712.500000000000
20
125.000000000000
30
0.0
11
712.500000000000
21
144.014428408133
31
0.0
0
LINE
5
966
100
AcDbEntity
8
0-0
6
CONTINUOUS
62
7
100
AcDbLine
10
707.500000000000
20
144.014428408133
30
0.0
11
707.500000000000
21
125.000000000000
31
0.0
0
ARC
5
967
100
AcDbEntity
8
0-0
6
CONTINUOUS
62
7
100
AcDbCircle
10
710.000000000000
20
150.000000000000
30
0.0
40
7.500000000000
100
AcDbArc
50
0.000000000000
51
180.000000000000
0
ARC
5
968
100
AcDbEntity
8
0-0
6
CONTINUOUS
62
7
100
AcDbCircle
10
710.000000000000
20
120.000000000000
30
0.0
40
7.500000000000
100
AcDbArc
50
180.000000000000
51
360.000000000000
0
CIRCLE
5
969
100
AcDbEntity
8
0-0
6
CONTINUOUS
62
7
100
AcDbCircle
10
710.000000000000
20
152.500000000000
30
0.0
40
2.100000000000
0
CIRCLE
5
96a
100
AcDbEntity
8
0-0
6
CONTINUOUS
62
7
100
AcDbCircle
10
710.000000000000
20
117.500000000000
30
0.0
40
2.100000000000
0
CIRCLE
5
96b
100
AcDbEntity
8
0-0
6
CONTINUOUS
62
7
100
AcDbCircle
10
710.000000000000
20
152.500000000000
30
0.0
40
4.000000000000
0
CIRCLE
5
96c
100
AcDbEntity
8
0-0
6
CONTINUOUS
62
7
100
AcDbCircle
10
710.000000000000
20
117.500000000000
30
0.0
40
4.000000000000
0
ARC
5
96d
100
AcDbEntity
8
0-0
6
CONTINUOUS
62
7
100
AcDbCircle
10
710.000000000000
20
125.000000000000
30
0.0
40
2.500000000000
100
AcDbArc
50
180.000000000000
51
360.000000000000
0
POLYLINE
5
96e
100
AcDbEntity
8
0-0
6
CONTINUOUS
62
  7
100
AcDb2dPolyline
66
1
10
0.0
20
0.0
30
0.0
70
0
0
VERTEX
5
96f
100
AcDbEntity
8
0-0
6
CONTINUOUS
62
  7
100
AcDbVertex
100
AcDb2dVertex
10
712.500000000000
20
144.014428408133
30
0.0
0
VERTEX
5
970
100
AcDbEntity
8
0-0
6
CONTINUOUS
62
  7
100
AcDbVertex
100
AcDb2dVertex
10
712.433824371754
20
144.502197089536
30
0.0
0
VERTEX
5
971
100
AcDbEntity
8
0-0
6
CONTINUOUS
62
  7
100
AcDbVertex
100
AcDb2dVertex
10
712.293698221547
20
144.969570325365
30
0.0
0
VERTEX
5
972
100
AcDbEntity
8
0-0
6
CONTINUOUS
62
  7
100
AcDbVertex
100
AcDb2dVertex
10
712.083879211546
20
145.402347216351
30
0.0
0
VERTEX
5
973
100
AcDbEntity
8
0-0
6
CONTINUOUS
62
  7
100
AcDbVertex
100
AcDb2dVertex
10
711.810742586196
20
145.787378055657
30
0.0
0
VERTEX
5
974
100
AcDbEntity
8
0-0
6
CONTINUOUS
62
  7
100
AcDbVertex
100
AcDb2dVertex
10
711.482587463644
20
146.112963876066
30
0.0
0
VERTEX
5
975
100
AcDbEntity
8
0-0
6
CONTINUOUS
62
  7
100
AcDbVertex
100
AcDb2dVertex
10
711.109384671234
20
146.369211917180
30
0.0
0
VERTEX
5
976
100
AcDbEntity
8
0-0
6
CONTINUOUS
62
  7
100
AcDbVertex
100
AcDb2dVertex
10
710.702473786965
20
146.548336211937
30
0.0
0
VERTEX
5
977
100
AcDbEntity
8
0-0
6
CONTINUOUS
62
  7
100
AcDbVertex
100
AcDb2dVertex
10
710.274218592148
20
146.644894159282
30
0.0
0
VERTEX
5
978
100
AcDbEntity
8
0-0
6
CONTINUOUS
62
  7
100
AcDbVertex
100
AcDb2dVertex
10
709.837631404170
20
146.655951894845
30
0.0
0
VERTEX
5
979
100
AcDbEntity
8
0-0
6
CONTINUOUS
62
  7
100
AcDbVertex
100
AcDb2dVertex
10
709.405977703813
20
146.581173434928
30
0.0
0
VERTEX
5
97a
100
AcDbEntity
8
0-0
6
CONTINUOUS
62
  7
100
AcDbVertex
100
AcDb2dVertex
10
708.992373070337
20
146.422830885194
30
0.0
0
VERTEX
5
97b
100
AcDbEntity
8
0-0
6
CONTINUOUS
62
  7
100
AcDbVertex
100
AcDb2dVertex
10
708.609384671234
20
146.185735403892
30
0.0
0
VERTEX
5
97c
100
AcDbEntity
8
0-0
6
CONTINUOUS
62
  7
100
AcDbVertex
100
AcDb2dVertex
10
708.268649415211
20
145.877091017246
30
0.0
0
VERTEX
5
97d
100
AcDbEntity
8
0-0
6
CONTINUOUS
62
  7
100
AcDbVertex
100
AcDb2dVertex
10
707.980520370601
20
145.506275728763
30
0.0
0
VERTEX
5
97e
100
AcDbEntity
8
0-0
6
CONTINUOUS
62
  7
100
AcDbVertex
100
AcDb2dVertex
10
707.753752192624
20
145.084556573340
30
0.0
0
VERTEX
5
97f
100
AcDbEntity
8
0-0
6
CONTINUOUS
62
  7
100
AcDbVertex
100
AcDb2dVertex
10
707.595235117618
20
144.624747274116
30
0.0
0
VERTEX
5
980
100
AcDbEntity
8
0-0
6
CONTINUOUS
62
  7
100
AcDbVertex
100
AcDb2dVertex
10
707.509785606693
20
144.140818903973
30
0.0
0
VERTEX
5
981
100
AcDbEntity
8
0-0
6
CONTINUOUS
62
  7
100
AcDbVertex
100
AcDb2dVertex
10
707.500000000000
20
144.014428408133
30
0.0
0
SEQEND
5
982
100
AcDbEntity
8
0-0
0
LINE
5
983
100
AcDbEntity
8
0-1
6
CENTER
62
4
100
AcDbLine
10
714.000000000000
20
152.500000000000
30
0.0
11
706.000000000000
21
152.500000000000
31
0.0
0
LINE
5
984
100
AcDbEntity
8
0-1
6
CENTER
62
4
100
AcDbLine
10
706.000000000000
20
117.500000000000
30
0.0
11
714.000000000000
21
117.500000000000
31
0.0
0
LINE
5
985
100
AcDbEntity
8
0-1
6
CENTER
62
4
100
AcDbLine
10
710.000000000000
20
112.500000000000
30
0.0
11
710.000000000000
21
157.500000000000
31
0.0
0
LINE
5
986
100
AcDbEntity
8
0-1
6
CENTER
62
4
100
AcDbLine
10
702.500000000000
20
135.000000000000
30
0.0
11
717.500000000000
21
135.000000000000
31
0.0
0
TEXT
5
987
100
AcDbEntity
8
0-0
62
7
370
-3
100
AcDbText
10
680.200
20
100.767
30
0.0
40
4.208
1
OPD-5
41
0.515
50
0.000
100
AcDbText
0
TEXT
5
988
100
AcDbEntity
8
0-0
62
7
370
-3
100
AcDbText
10
680.200
20
30.767
30
0.0
40
4.208
1
OPD-6
41
0.515
50
0.000
100
AcDbText
0
LINE
5
989
100
AcDbEntity
8
F-F_J_ADD
6
HIDDEN
62
253
100
AcDbLine
10
680.000000000000
20
30.000000000000
30
0.0
11
680.000000000000
21
170.000000000000
31
0.0
0
LINE
5
98a
100
AcDbEntity
8
0-1
6
DASHED
62
4
100
AcDbLine
10
763.000000000000
20
46.500003500000
30
0.0
11
765.000000000000
21
44.600003500000
31
0.0
0
LINE
5
98b
100
AcDbEntity
8
0-1
6
DASHED
62
4
100
AcDbLine
10
765.000000000000
20
39.400013500000
30
0.0
11
763.000000000000
21
37.500013500000
31
0.0
0
LINE
5
98c
100
AcDbEntity
8
0-1
6
CENTER
62
4
100
AcDbLine
10
759.807561494539
20
42.000003500000
30
0.0
11
768.250290432936
21
42.000003500000
31
0.0
0
LINE
5
98d
100
AcDbEntity
8
0-1
6
CENTER
62
4
100
AcDbLine
10
715.984733820681
20
42.000003500000
30
0.0
11
704.015266179320
21
42.000003500000
31
0.0
0
LINE
5
98e
100
AcDbEntity
8
0-1
6
CENTER
62
4
100
AcDbLine
10
710.000000000000
20
95.000006500000
30
0.0
11
710.000000000000
21
35.000007500000
31
0.0
0
POLYLINE
5
98f
100
AcDbEntity
8
0-0
6
CONTINUOUS
62
  7
100
AcDb2dPolyline
66
1
10
0.0
20
0.0
30
0.0
70
0
0
VERTEX
5
990
100
AcDbEntity
8
0-0
6
CONTINUOUS
62
  7
100
AcDbVertex
100
AcDb2dVertex
10
865.000000000000
20
35.000000000000
30
0.0
0
VERTEX
5
991
100
AcDbEntity
8
0-0
6
CONTINUOUS
62
  7
100
AcDbVertex
100
AcDb2dVertex
10
865.000000000000
20
95.000000000000
30
0.0
0
VERTEX
5
992
100
AcDbEntity
8
0-0
6
CONTINUOUS
62
  7
100
AcDbVertex
100
AcDb2dVertex
10
863.000000000000
20
95.000000000000
30
0.0
0
VERTEX
5
993
100
AcDbEntity
8
0-0
6
CONTINUOUS
62
  7
100
AcDbVertex
100
AcDb2dVertex
10
863.000000000000
20
35.000000000000
30
0.0
0
VERTEX
5
994
100
AcDbEntity
8
0-0
6
CONTINUOUS
62
  7
100
AcDbVertex
100
AcDb2dVertex
10
865.000000000000
20
35.000000000000
30
0.0
0
SEQEND
5
995
100
AcDbEntity
8
0-0
0
LINE
5
996
100
AcDbEntity
8
0-0
6
CONTINUOUS
62
7
100
AcDbLine
10
863.000000000000
20
50.000000000000
30
0.0
11
855.000000000000
21
50.000000000000
31
0.0
0
LINE
5
997
100
AcDbEntity
8
0-0
6
CONTINUOUS
62
7
100
AcDbLine
10
855.000000000000
20
56.000000000000
30
0.0
11
863.000000000000
21
56.000000000000
31
0.0
0
LINE
5
998
100
AcDbEntity
8
0-0
6
CONTINUOUS
62
7
100
AcDbLine
10
855.000000000000
20
74.000000000000
30
0.0
11
863.000000000000
21
74.000000000000
31
0.0
0
LINE
5
999
100
AcDbEntity
8
0-0
6
CONTINUOUS
62
7
100
AcDbLine
10
863.000000000000
20
80.000000000000
30
0.0
11
855.000000000000
21
80.000000000000
31
0.0
0
ARC
5
99a
100
AcDbEntity
8
0-0
6
CONTINUOUS
62
7
100
AcDbCircle
10
855.000000000000
20
65.000000000000
30
0.0
40
9.000000000000
100
AcDbArc
50
90.000000000000
51
270.000000000000
0
ARC
5
99b
100
AcDbEntity
8
0-0
6
CONTINUOUS
62
7
100
AcDbCircle
10
855.000000000000
20
65.000000000000
30
0.0
40
15.000000000000
100
AcDbArc
50
90.000000000000
51
270.000000000000
0
LINE
5
99c
100
AcDbEntity
8
0-1
6
CENTER
62
4
100
AcDbLine
10
865.000000000000
20
65.000000000000
30
0.0
11
840.000000000000
21
65.000000000000
31
0.0
0
LINE
5
99d
100
AcDbEntity
8
0-1
6
DASHED
62
4
100
AcDbLine
10
863.000000000000
20
83.500000000000
30
0.0
11
865.000000000000
21
85.400000000000
31
0.0
0
LINE
5
99e
100
AcDbEntity
8
0-1
6
CENTER
62
4
100
AcDbLine
10
865.000000000000
20
88.000000000000
30
0.0
11
863.000000000000
21
88.000000000000
31
0.0
0
LINE
5
99f
100
AcDbEntity
8
0-1
6
DASHED
62
4
100
AcDbLine
10
863.000000000000
20
92.500000000000
30
0.0
11
865.000000000000
21
90.600000000000
31
0.0
0
POLYLINE
5
9a0
100
AcDbEntity
8
0-0
6
CONTINUOUS
62
  7
100
AcDb2dPolyline
66
1
10
0.0
20
0.0
30
0.0
70
0
0
VERTEX
5
9a1
100
AcDbEntity
8
0-0
6
CONTINUOUS
62
  7
100
AcDbVertex
100
AcDb2dVertex
10
865.000000000000
20
112.500000000000
30
0.0
0
VERTEX
5
9a2
100
AcDbEntity
8
0-0
6
CONTINUOUS
62
  7
100
AcDbVertex
100
AcDb2dVertex
10
863.000000000000
20
112.500000000000
30
0.0
0
VERTEX
5
9a3
100
AcDbEntity
8
0-0
6
CONTINUOUS
62
  7
100
AcDbVertex
100
AcDb2dVertex
10
863.000000000000
20
157.500000000000
30
0.0
0
VERTEX
5
9a4
100
AcDbEntity
8
0-0
6
CONTINUOUS
62
  7
100
AcDbVertex
100
AcDb2dVertex
10
865.000000000000
20
157.500000000000
30
0.0
0
VERTEX
5
9a5
100
AcDbEntity
8
0-0
6
CONTINUOUS
62
  7
100
AcDbVertex
100
AcDb2dVertex
10
865.000000000000
20
112.500000000000
30
0.0
0
SEQEND
5
9a6
100
AcDbEntity
8
0-0
0
LINE
5
9a7
100
AcDbEntity
8
0-0
6
CONTINUOUS
62
7
100
AcDbLine
10
863.000000000000
20
122.500000000000
30
0.0
11
857.500000000000
21
122.500000000000
31
0.0
0
LINE
5
9a8
100
AcDbEntity
8
0-0
6
CONTINUOUS
62
7
100
AcDbLine
10
857.500000000000
20
147.500000000000
30
0.0
11
863.000000000000
21
147.500000000000
31
0.0
0
LINE
5
9a9
100
AcDbEntity
8
0-0
6
CONTINUOUS
62
7
100
AcDbLine
10
863.000000000000
20
142.500000000000
30
0.0
11
857.500000000000
21
142.500000000000
31
0.0
0
LINE
5
9aa
100
AcDbEntity
8
0-0
6
CONTINUOUS
62
7
100
AcDbLine
10
857.500000000000
20
127.500000000000
30
0.0
11
863.000000000000
21
127.500000000000
31
0.0
0
ARC
5
9ab
100
AcDbEntity
8
0-0
6
CONTINUOUS
62
7
100
AcDbCircle
10
857.500000000000
20
135.000000000000
30
0.0
40
7.500000000000
100
AcDbArc
50
90.000000000000
51
270.000000000000
0
ARC
5
9ac
100
AcDbEntity
8
0-0
6
CONTINUOUS
62
7
100
AcDbCircle
10
857.500000000000
20
135.000000000000
30
0.0
40
12.500000000000
100
AcDbArc
50
90.000000000000
51
270.000000000000
0
POLYLINE
5
9ad
100
AcDbEntity
8
0-1
6
DASHED
62
  4
100
AcDb2dPolyline
66
1
10
0.0
20
0.0
30
0.0
70
0
0
VERTEX
5
9ae
100
AcDbEntity
8
0-1
6
DASHED
62
  4
100
AcDbVertex
100
AcDb2dVertex
10
865.000000000000
20
115.400000000000
30
0.0
0
VERTEX
5
9af
100
AcDbEntity
8
0-1
6
DASHED
62
  4
100
AcDbVertex
100
AcDb2dVertex
10
864.900000000000
20
115.400000000000
30
0.0
0
VERTEX
5
9b0
100
AcDbEntity
8
0-1
6
DASHED
62
  4
100
AcDbVertex
100
AcDb2dVertex
10
864.900000000000
20
119.600000000000
30
0.0
0
VERTEX
5
9b1
100
AcDbEntity
8
0-1
6
DASHED
62
  4
100
AcDbVertex
100
AcDb2dVertex
10
863.000000000000
20
121.500000000000
30
0.0
0
SEQEND
5
9b2
100
AcDbEntity
8
0-1
0
LINE
5
9b3
100
AcDbEntity
8
0-1
6
CENTER
62
4
100
AcDbLine
10
857.500000000000
20
122.500000000000
30
0.0
11
857.500000000000
21
147.500000000000
31
0.0
0
POLYLINE
5
9b4
100
AcDbEntity
8
0-1
6
DASHED
62
  4
100
AcDb2dPolyline
66
1
10
0.0
20
0.0
30
0.0
70
0
0
VERTEX
5
9b5
100
AcDbEntity
8
0-1
6
DASHED
62
  4
100
AcDbVertex
100
AcDb2dVertex
10
863.000000000000
20
148.500000000000
30
0.0
0
VERTEX
5
9b6
100
AcDbEntity
8
0-1
6
DASHED
62
  4
100
AcDbVertex
100
AcDb2dVertex
10
864.900000000000
20
150.400000000000
30
0.0
0
VERTEX
5
9b7
100
AcDbEntity
8
0-1
6
DASHED
62
  4
100
AcDbVertex
100
AcDb2dVertex
10
864.900000000000
20
154.600000000000
30
0.0
0
VERTEX
5
9b8
100
AcDbEntity
8
0-1
6
DASHED
62
  4
100
AcDbVertex
100
AcDb2dVertex
10
865.000000000000
20
154.600000000000
30
0.0
0
SEQEND
5
9b9
100
AcDbEntity
8
0-1
0
LINE
5
9ba
100
AcDbEntity
8
0-1
6
DASHED
62
4
100
AcDbLine
10
864.900000000000
20
154.600000000000
30
0.0
11
863.000000000000
21
156.500000000000
31
0.0
0
LINE
5
9bb
100
AcDbEntity
8
0-1
6
CENTER
62
4
100
AcDbLine
10
863.000000000000
20
152.500000000000
30
0.0
11
865.000000000000
21
152.500000000000
31
0.0
0
LINE
5
9bc
100
AcDbEntity
8
0-1
6
DASHED
62
4
100
AcDbLine
10
865.000000000000
20
150.400000000000
30
0.0
11
864.900000000000
21
150.400000000000
31
0.0
0
LINE
5
9bd
100
AcDbEntity
8
0-1
6
CENTER
62
4
100
AcDbLine
10
865.000000000000
20
135.000000000000
30
0.0
11
845.000000000000
21
135.000000000000
31
0.0
0
LINE
5
9be
100
AcDbEntity
8
0-1
6
DASHED
62
4
100
AcDbLine
10
864.900000000000
20
119.600000000000
30
0.0
11
865.000000000000
21
119.600000000000
31
0.0
0
LINE
5
9bf
100
AcDbEntity
8
0-1
6
CENTER
62
4
100
AcDbLine
10
865.000000000000
20
117.500000000000
30
0.0
11
863.000000000000
21
117.500000000000
31
0.0
0
LINE
5
9c0
100
AcDbEntity
8
0-1
6
DASHED
62
4
100
AcDbLine
10
864.900000000000
20
115.400000000000
30
0.0
11
863.000000000000
21
113.500000000000
31
0.0
0
LINE
5
9c1
100
AcDbEntity
8
0-1
6
DASHED
62
4
100
AcDbLine
10
865.000000000000
20
39.400000000000
30
0.0
11
863.000000000000
21
37.500000000000
31
0.0
0
LINE
5
9c2
100
AcDbEntity
8
0-1
6
DASHED
62
4
100
AcDbLine
10
865.000000000000
20
44.600000000000
30
0.0
11
863.000000000000
21
46.500000000000
31
0.0
0
LINE
5
9c3
100
AcDbEntity
8
0-1
6
CENTER
62
4
100
AcDbLine
10
810.000000000000
20
95.000000000000
30
0.0
11
810.000000000000
21
42.000003500000
31
0.0
0
LINE
5
9c4
100
AcDbEntity
8
0-1
6
CENTER
62
4
100
AcDbLine
10
820.000000000000
20
65.000000000000
30
0.0
11
800.000000000000
21
65.000000000000
31
0.0
0
LINE
5
9c5
100
AcDbEntity
8
0-1
6
CENTER
62
4
100
AcDbLine
10
814.500000000000
20
88.000000000000
30
0.0
11
805.500000000000
21
88.000000000000
31
0.0
0
ARC
5
9c6
100
AcDbEntity
8
0-0
6
CONTINUOUS
62
7
100
AcDbCircle
10
810.000000000000
20
85.000000000000
30
0.0
40
10.000000000000
100
AcDbArc
50
0.000000000000
51
180.000000000000
0
CIRCLE
5
9c7
100
AcDbEntity
8
0-0
6
CONTINUOUS
62
7
100
AcDbCircle
10
810.000000000000
20
42.000000000000
30
0.0
40
2.600000000000
0
ARC
5
9c8
100
AcDbEntity
8
0-0
6
CONTINUOUS
62
7
100
AcDbCircle
10
810.000000000000
20
45.000000000000
30
0.0
40
10.000000000000
100
AcDbArc
50
180.000000000000
51
360.000000000000
0
ARC
5
9c9
100
AcDbEntity
8
0-0
6
CONTINUOUS
62
7
100
AcDbCircle
10
810.000000000000
20
53.000000000000
30
0.0
40
3.000000000000
100
AcDbArc
50
180.000000000000
51
360.000000000000
0
ARC
5
9ca
100
AcDbEntity
8
0-0
6
CONTINUOUS
62
7
100
AcDbCircle
10
810.000000000000
20
77.000000000000
30
0.0
40
3.000000000000
100
AcDbArc
50
0.000000000000
51
180.000000000000
0
CIRCLE
5
9cb
100
AcDbEntity
8
0-0
6
CONTINUOUS
62
7
100
AcDbCircle
10
810.000000000000
20
88.000000000000
30
0.0
40
2.600000000000
0
CIRCLE
5
9cc
100
AcDbEntity
8
0-0
6
CONTINUOUS
62
7
100
AcDbCircle
10
810.000000000000
20
88.000000000000
30
0.0
40
4.500000000000
0
CIRCLE
5
9cd
100
AcDbEntity
8
0-0
6
CONTINUOUS
62
7
100
AcDbCircle
10
810.000000000000
20
42.000000000000
30
0.0
40
4.500000000000
0
LINE
5
9ce
100
AcDbEntity
8
0-0
6
CONTINUOUS
62
7
100
AcDbLine
10
813.000000000000
20
77.000000000000
30
0.0
11
813.000000000000
21
53.000000000000
31
0.0
0
LINE
5
9cf
100
AcDbEntity
8
0-0
6
CONTINUOUS
62
7
100
AcDbLine
10
807.000000000000
20
53.000000000000
30
0.0
11
807.000000000000
21
77.000000000000
31
0.0
0
LINE
5
9d0
100
AcDbEntity
8
0-0
6
CONTINUOUS
62
7
100
AcDbLine
10
800.000000000000
20
85.000000000000
30
0.0
11
800.000000000000
21
45.000000000000
31
0.0
0
LINE
5
9d1
100
AcDbEntity
8
0-0
6
CONTINUOUS
62
7
100
AcDbLine
10
820.000000000000
20
45.000000000000
30
0.0
11
820.000000000000
21
85.000000000000
31
0.0
0
LINE
5
9d2
100
AcDbEntity
8
0-0
6
CONTINUOUS
62
7
100
AcDbLine
10
817.500000000000
20
120.000000000000
30
0.0
11
817.500000000000
21
150.000000000000
31
0.0
0
LINE
5
9d3
100
AcDbEntity
8
0-0
6
CONTINUOUS
62
7
100
AcDbLine
10
802.500000000000
20
150.000000000000
30
0.0
11
802.500000000000
21
120.000000000000
31
0.0
0
LINE
5
9d4
100
AcDbEntity
8
0-0
6
CONTINUOUS
62
7
100
AcDbLine
10
812.500000000000
20
145.000000000000
30
0.0
11
812.500000000000
21
125.000000000000
31
0.0
0
LINE
5
9d5
100
AcDbEntity
8
0-0
6
CONTINUOUS
62
7
100
AcDbLine
10
807.500000000000
20
125.000000000000
30
0.0
11
807.500000000000
21
145.000000000000
31
0.0
0
ARC
5
9d6
100
AcDbEntity
8
0-0
6
CONTINUOUS
62
7
100
AcDbCircle
10
810.000000000000
20
150.000000000000
30
0.0
40
7.500000000000
100
AcDbArc
50
0.000000000000
51
180.000000000000
0
ARC
5
9d7
100
AcDbEntity
8
0-0
6
CONTINUOUS
62
7
100
AcDbCircle
10
810.000000000000
20
120.000000000000
30
0.0
40
7.500000000000
100
AcDbArc
50
180.000000000000
51
360.000000000000
0
CIRCLE
5
9d8
100
AcDbEntity
8
0-0
6
CONTINUOUS
62
7
100
AcDbCircle
10
810.000000000000
20
152.500000000000
30
0.0
40
2.100000000000
0
CIRCLE
5
9d9
100
AcDbEntity
8
0-0
6
CONTINUOUS
62
7
100
AcDbCircle
10
810.000000000000
20
117.500000000000
30
0.0
40
2.100000000000
0
CIRCLE
5
9da
100
AcDbEntity
8
0-0
6
CONTINUOUS
62
7
100
AcDbCircle
10
810.000000000000
20
152.500000000000
30
0.0
40
4.000000000000
0
CIRCLE
5
9db
100
AcDbEntity
8
0-0
6
CONTINUOUS
62
7
100
AcDbCircle
10
810.000000000000
20
117.500000000000
30
0.0
40
4.000000000000
0
ARC
5
9dc
100
AcDbEntity
8
0-0
6
CONTINUOUS
62
7
100
AcDbCircle
10
810.000000000000
20
125.000000000000
30
0.0
40
2.500000000000
100
AcDbArc
50
180.000000000000
51
360.000000000000
0
ARC
5
9dd
100
AcDbEntity
8
0-0
6
CONTINUOUS
62
7
100
AcDbCircle
10
810.000000000000
20
145.000000000000
30
0.0
40
2.500000000000
100
AcDbArc
50
0.000000000000
51
180.000000000000
0
LINE
5
9de
100
AcDbEntity
8
0-1
6
CENTER
62
4
100
AcDbLine
10
814.000000000000
20
152.500000000000
30
0.0
11
806.000000000000
21
152.500000000000
31
0.0
0
LINE
5
9df
100
AcDbEntity
8
0-1
6
CENTER
62
4
100
AcDbLine
10
806.000000000000
20
117.500000000000
30
0.0
11
814.000000000000
21
117.500000000000
31
0.0
0
LINE
5
9e0
100
AcDbEntity
8
0-1
6
CENTER
62
4
100
AcDbLine
10
810.000000000000
20
112.500000000000
30
0.0
11
810.000000000000
21
157.500000000000
31
0.0
0
LINE
5
9e1
100
AcDbEntity
8
0-0
6
CENTER
62
4
100
AcDbLine
10
802.500000000000
20
135.000000000000
30
0.0
11
817.500000000000
21
135.000000000000
31
0.0
0
TEXT
5
9e2
100
AcDbEntity
8
0-0
62
7
370
-3
100
AcDbText
10
780.200
20
30.767
30
0.0
40
4.208
1
PD-6
41
0.513
50
0.000
100
AcDbText
0
TEXT
5
9e3
100
AcDbEntity
8
0-0
62
7
370
-3
100
AcDbText
10
780.200
20
100.767
30
0.0
40
4.208
1
PD-5
41
0.512
50
0.000
100
AcDbText
0
LINE
5
9e4
100
AcDbEntity
8
F-F_J_ADD
6
HIDDEN
62
253
100
AcDbLine
10
780.000000000000
20
30.000000000000
30
0.0
11
780.000000000000
21
170.000000000000
31
0.0
0
LINE
5
9e5
100
AcDbEntity
8
F-F_J_ADD
6
HIDDEN
62
253
100
AcDbLine
10
150.000000000000
20
100.000000000000
30
0.0
11
870.000000000000
21
100.000000000000
31
0.0
0
LINE
5
9e6
100
AcDbEntity
8
F-F_J_ADD
6
HIDDEN
62
253
100
AcDbLine
10
0.000000000000
20
30.000000000000
30
0.0
11
870.000000000000
21
30.000000000000
31
0.0
0
LINE
5
9e7
100
AcDbEntity
8
F-F_J_ADD
6
HIDDEN
62
253
100
AcDbLine
10
870.000000000000
20
30.000000000000
30
0.0
11
870.000000000000
21
170.000000000000
31
0.0
0
LINE
5
9e8
100
AcDbEntity
8
F-F_J_ADD
6
HIDDEN
62
253
100
AcDbLine
10
330.000000000000
20
100.000000000000
30
0.0
11
330.000000000000
21
30.000000000000
31
0.0
0
TEXT
5
9e9
100
AcDbEntity
8
0-0
62
7
370
-3
100
AcDbText
10
270.172
20
240.660
30
0.0
40
3.618
1
CG40
41
0.409
50
0.000
100
AcDbText
0
POLYLINE
5
9ea
100
AcDbEntity
8
0-0
6
CONTINUOUS
62
  7
100
AcDb2dPolyline
66
1
10
0.0
20
0.0
30
0.0
70
0
0
VERTEX
5
9eb
100
AcDbEntity
8
0-0
6
CONTINUOUS
62
  7
100
AcDbVertex
100
AcDb2dVertex
10
310.000000000000
20
340.000000000002
30
0.0
0
VERTEX
5
9ec
100
AcDbEntity
8
0-0
6
CONTINUOUS
62
  7
100
AcDbVertex
100
AcDb2dVertex
10
310.000000000000
20
475.805190300001
30
0.0
0
VERTEX
5
9ed
100
AcDbEntity
8
0-0
6
CONTINUOUS
62
  7
100
AcDbVertex
100
AcDb2dVertex
10
306.805190300000
20
475.805190300001
30
0.0
0
SEQEND
5
9ee
100
AcDbEntity
8
0-0
0
LINE
5
9ef
100
AcDbEntity
8
0-0
6
CONTINUOUS
62
7
100
AcDbLine
10
307.000000000000
20
475.805190300001
30
0.0
11
292.631919426698
21
470.575636647780
31
0.0
0
LINE
5
9f0
100
AcDbEntity
8
0-0
6
CONTINUOUS
62
7
100
AcDbLine
10
290.000000000000
20
341.202205180149
30
0.0
11
290.000000000000
21
466.816866164636
31
0.0
0
POLYLINE
5
9f1
100
AcDbEntity
8
0-0
6
CONTINUOUS
62
  7
100
AcDb2dPolyline
66
1
10
0.0
20
0.0
30
0.0
70
0
0
VERTEX
5
9f2
100
AcDbEntity
8
0-0
6
CONTINUOUS
62
  7
100
AcDbVertex
100
AcDb2dVertex
10
310.000000000002
20
340.000000000000
30
0.0
0
VERTEX
5
9f3
100
AcDbEntity
8
0-0
6
CONTINUOUS
62
  7
100
AcDbVertex
100
AcDb2dVertex
10
445.805190300001
20
339.999999999982
30
0.0
0
VERTEX
5
9f4
100
AcDbEntity
8
0-0
6
CONTINUOUS
62
  7
100
AcDbVertex
100
AcDb2dVertex
10
445.805190300001
20
336.805190299981
30
0.0
0
SEQEND
5
9f5
100
AcDbEntity
8
0-0
0
LINE
5
9f6
100
AcDbEntity
8
0-0
6
CONTINUOUS
62
7
100
AcDbLine
10
440.575636647778
20
322.631919426681
30
0.0
11
445.805190300001
21
336.999999999982
31
0.0
0
LINE
5
9f7
100
AcDbEntity
8
0-0
6
CONTINUOUS
62
7
100
AcDbLine
10
436.816866164633
20
319.999999999983
30
0.0
11
311.202205180146
21
320.000000000000
31
0.0
0
LINE
5
9f8
100
AcDbEntity
8
0-0
6
CONTINUOUS
62
7
100
AcDbLine
10
299.831279867100
20
327.141473661622
30
0.0
11
299.831279867100
21
329.831279867101
31
0.0
0
LINE
5
9f9
100
AcDbEntity
8
0-0
6
CONTINUOUS
62
7
100
AcDbLine
10
299.831279867100
20
329.831279867101
30
0.0
11
297.141473661621
21
329.831279867101
31
0.0
0
ARC
5
9fa
100
AcDbEntity
8
0-0
6
CONTINUOUS
62
7
100
AcDbCircle
10
311.500000000000
20
341.500000000002
30
0.0
40
21.502062267483
100
AcDbArc
50
180.000000000000
51
269.206451379743
0
ARC
5
9fb
100
AcDbEntity
8
0-0
6
CONTINUOUS
62
7
100
AcDbCircle
10
294.000000000000
20
466.816866164636
30
0.0
40
4.000000000000
100
AcDbArc
50
110.000000000000
51
180.000000000000
0
ARC
5
9fc
100
AcDbEntity
8
0-0
6
CONTINUOUS
62
7
100
AcDbCircle
10
311.500000000000
20
341.500000000002
30
0.0
40
18.502062267483
100
AcDbArc
50
219.099669090961
51
230.900330909040
0
ARC
5
9fd
100
AcDbEntity
8
0-0
6
CONTINUOUS
62
7
100
AcDbCircle
10
436.816866164634
20
323.999999999983
30
0.0
40
4.000000000000
100
AcDbArc
50
269.999999999992
51
339.999999999992
0
ARC
5
9fe
100
AcDbEntity
8
0-0
6
CONTINUOUS
62
7
100
AcDbCircle
10
311.500000000002
20
341.499999999999
30
0.0
40
18.502062267483
100
AcDbArc
50
219.099669090952
51
230.900330909031
0
LINE
5
9ff
100
AcDbEntity
8
0-0
6
CONTINUOUS
62
7
100
AcDbLine
10
641.670335484501
20
370.454545271981
30
0.0
11
505.670335466730
21
370.454545271981
31
0.0
0
POLYLINE
5
a00
100
AcDbEntity
8
0-0
6
CONTINUOUS
62
  7
100
AcDb2dPolyline
66
1
10
0.0
20
0.0
30
0.0
70
0
0
VERTEX
5
a01
100
AcDbEntity
8
0-0
6
CONTINUOUS
62
  7
100
AcDbVertex
100
AcDb2dVertex
10
505.670335466731
20
370.454545271981
30
0.0
0
VERTEX
5
a02
100
AcDbEntity
8
0-0
6
CONTINUOUS
62
  7
100
AcDbVertex
100
AcDb2dVertex
10
495.501615333831
20
380.623265404882
30
0.0
0
VERTEX
5
a03
100
AcDbEntity
8
0-0
6
CONTINUOUS
62
  7
100
AcDbVertex
100
AcDb2dVertex
10
489.591822435170
20
380.623265404882
30
0.0
0
VERTEX
5
a04
100
AcDbEntity
8
0-0
6
CONTINUOUS
62
  7
100
AcDbVertex
100
AcDb2dVertex
10
479.423102302270
20
370.454545271981
30
0.0
0
VERTEX
5
a05
100
AcDbEntity
8
0-0
6
CONTINUOUS
62
  7
100
AcDbVertex
100
AcDb2dVertex
10
343.423102302270
20
370.454545271981
30
0.0
0
VERTEX
5
a06
100
AcDbEntity
8
0-0
6
CONTINUOUS
62
  7
100
AcDbVertex
100
AcDb2dVertex
10
343.423102302270
20
373.454545271981
30
0.0
0
VERTEX
5
a07
100
AcDbEntity
8
0-0
6
CONTINUOUS
62
  7
100
AcDbVertex
100
AcDb2dVertex
10
348.652655954491
20
387.822625845284
30
0.0
0
SEQEND
5
a08
100
AcDbEntity
8
0-0
0
LINE
5
a09
100
AcDbEntity
8
0-0
6
CONTINUOUS
62
7
100
AcDbLine
10
478.220897122121
20
390.454545271981
30
0.0
11
352.411426437635
21
390.454545271981
31
0.0
0
LINE
5
a0a
100
AcDbEntity
8
0-0
6
CONTINUOUS
62
7
100
AcDbLine
10
343.423102302270
20
466.219557633392
30
0.0
11
343.423102302270
21
436.219557633392
31
0.0
0
POLYLINE
5
a0b
100
AcDbEntity
8
0-0
6
CONTINUOUS
62
  7
100
AcDb2dPolyline
66
1
10
0.0
20
0.0
30
0.0
70
0
0
VERTEX
5
a0c
100
AcDbEntity
8
0-0
6
CONTINUOUS
62
  7
100
AcDbVertex
100
AcDb2dVertex
10
348.423102302270
20
431.219557633391
30
0.0
0
VERTEX
5
a0d
100
AcDbEntity
8
0-0
6
CONTINUOUS
62
  7
100
AcDbVertex
100
AcDb2dVertex
10
481.105082815830
20
431.219557633391
30
0.0
0
VERTEX
5
a0e
100
AcDbEntity
8
0-0
6
CONTINUOUS
62
  7
100
AcDbVertex
100
AcDb2dVertex
10
489.591822435171
20
435.587951053392
30
0.0
0
VERTEX
5
a0f
100
AcDbEntity
8
0-0
6
CONTINUOUS
62
  7
100
AcDbVertex
100
AcDb2dVertex
10
489.591822435171
20
436.289159693393
30
0.0
0
VERTEX
5
a10
100
AcDbEntity
8
0-0
6
CONTINUOUS
62
  7
100
AcDbVertex
100
AcDb2dVertex
10
495.501615333831
20
436.289159693393
30
0.0
0
VERTEX
5
a11
100
AcDbEntity
8
0-0
6
CONTINUOUS
62
  7
100
AcDbVertex
100
AcDb2dVertex
10
495.501615333831
20
435.587951053392
30
0.0
0
VERTEX
5
a12
100
AcDbEntity
8
0-0
6
CONTINUOUS
62
  7
100
AcDbVertex
100
AcDb2dVertex
10
503.988354953171
20
431.219557633391
30
0.0
0
VERTEX
5
a13
100
AcDbEntity
8
0-0
6
CONTINUOUS
62
  7
100
AcDbVertex
100
AcDb2dVertex
10
636.670335484501
20
431.219557633391
30
0.0
0
SEQEND
5
a14
100
AcDbEntity
8
0-0
0
LINE
5
a15
100
AcDbEntity
8
0-0
6
CONTINUOUS
62
7
100
AcDbLine
10
641.670335484502
20
436.219557633392
30
0.0
11
641.670335484502
21
466.219557633392
31
0.0
0
POLYLINE
5
a16
100
AcDbEntity
8
0-0
6
CONTINUOUS
62
  7
100
AcDb2dPolyline
66
1
10
0.0
20
0.0
30
0.0
70
0
0
VERTEX
5
a17
100
AcDbEntity
8
0-0
6
CONTINUOUS
62
  7
100
AcDbVertex
100
AcDb2dVertex
10
348.423102302270
20
471.219557633392
30
0.0
0
VERTEX
5
a18
100
AcDbEntity
8
0-0
6
CONTINUOUS
62
  7
100
AcDbVertex
100
AcDb2dVertex
10
481.105082815830
20
471.219557633392
30
0.0
0
VERTEX
5
a19
100
AcDbEntity
8
0-0
6
CONTINUOUS
62
  7
100
AcDbVertex
100
AcDb2dVertex
10
489.591822435171
20
466.851164213392
30
0.0
0
VERTEX
5
a1a
100
AcDbEntity
8
0-0
6
CONTINUOUS
62
  7
100
AcDbVertex
100
AcDb2dVertex
10
489.591822435171
20
466.149955573392
30
0.0
0
VERTEX
5
a1b
100
AcDbEntity
8
0-0
6
CONTINUOUS
62
  7
100
AcDbVertex
100
AcDb2dVertex
10
495.501615333831
20
466.149955573392
30
0.0
0
VERTEX
5
a1c
100
AcDbEntity
8
0-0
6
CONTINUOUS
62
  7
100
AcDbVertex
100
AcDb2dVertex
10
495.501615333831
20
466.851164213392
30
0.0
0
VERTEX
5
a1d
100
AcDbEntity
8
0-0
6
CONTINUOUS
62
  7
100
AcDbVertex
100
AcDb2dVertex
10
503.988354953171
20
471.219557633392
30
0.0
0
VERTEX
5
a1e
100
AcDbEntity
8
0-0
6
CONTINUOUS
62
  7
100
AcDbVertex
100
AcDb2dVertex
10
636.670335484501
20
471.219557633392
30
0.0
0
SEQEND
5
a1f
100
AcDbEntity
8
0-0
0
LINE
5
a20
100
AcDbEntity
8
0-0
6
CONTINUOUS
62
7
100
AcDbLine
10
571.170335484501
20
370.454545271981
30
0.0
11
571.170335484501
21
373.454545271981
31
0.0
0
LINE
5
a21
100
AcDbEntity
8
0-0
6
CONTINUOUS
62
7
100
AcDbLine
10
568.670335484499
20
373.454545271981
30
0.0
11
568.670335484499
21
390.454545271981
31
0.0
0
LINE
5
a22
100
AcDbEntity
8
0-0
6
CONTINUOUS
62
7
100
AcDbLine
10
506.872540646877
20
390.454545271981
30
0.0
11
632.682011349136
21
390.454545271981
31
0.0
0
POLYLINE
5
a23
100
AcDbEntity
8
0-0
6
CONTINUOUS
62
  7
100
AcDb2dPolyline
66
1
10
0.0
20
0.0
30
0.0
70
0
0
VERTEX
5
a24
100
AcDbEntity
8
0-0
6
CONTINUOUS
62
  7
100
AcDbVertex
100
AcDb2dVertex
10
636.440781832279
20
387.822625845284
30
0.0
0
VERTEX
5
a25
100
AcDbEntity
8
0-0
6
CONTINUOUS
62
  7
100
AcDbVertex
100
AcDb2dVertex
10
641.670335484501
20
373.454545271981
30
0.0
0
VERTEX
5
a26
100
AcDbEntity
8
0-0
6
CONTINUOUS
62
  7
100
AcDbVertex
100
AcDb2dVertex
10
641.670335484501
20
370.454545271981
30
0.0
0
SEQEND
5
a27
100
AcDbEntity
8
0-0
0
POLYLINE
5
a28
100
AcDbEntity
8
0-0
6
CONTINUOUS
62
  7
100
AcDb2dPolyline
66
1
10
0.0
20
0.0
30
0.0
70
0
0
VERTEX
5
a29
100
AcDbEntity
8
0-0
6
CONTINUOUS
62
  7
100
AcDbVertex
100
AcDb2dVertex
10
631.670335484499
20
370.454545271981
30
0.0
0
VERTEX
5
a2a
100
AcDbEntity
8
0-0
6
CONTINUOUS
62
  7
100
AcDbVertex
100
AcDb2dVertex
10
631.670335484499
20
373.454545271981
30
0.0
0
VERTEX
5
a2b
100
AcDbEntity
8
0-0
6
CONTINUOUS
62
  7
100
AcDbVertex
100
AcDb2dVertex
10
564.045322249109
20
373.454545271981
30
0.0
0
SEQEND
5
a2c
100
AcDbEntity
8
0-0
0
LINE
5
a2d
100
AcDbEntity
8
0-0
6
CONTINUOUS
62
7
100
AcDbLine
10
613.670335484499
20
390.454545271981
30
0.0
11
613.670335484499
21
373.454545271981
31
0.0
0
LINE
5
a2e
100
AcDbEntity
8
0-0
6
CONTINUOUS
62
7
100
AcDbLine
10
616.170335484501
20
373.454545271981
30
0.0
11
616.170335484501
21
370.454545271981
31
0.0
0
LINE
5
a2f
100
AcDbEntity
8
0-0
6
CONTINUOUS
62
7
100
AcDbLine
10
625.670335484499
20
390.454545271981
30
0.0
11
625.670335484499
21
373.454545271981
31
0.0
0
LINE
5
a30
100
AcDbEntity
8
0-0
6
CONTINUOUS
62
7
100
AcDbLine
10
623.170335484500
20
373.454545271981
30
0.0
11
623.170335484500
21
370.454545271981
31
0.0
0
LINE
5
a31
100
AcDbEntity
8
0-0
6
CONTINUOUS
62
7
100
AcDbLine
10
578.170335484500
20
370.454545271981
30
0.0
11
578.170335484500
21
373.454545271981
31
0.0
0
LINE
5
a32
100
AcDbEntity
8
0-0
6
CONTINUOUS
62
7
100
AcDbLine
10
580.670335484500
20
373.454545271981
30
0.0
11
580.670335484500
21
390.454545271981
31
0.0
0
ARC
5
a33
100
AcDbEntity
8
0-0
6
CONTINUOUS
62
7
100
AcDbCircle
10
348.423102302270
20
436.219557633392
30
0.0
40
5.000000000000
100
AcDbArc
50
180.000000000000
51
270.000000000000
0
ARC
5
a34
100
AcDbEntity
8
0-0
6
CONTINUOUS
62
7
100
AcDbCircle
10
348.423102302270
20
466.219557633392
30
0.0
40
5.000000000000
100
AcDbArc
50
90.000000000000
51
180.000000000000
0
CIRCLE
5
a35
100
AcDbEntity
8
0-0
6
CONTINUOUS
62
7
100
AcDbCircle
10
365.423102302270
20
451.219557633392
30
0.0
40
6.000000000000
0
CIRCLE
5
a36
100
AcDbEntity
8
0-0
6
CONTINUOUS
62
7
100
AcDbCircle
10
410.423102302270
20
451.219557633392
30
0.0
40
6.000000000000
0
CIRCLE
5
a37
100
AcDbEntity
8
0-0
6
CONTINUOUS
62
7
100
AcDbCircle
10
365.423102302270
20
451.219557633392
30
0.0
40
3.500000000000
0
CIRCLE
5
a38
100
AcDbEntity
8
0-0
6
CONTINUOUS
62
7
100
AcDbCircle
10
410.423102302270
20
451.219557633392
30
0.0
40
3.500000000000
0
ARC
5
a39
100
AcDbEntity
8
0-0
6
CONTINUOUS
62
7
100
AcDbCircle
10
636.670335484501
20
436.219557633392
30
0.0
40
5.000000000000
100
AcDbArc
50
270.000000000000
51
360.000000000000
0
ARC
5
a3a
100
AcDbEntity
8
0-0
6
CONTINUOUS
62
7
100
AcDbCircle
10
636.670335484501
20
466.219557633392
30
0.0
40
5.000000000000
100
AcDbArc
50
0.000000000000
51
90.000000000000
0
CIRCLE
5
a3b
100
AcDbEntity
8
0-0
6
CONTINUOUS
62
7
100
AcDbCircle
10
619.670335484500
20
451.219557633392
30
0.0
40
6.000000000000
0
CIRCLE
5
a3c
100
AcDbEntity
8
0-0
6
CONTINUOUS
62
7
100
AcDbCircle
10
574.670335484500
20
451.219557633392
30
0.0
40
6.000000000000
0
CIRCLE
5
a3d
100
AcDbEntity
8
0-0
6
CONTINUOUS
62
7
100
AcDbCircle
10
574.670335484500
20
451.219557633392
30
0.0
40
3.500000000000
0
CIRCLE
5
a3e
100
AcDbEntity
8
0-0
6
CONTINUOUS
62
7
100
AcDbCircle
10
619.670335484500
20
451.219557633392
30
0.0
40
3.500000000000
0
ARC
5
a3f
100
AcDbEntity
8
0-0
6
CONTINUOUS
62
7
100
AcDbCircle
10
507.170335466730
20
368.954545271981
30
0.0
40
21.502062267483
100
AcDbArc
50
90.793548620257
51
126.643346821234
0
ARC
5
a40
100
AcDbEntity
8
0-0
6
CONTINUOUS
62
7
100
AcDbCircle
10
477.923102302270
20
368.954545271981
30
0.0
40
21.502062267483
100
AcDbArc
50
53.356653178767
51
89.206451379743
0
ARC
5
a41
100
AcDbEntity
8
0-0
6
CONTINUOUS
62
7
100
AcDbCircle
10
492.546718884499
20
388.614171245421
30
0.0
40
3.000000000000
100
AcDbArc
50
233.356653178767
51
306.643346821234
0
ARC
5
a42
100
AcDbEntity
8
0-0
6
CONTINUOUS
62
7
100
AcDbCircle
10
352.411426437635
20
386.454545271980
30
0.0
40
4.000000000000
100
AcDbArc
50
90.000000000000
51
160.000000000000
0
ARC
5
a43
100
AcDbEntity
8
0-0
6
CONTINUOUS
62
7
100
AcDbCircle
10
632.682011349136
20
386.454545271980
30
0.0
40
4.000000000000
100
AcDbArc
50
20.000000000000
51
90.000000000000
0
LINE
5
a44
100
AcDbEntity
8
0-0
6
CONTINUOUS
62
7
100
AcDbLine
10
290.000000000000
20
291.548409863164
30
0.0
11
290.000000000000
21
269.525058133893
31
0.0
0
POLYLINE
5
a45
100
AcDbEntity
8
0-0
6
CONTINUOUS
62
  7
100
AcDb2dPolyline
66
1
10
0.0
20
0.0
30
0.0
70
0
0
VERTEX
5
a46
100
AcDbEntity
8
0-0
6
CONTINUOUS
62
  7
100
AcDbVertex
100
AcDb2dVertex
10
440.805190300001
20
260.536733998528
30
0.0
0
VERTEX
5
a47
100
AcDbEntity
8
0-0
6
CONTINUOUS
62
  7
100
AcDbVertex
100
AcDb2dVertex
10
307.000000000000
20
260.536733998528
30
0.0
0
VERTEX
5
a48
100
AcDbEntity
8
0-0
6
CONTINUOUS
62
  7
100
AcDbVertex
100
AcDb2dVertex
10
292.631919426698
20
265.766287650749
30
0.0
0
SEQEND
5
a49
100
AcDbEntity
8
0-0
0
LINE
5
a4a
100
AcDbEntity
8
0-0
6
CONTINUOUS
62
7
100
AcDbLine
10
445.805190300001
20
295.536733998528
30
0.0
11
445.805190300001
21
265.536733998528
31
0.0
0
POLYLINE
5
a4b
100
AcDbEntity
8
0-0
6
CONTINUOUS
62
  7
100
AcDb2dPolyline
66
1
10
0.0
20
0.0
30
0.0
70
0
0
VERTEX
5
a4c
100
AcDbEntity
8
0-0
6
CONTINUOUS
62
  7
100
AcDbVertex
100
AcDb2dVertex
10
440.805190300001
20
300.536733998528
30
0.0
0
VERTEX
5
a4d
100
AcDbEntity
8
0-0
6
CONTINUOUS
62
  7
100
AcDbVertex
100
AcDb2dVertex
10
307.000000000000
20
300.536733998528
30
0.0
0
VERTEX
5
a4e
100
AcDbEntity
8
0-0
6
CONTINUOUS
62
  7
100
AcDbVertex
100
AcDb2dVertex
10
292.631919426698
20
295.307180346308
30
0.0
0
SEQEND
5
a4f
100
AcDbEntity
8
0-0
0
LINE
5
a50
100
AcDbEntity
8
0-0
6
DASHED
62
7
100
AcDbLine
10
298.000000000000
20
263.812466106923
30
0.0
11
298.000000000000
21
297.261001890132
31
0.0
0
CIRCLE
5
a51
100
AcDbEntity
8
0-0
6
CONTINUOUS
62
7
100
AcDbCircle
10
378.805190300001
20
280.536733998528
30
0.0
40
3.500000000000
0
CIRCLE
5
a52
100
AcDbEntity
8
0-0
6
CONTINUOUS
62
7
100
AcDbCircle
10
423.805190300001
20
280.536733998528
30
0.0
40
3.500000000000
0
ARC
5
a53
100
AcDbEntity
8
0-0
6
CONTINUOUS
62
7
100
AcDbCircle
10
294.000000000000
20
269.525058133893
30
0.0
40
4.000000000000
100
AcDbArc
50
180.000000000000
51
250.000000000000
0
ARC
5
a54
100
AcDbEntity
8
0-0
6
CONTINUOUS
62
7
100
AcDbCircle
10
294.000000000000
20
291.548409863164
30
0.0
40
4.000000000000
100
AcDbArc
50
110.000000000000
51
180.000000000000
0
ARC
5
a55
100
AcDbEntity
8
0-0
6
CONTINUOUS
62
7
100
AcDbCircle
10
440.805190300001
20
295.536733998528
30
0.0
40
5.000000000000
100
AcDbArc
50
0.000000000000
51
90.000000000000
0
ARC
5
a56
100
AcDbEntity
8
0-0
6
CONTINUOUS
62
7
100
AcDbCircle
10
440.805190300001
20
265.536733998528
30
0.0
40
5.000000000000
100
AcDbArc
50
270.000000000000
51
360.000000000000
0
CIRCLE
5
a57
100
AcDbEntity
8
0-0
6
CONTINUOUS
62
7
100
AcDbCircle
10
423.805190300001
20
280.536733998528
30
0.0
40
6.000000000000
0
CIRCLE
5
a58
100
AcDbEntity
8
0-0
6
CONTINUOUS
62
7
100
AcDbCircle
10
378.805190300001
20
280.536733998528
30
0.0
40
6.000000000000
0
LINE
5
a59
100
AcDbEntity
8
0-1
6
CENTER
62
4
100
AcDbLine
10
378.805190300001
20
339.999999999991
30
0.0
11
378.805190299999
21
319.999999999991
31
0.0
0
LINE
5
a5a
100
AcDbEntity
8
0-1
6
CONTINUOUS
62
4
100
AcDbLine
10
296.295745961166
20
326.295745961168
30
0.0
11
310.000000000000
21
340.000000000000
31
0.0
0
LINE
5
a5b
100
AcDbEntity
8
0-1
6
CONTINUOUS
62
4
100
AcDbLine
10
292.631919429999
20
470.575636648982
30
0.0
11
292.631919429999
21
341.221026325593
31
0.0
0
LINE
5
a5c
100
AcDbEntity
8
0-1
6
CENTER
62
4
100
AcDbLine
10
290.000000000000
20
453.805190300001
30
0.0
11
310.000000000000
21
453.805190300001
31
0.0
0
LINE
5
a5d
100
AcDbEntity
8
0-1
6
CONTINUOUS
62
4
100
AcDbLine
10
307.000000000000
20
475.805190300001
30
0.0
11
307.000000000000
21
341.500000000000
31
0.0
0
LINE
5
a5e
100
AcDbEntity
8
0-1
6
CONTINUOUS
62
4
100
AcDbLine
10
445.805190300001
20
336.999999999982
30
0.0
11
311.500000000000
21
336.999999999999
31
0.0
0
LINE
5
a5f
100
AcDbEntity
8
0-1
6
CONTINUOUS
62
4
100
AcDbLine
10
311.221026325591
20
322.631919429999
30
0.0
11
440.575636648980
21
322.631919429982
31
0.0
0
LINE
5
a60
100
AcDbEntity
8
0-1
6
CENTER
62
4
100
AcDbLine
10
423.805190300001
20
339.999999999985
30
0.0
11
423.805190299999
21
319.999999999985
31
0.0
0
LINE
5
a61
100
AcDbEntity
8
0-1
6
CONTINUOUS
62
4
100
AcDbLine
10
311.221026325591
20
322.631919429999
30
0.0
11
310.848035329584
21
322.641123236643
31
0.0
0
LINE
5
a62
100
AcDbEntity
8
0-1
6
CENTER
62
4
100
AcDbLine
10
290.000000000000
20
408.805190300001
30
0.0
11
310.000000000000
21
408.805190300001
31
0.0
0
ARC
5
a63
100
AcDbEntity
8
0-1
6
CONTINUOUS
62
4
100
AcDbCircle
10
311.500000000000
20
341.500000000002
30
0.0
40
18.870142837483
100
AcDbArc
50
180.847084019729
51
268.020033016752
0
ARC
5
a64
100
AcDbEntity
8
0-1
6
CONTINUOUS
62
4
100
AcDbCircle
10
311.500000000000
20
341.500000000002
30
0.0
40
4.500000000000
100
AcDbArc
50
180.000000000000
51
270.000000000000
0
LINE
5
a65
100
AcDbEntity
8
0-1
6
CONTINUOUS
62
4
100
AcDbLine
10
348.652655953287
20
387.822625841979
30
0.0
11
478.202075976676
21
387.822625841981
31
0.0
0
POLYLINE
5
a66
100
AcDbEntity
8
0-1
6
CONTINUOUS
62
  4
100
AcDb2dPolyline
66
1
10
0.0
20
0.0
30
0.0
70
0
0
VERTEX
5
a67
100
AcDbEntity
8
0-1
6
CONTINUOUS
62
  4
100
AcDbVertex
100
AcDb2dVertex
10
351.652655954270
20
387.822625841979
30
0.0
0
VERTEX
5
a68
100
AcDbEntity
8
0-1
6
CONTINUOUS
62
  4
100
AcDbVertex
100
AcDb2dVertex
10
348.423102302269
20
373.454545271979
30
0.0
0
VERTEX
5
a69
100
AcDbEntity
8
0-1
6
CONTINUOUS
62
  4
100
AcDbVertex
100
AcDb2dVertex
10
348.423102302269
20
370.454545271981
30
0.0
0
SEQEND
5
a6a
100
AcDbEntity
8
0-1
0
POLYLINE
5
a6b
100
AcDbEntity
8
0-1
6
DASHED
62
  4
100
AcDb2dPolyline
66
1
10
0.0
20
0.0
30
0.0
70
0
0
VERTEX
5
a6c
100
AcDbEntity
8
0-1
6
DASHED
62
  4
100
AcDbVertex
100
AcDb2dVertex
10
353.423102302270
20
370.454545271981
30
0.0
0
VERTEX
5
a6d
100
AcDbEntity
8
0-1
6
DASHED
62
  4
100
AcDbVertex
100
AcDb2dVertex
10
353.423102302270
20
373.454545271981
30
0.0
0
VERTEX
5
a6e
100
AcDbEntity
8
0-1
6
DASHED
62
  4
100
AcDbVertex
100
AcDb2dVertex
10
473.423102302270
20
373.454545271981
30
0.0
0
VERTEX
5
a6f
100
AcDbEntity
8
0-1
6
DASHED
62
  4
100
AcDbVertex
100
AcDb2dVertex
10
473.423102302270
20
370.454545271981
30
0.0
0
SEQEND
5
a70
100
AcDbEntity
8
0-1
0
LINE
5
a71
100
AcDbEntity
8
0-1
6
CONTINUOUS
62
4
100
AcDbLine
10
477.923102302270
20
373.454545271981
30
0.0
11
477.923102302270
21
390.454545271981
31
0.0
0
LINE
5
a72
100
AcDbEntity
8
0-1
6
CONTINUOUS
62
4
100
AcDbLine
10
477.923102302270
20
373.454545271981
30
0.0
11
343.423102302270
21
373.454545271979
31
0.0
0
LINE
5
a73
100
AcDbEntity
8
0-1
6
DASHED
62
4
100
AcDbLine
10
359.423102302270
20
373.454545271981
30
0.0
11
359.423102302270
21
390.454545271981
31
0.0
0
LINE
5
a74
100
AcDbEntity
8
0-1
6
CENTER
62
4
100
AcDbLine
10
365.423102302270
20
393.376247309484
30
0.0
11
365.423102302270
21
367.231649589294
31
0.0
0
LINE
5
a75
100
AcDbEntity
8
0-1
6
DASHED
62
4
100
AcDbLine
10
371.423102302270
20
373.454545271981
30
0.0
11
371.423102302270
21
390.454545271981
31
0.0
0
LINE
5
a76
100
AcDbEntity
8
0-1
6
DASHED
62
4
100
AcDbLine
10
404.423102302270
20
390.454545271981
30
0.0
11
404.423102302270
21
373.454545271981
31
0.0
0
LINE
5
a77
100
AcDbEntity
8
0-1
6
DASHED
62
4
100
AcDbLine
10
416.423102302270
20
373.454545271981
30
0.0
11
416.423102302270
21
390.454545271981
31
0.0
0
LINE
5
a78
100
AcDbEntity
8
0-1
6
CENTER
62
4
100
AcDbLine
10
410.423102302270
20
393.376247309484
30
0.0
11
410.423102302270
21
367.231649589294
31
0.0
0
POLYLINE
5
a79
100
AcDbEntity
8
0-1
6
CONTINUOUS
62
  4
100
AcDb2dPolyline
66
1
10
0.0
20
0.0
30
0.0
70
0
0
VERTEX
5
a7a
100
AcDbEntity
8
0-1
6
CONTINUOUS
62
  4
100
AcDbVertex
100
AcDb2dVertex
10
343.423102302270
20
436.219557633392
30
0.0
0
VERTEX
5
a7b
100
AcDbEntity
8
0-1
6
CONTINUOUS
62
  4
100
AcDbVertex
100
AcDb2dVertex
10
348.652655954270
20
439.449111285391
30
0.0
0
VERTEX
5
a7c
100
AcDbEntity
8
0-1
6
CONTINUOUS
62
  4
100
AcDbVertex
100
AcDb2dVertex
10
352.411426437269
20
441.207881768393
30
0.0
0
VERTEX
5
a7d
100
AcDbEntity
8
0-1
6
CONTINUOUS
62
  4
100
AcDbVertex
100
AcDb2dVertex
10
352.411426437269
20
461.231233498392
30
0.0
0
VERTEX
5
a7e
100
AcDbEntity
8
0-1
6
CONTINUOUS
62
  4
100
AcDbVertex
100
AcDb2dVertex
10
348.652655954270
20
462.990003981392
30
0.0
0
VERTEX
5
a7f
100
AcDbEntity
8
0-1
6
CONTINUOUS
62
  4
100
AcDbVertex
100
AcDb2dVertex
10
343.423102302270
20
466.219557633392
30
0.0
0
SEQEND
5
a80
100
AcDbEntity
8
0-1
0
POLYLINE
5
a81
100
AcDbEntity
8
0-1
6
CONTINUOUS
62
  4
100
AcDb2dPolyline
66
1
10
0.0
20
0.0
30
0.0
70
0
0
VERTEX
5
a82
100
AcDbEntity
8
0-1
6
CONTINUOUS
62
  4
100
AcDbVertex
100
AcDb2dVertex
10
351.652655954270
20
436.449111285391
30
0.0
0
VERTEX
5
a83
100
AcDbEntity
8
0-1
6
CONTINUOUS
62
  4
100
AcDbVertex
100
AcDb2dVertex
10
353.411426437270
20
440.207881768392
30
0.0
0
VERTEX
5
a84
100
AcDbEntity
8
0-1
6
CONTINUOUS
62
  4
100
AcDbVertex
100
AcDb2dVertex
10
631.682011349501
20
440.207881768392
30
0.0
0
VERTEX
5
a85
100
AcDbEntity
8
0-1
6
CONTINUOUS
62
  4
100
AcDbVertex
100
AcDb2dVertex
10
633.440781832500
20
436.449111285391
30
0.0
0
VERTEX
5
a86
100
AcDbEntity
8
0-1
6
CONTINUOUS
62
  4
100
AcDbVertex
100
AcDb2dVertex
10
351.652655954270
20
436.449111285391
30
0.0
0
VERTEX
5
a87
100
AcDbEntity
8
0-1
6
CONTINUOUS
62
  4
100
AcDbVertex
100
AcDb2dVertex
10
348.423102302270
20
431.219557633391
30
0.0
0
SEQEND
5
a88
100
AcDbEntity
8
0-1
0
LINE
5
a89
100
AcDbEntity
8
0-1
6
CONTINUOUS
62
4
100
AcDbLine
10
636.670335484501
20
431.219557633391
30
0.0
11
633.440781832500
21
436.449111285391
31
0.0
0
POLYLINE
5
a8a
100
AcDbEntity
8
0-1
6
CONTINUOUS
62
  4
100
AcDb2dPolyline
66
1
10
0.0
20
0.0
30
0.0
70
0
0
VERTEX
5
a8b
100
AcDbEntity
8
0-1
6
CONTINUOUS
62
  4
100
AcDbVertex
100
AcDb2dVertex
10
632.682011349501
20
441.207881768393
30
0.0
0
VERTEX
5
a8c
100
AcDbEntity
8
0-1
6
CONTINUOUS
62
  4
100
AcDbVertex
100
AcDb2dVertex
10
632.682011349501
20
461.231233498392
30
0.0
0
VERTEX
5
a8d
100
AcDbEntity
8
0-1
6
CONTINUOUS
62
  4
100
AcDbVertex
100
AcDb2dVertex
10
636.440781832500
20
462.990003981392
30
0.0
0
VERTEX
5
a8e
100
AcDbEntity
8
0-1
6
CONTINUOUS
62
  4
100
AcDbVertex
100
AcDb2dVertex
10
636.440781832500
20
439.449111285391
30
0.0
0
VERTEX
5
a8f
100
AcDbEntity
8
0-1
6
CONTINUOUS
62
  4
100
AcDbVertex
100
AcDb2dVertex
10
641.670335484502
20
436.219557633392
30
0.0
0
SEQEND
5
a90
100
AcDbEntity
8
0-1
0
LINE
5
a91
100
AcDbEntity
8
0-1
6
CONTINUOUS
62
4
100
AcDbLine
10
641.670335484502
20
466.219557633392
30
0.0
11
636.440781832500
21
462.990003981392
31
0.0
0
POLYLINE
5
a92
100
AcDbEntity
8
0-1
6
CONTINUOUS
62
  4
100
AcDb2dPolyline
66
1
10
0.0
20
0.0
30
0.0
70
0
0
VERTEX
5
a93
100
AcDbEntity
8
0-1
6
CONTINUOUS
62
  4
100
AcDbVertex
100
AcDb2dVertex
10
631.682011349501
20
462.231233498392
30
0.0
0
VERTEX
5
a94
100
AcDbEntity
8
0-1
6
CONTINUOUS
62
  4
100
AcDbVertex
100
AcDb2dVertex
10
353.411426437270
20
462.231233498392
30
0.0
0
VERTEX
5
a95
100
AcDbEntity
8
0-1
6
CONTINUOUS
62
  4
100
AcDbVertex
100
AcDb2dVertex
10
351.652655954270
20
465.990003981392
30
0.0
0
VERTEX
5
a96
100
AcDbEntity
8
0-1
6
CONTINUOUS
62
  4
100
AcDbVertex
100
AcDb2dVertex
10
348.423102302270
20
471.219557633392
30
0.0
0
SEQEND
5
a97
100
AcDbEntity
8
0-1
0
POLYLINE
5
a98
100
AcDbEntity
8
0-1
6
CONTINUOUS
62
  4
100
AcDb2dPolyline
66
1
10
0.0
20
0.0
30
0.0
70
0
0
VERTEX
5
a99
100
AcDbEntity
8
0-1
6
CONTINUOUS
62
  4
100
AcDbVertex
100
AcDb2dVertex
10
636.670335484501
20
471.219557633392
30
0.0
0
VERTEX
5
a9a
100
AcDbEntity
8
0-1
6
CONTINUOUS
62
  4
100
AcDbVertex
100
AcDb2dVertex
10
633.440781832500
20
465.990003981392
30
0.0
0
VERTEX
5
a9b
100
AcDbEntity
8
0-1
6
CONTINUOUS
62
  4
100
AcDbVertex
100
AcDb2dVertex
10
631.682011349501
20
462.231233498392
30
0.0
0
SEQEND
5
a9c
100
AcDbEntity
8
0-1
0
LINE
5
a9d
100
AcDbEntity
8
0-1
6
CONTINUOUS
62
4
100
AcDbLine
10
633.440781832500
20
465.990003981392
30
0.0
11
351.652655954270
21
465.990003981392
31
0.0
0
LINE
5
a9e
100
AcDbEntity
8
0-1
6
CONTINUOUS
62
4
100
AcDbLine
10
348.652655954270
20
462.990003981392
30
0.0
11
348.652655954270
21
439.449111285391
31
0.0
0
LINE
5
a9f
100
AcDbEntity
8
0-1
6
CENTER
62
4
100
AcDbLine
10
343.423102302270
20
451.219557633392
30
0.0
11
641.670335484502
21
451.219557633392
31
0.0
0
LINE
5
aa0
100
AcDbEntity
8
0-1
6
CONTINUOUS
62
4
100
AcDbLine
10
636.440781832500
20
439.449111285391
30
0.0
11
632.682011349501
21
441.207881768393
31
0.0
0
LINE
5
aa1
100
AcDbEntity
8
0-1
6
CENTER
62
4
100
AcDbLine
10
574.670335484500
20
393.376247309484
30
0.0
11
574.670335484500
21
367.231649589294
31
0.0
0
LINE
5
aa2
100
AcDbEntity
8
0-1
6
CONTINUOUS
62
4
100
AcDbLine
10
560.195406663593
20
387.822625841980
30
0.0
11
506.891361792324
21
387.822625841981
31
0.0
0
POLYLINE
5
aa3
100
AcDbEntity
8
0-1
6
CONTINUOUS
62
  4
100
AcDb2dPolyline
66
1
10
0.0
20
0.0
30
0.0
70
0
0
VERTEX
5
aa4
100
AcDbEntity
8
0-1
6
CONTINUOUS
62
  4
100
AcDbVertex
100
AcDb2dVertex
10
564.045322249110
20
373.454545271979
30
0.0
0
VERTEX
5
aa5
100
AcDbEntity
8
0-1
6
CONTINUOUS
62
  4
100
AcDbVertex
100
AcDb2dVertex
10
507.170335466731
20
373.454545271981
30
0.0
0
VERTEX
5
aa6
100
AcDbEntity
8
0-1
6
CONTINUOUS
62
  4
100
AcDbVertex
100
AcDb2dVertex
10
507.170335466731
20
390.454545271981
30
0.0
0
SEQEND
5
aa7
100
AcDbEntity
8
0-1
0
LINE
5
aa8
100
AcDbEntity
8
0-1
6
CONTINUOUS
62
4
100
AcDbLine
10
507.170335466732
20
431.219557633391
30
0.0
11
495.501615333831
21
436.289159693393
31
0.0
0
LINE
5
aa9
100
AcDbEntity
8
0-1
6
CONTINUOUS
62
4
100
AcDbLine
10
494.337215099619
20
436.289159693393
30
0.0
11
494.337215099619
21
466.149955573392
31
0.0
0
POLYLINE
5
aaa
100
AcDbEntity
8
0-1
6
CONTINUOUS
62
  4
100
AcDb2dPolyline
66
1
10
0.0
20
0.0
30
0.0
70
0
0
VERTEX
5
aab
100
AcDbEntity
8
0-1
6
CONTINUOUS
62
  4
100
AcDbVertex
100
AcDb2dVertex
10
495.501615333831
20
466.149955573392
30
0.0
0
VERTEX
5
aac
100
AcDbEntity
8
0-1
6
CONTINUOUS
62
  4
100
AcDbVertex
100
AcDb2dVertex
10
507.170335466732
20
471.219557633392
30
0.0
0
VERTEX
5
aad
100
AcDbEntity
8
0-1
6
CONTINUOUS
62
  4
100
AcDbVertex
100
AcDb2dVertex
10
507.170335466732
20
431.219557633391
30
0.0
0
SEQEND
5
aae
100
AcDbEntity
8
0-1
0
LINE
5
aaf
100
AcDbEntity
8
0-1
6
CONTINUOUS
62
4
100
AcDbLine
10
490.756222669620
20
436.289159693393
30
0.0
11
490.756222669620
21
466.149955573392
31
0.0
0
POLYLINE
5
ab0
100
AcDbEntity
8
0-1
6
CONTINUOUS
62
  4
100
AcDb2dPolyline
66
1
10
0.0
20
0.0
30
0.0
70
0
0
VERTEX
5
ab1
100
AcDbEntity
8
0-1
6
CONTINUOUS
62
  4
100
AcDbVertex
100
AcDb2dVertex
10
489.591822435171
20
466.149955573392
30
0.0
0
VERTEX
5
ab2
100
AcDbEntity
8
0-1
6
CONTINUOUS
62
  4
100
AcDbVertex
100
AcDb2dVertex
10
477.923102302270
20
471.219557633392
30
0.0
0
VERTEX
5
ab3
100
AcDbEntity
8
0-1
6
CONTINUOUS
62
  4
100
AcDbVertex
100
AcDb2dVertex
10
477.923102302270
20
431.219557633391
30
0.0
0
VERTEX
5
ab4
100
AcDbEntity
8
0-1
6
CONTINUOUS
62
  4
100
AcDbVertex
100
AcDb2dVertex
10
489.591822435171
20
436.289159693393
30
0.0
0
SEQEND
5
ab5
100
AcDbEntity
8
0-1
0
LINE
5
ab6
100
AcDbEntity
8
0-1
6
CENTER
62
4
100
AcDbLine
10
619.670335484499
20
367.231649589294
30
0.0
11
619.670335484499
21
393.376247309484
31
0.0
0
LINE
5
ab7
100
AcDbEntity
8
0-1
6
CONTINUOUS
62
4
100
AcDbLine
10
558.853786774865
20
392.829619431156
30
0.0
11
566.011831938804
21
366.115431196466
31
0.0
0
LINE
5
ab8
100
AcDbEntity
8
0-1
6
DASHED
62
4
100
AcDbLine
10
531.670335484500
20
370.454545271981
30
0.0
11
531.670335484500
21
373.454545271981
31
0.0
0
ARC
5
ab9
100
AcDbEntity
8
0-1
6
CONTINUOUS
62
4
100
AcDbCircle
10
353.411426437270
20
461.231233498392
30
0.0
40
1.000000000000
100
AcDbArc
50
90.000000000000
51
180.000000000000
0
ARC
5
aba
100
AcDbEntity
8
0-1
6
CONTINUOUS
62
4
100
AcDbCircle
10
351.652655954270
20
462.990003981392
30
0.0
40
3.000000000000
100
AcDbArc
50
90.000000000000
51
180.000000000000
0
ARC
5
abb
100
AcDbEntity
8
0-1
6
CONTINUOUS
62
4
100
AcDbCircle
10
353.411426437270
20
441.207881768393
30
0.0
40
1.000000000000
100
AcDbArc
50
180.000000000000
51
270.000000000000
0
ARC
5
abc
100
AcDbEntity
8
0-1
6
CONTINUOUS
62
4
100
AcDbCircle
10
351.652655954270
20
439.449111285391
30
0.0
40
3.000000000000
100
AcDbArc
50
180.000000000000
51
270.000000000000
0
ARC
5
abd
100
AcDbEntity
8
0-1
6
CONTINUOUS
62
4
100
AcDbCircle
10
631.682011349501
20
461.231233498392
30
0.0
40
1.000000000000
100
AcDbArc
50
0.000000000000
51
90.000000000000
0
ARC
5
abe
100
AcDbEntity
8
0-1
6
CONTINUOUS
62
4
100
AcDbCircle
10
633.440781832500
20
462.990003981392
30
0.0
40
3.000000000000
100
AcDbArc
50
0.000000000000
51
90.000000000000
0
ARC
5
abf
100
AcDbEntity
8
0-1
6
CONTINUOUS
62
4
100
AcDbCircle
10
631.682011349501
20
441.207881768393
30
0.0
40
1.000000000000
100
AcDbArc
50
270.000000000000
51
360.000000000000
0
ARC
5
ac0
100
AcDbEntity
8
0-1
6
CONTINUOUS
62
4
100
AcDbCircle
10
633.440781832500
20
439.449111285391
30
0.0
40
3.000000000000
100
AcDbArc
50
270.000000000000
51
360.000000000000
0
ARC
5
ac1
100
AcDbEntity
8
0-1
6
CONTINUOUS
62
4
100
AcDbCircle
10
477.923102302270
20
368.954545271981
30
0.0
40
4.499999997483
100
AcDbArc
50
45.000000000000
51
90.000000000001
0
ARC
5
ac2
100
AcDbEntity
8
0-1
6
CONTINUOUS
62
4
100
AcDbCircle
10
507.170335466731
20
368.954545271981
30
0.0
40
18.870142837483
100
AcDbArc
50
90.847084019728
51
132.546791768196
0
ARC
5
ac3
100
AcDbEntity
8
0-1
6
CONTINUOUS
62
4
100
AcDbCircle
10
477.923102302270
20
368.954545271981
30
0.0
40
18.870142837483
100
AcDbArc
50
45.847083341504
51
89.152915980272
0
ARC
5
ac4
100
AcDbEntity
8
0-1
6
CONTINUOUS
62
4
100
AcDbCircle
10
507.170335466731
20
368.954545271981
30
0.0
40
4.499999997483
100
AcDbArc
50
89.999999999999
51
135.000000000000
0
POLYLINE
5
ac5
100
AcDbEntity
8
0-1
6
CONTINUOUS
62
  4
100
AcDb2dPolyline
66
1
10
0.0
20
0.0
30
0.0
70
0
0
VERTEX
5
ac6
100
AcDbEntity
8
0-1
6
CONTINUOUS
62
  4
100
AcDbVertex
100
AcDb2dVertex
10
354.003010328112
20
390.454545271981
30
0.0
0
VERTEX
5
ac7
100
AcDbEntity
8
0-1
6
CONTINUOUS
62
  4
100
AcDbVertex
100
AcDb2dVertex
10
353.688615550214
20
390.414560501949
30
0.0
0
VERTEX
5
ac8
100
AcDbEntity
8
0-1
6
CONTINUOUS
62
  4
100
AcDbVertex
100
AcDb2dVertex
10
353.365798521386
20
390.295821108855
30
0.0
0
VERTEX
5
ac9
100
AcDbEntity
8
0-1
6
CONTINUOUS
62
  4
100
AcDbVertex
100
AcDb2dVertex
10
353.044367873694
20
390.101934929075
30
0.0
0
VERTEX
5
aca
100
AcDbEntity
8
0-1
6
CONTINUOUS
62
  4
100
AcDbVertex
100
AcDb2dVertex
10
352.734090114717
20
389.838793096069
30
0.0
0
VERTEX
5
acb
100
AcDbEntity
8
0-1
6
CONTINUOUS
62
  4
100
AcDbVertex
100
AcDb2dVertex
10
352.444392877153
20
389.514391041278
30
0.0
0
VERTEX
5
acc
100
AcDbEntity
8
0-1
6
CONTINUOUS
62
  4
100
AcDbVertex
100
AcDb2dVertex
10
352.184078464972
20
389.138585556981
30
0.0
0
VERTEX
5
acd
100
AcDbEntity
8
0-1
6
CONTINUOUS
62
  4
100
AcDbVertex
100
AcDb2dVertex
10
351.961056399863
20
388.722795302651
30
0.0
0
VERTEX
5
ace
100
AcDbEntity
8
0-1
6
CONTINUOUS
62
  4
100
AcDbVertex
100
AcDb2dVertex
10
351.782103094418
20
388.279653854766
30
0.0
0
VERTEX
5
acf
100
AcDbEntity
8
0-1
6
CONTINUOUS
62
  4
100
AcDbVertex
100
AcDb2dVertex
10
351.652655954271
20
387.822625841980
30
0.0
0
SEQEND
5
ad0
100
AcDbEntity
8
0-1
0
LINE
5
ad1
100
AcDbEntity
8
0-1
6
CENTER
62
4
100
AcDbLine
10
378.805190300001
20
287.237305932135
30
0.0
11
378.805190300001
21
274.354376869586
31
0.0
0
LINE
5
ad2
100
AcDbEntity
8
0-1
6
CENTER
62
4
100
AcDbLine
10
423.805190300001
20
274.354376869586
30
0.0
11
423.805190300001
21
287.237305932135
31
0.0
0
LINE
5
ad3
100
AcDbEntity
8
0-1
6
CONTINUOUS
62
4
100
AcDbLine
10
435.816866165002
20
291.548409863528
30
0.0
11
290.000000000000
21
291.548409863528
31
0.0
0
POLYLINE
5
ad4
100
AcDbEntity
8
0-1
6
CONTINUOUS
62
  4
100
AcDb2dPolyline
66
1
10
0.0
20
0.0
30
0.0
70
0
0
VERTEX
5
ad5
100
AcDbEntity
8
0-1
6
CONTINUOUS
62
  4
100
AcDbVertex
100
AcDb2dVertex
10
290.000000000000
20
269.525058133528
30
0.0
0
VERTEX
5
ad6
100
AcDbEntity
8
0-1
6
CONTINUOUS
62
  4
100
AcDbVertex
100
AcDb2dVertex
10
435.816866165002
20
269.525058133528
30
0.0
0
VERTEX
5
ad7
100
AcDbEntity
8
0-1
6
CONTINUOUS
62
  4
100
AcDbVertex
100
AcDb2dVertex
10
437.575636648002
20
265.766287650529
30
0.0
0
VERTEX
5
ad8
100
AcDbEntity
8
0-1
6
CONTINUOUS
62
  4
100
AcDbVertex
100
AcDb2dVertex
10
440.805190300001
20
260.536733998528
30
0.0
0
SEQEND
5
ad9
100
AcDbEntity
8
0-1
0
LINE
5
ada
100
AcDbEntity
8
0-1
6
CONTINUOUS
62
4
100
AcDbLine
10
292.631919427304
20
265.766287650529
30
0.0
11
437.575636648002
21
265.766287650529
31
0.0
0
POLYLINE
5
adb
100
AcDbEntity
8
0-1
6
CONTINUOUS
62
  4
100
AcDb2dPolyline
66
1
10
0.0
20
0.0
30
0.0
70
0
0
VERTEX
5
adc
100
AcDbEntity
8
0-1
6
CONTINUOUS
62
  4
100
AcDbVertex
100
AcDb2dVertex
10
436.816866165002
20
270.525058133528
30
0.0
0
VERTEX
5
add
100
AcDbEntity
8
0-1
6
CONTINUOUS
62
  4
100
AcDbVertex
100
AcDb2dVertex
10
436.816866165002
20
290.548409863528
30
0.0
0
VERTEX
5
ade
100
AcDbEntity
8
0-1
6
CONTINUOUS
62
  4
100
AcDbVertex
100
AcDb2dVertex
10
440.575636648002
20
292.307180346528
30
0.0
0
VERTEX
5
adf
100
AcDbEntity
8
0-1
6
CONTINUOUS
62
  4
100
AcDbVertex
100
AcDb2dVertex
10
445.805190300001
20
295.536733998528
30
0.0
0
SEQEND
5
ae0
100
AcDbEntity
8
0-1
0
POLYLINE
5
ae1
100
AcDbEntity
8
0-1
6
CONTINUOUS
62
  4
100
AcDb2dPolyline
66
1
10
0.0
20
0.0
30
0.0
70
0
0
VERTEX
5
ae2
100
AcDbEntity
8
0-1
6
CONTINUOUS
62
  4
100
AcDbVertex
100
AcDb2dVertex
10
445.805190300001
20
265.536733998528
30
0.0
0
VERTEX
5
ae3
100
AcDbEntity
8
0-1
6
CONTINUOUS
62
  4
100
AcDbVertex
100
AcDb2dVertex
10
440.575636648002
20
268.766287650529
30
0.0
0
VERTEX
5
ae4
100
AcDbEntity
8
0-1
6
CONTINUOUS
62
  4
100
AcDbVertex
100
AcDb2dVertex
10
440.575636648002
20
292.307180346528
30
0.0
0
SEQEND
5
ae5
100
AcDbEntity
8
0-1
0
POLYLINE
5
ae6
100
AcDbEntity
8
0-1
6
CONTINUOUS
62
  4
100
AcDb2dPolyline
66
1
10
0.0
20
0.0
30
0.0
70
0
0
VERTEX
5
ae7
100
AcDbEntity
8
0-1
6
CONTINUOUS
62
  4
100
AcDbVertex
100
AcDb2dVertex
10
435.816866165002
20
291.548409863528
30
0.0
0
VERTEX
5
ae8
100
AcDbEntity
8
0-1
6
CONTINUOUS
62
  4
100
AcDbVertex
100
AcDb2dVertex
10
437.575636648002
20
295.307180346528
30
0.0
0
VERTEX
5
ae9
100
AcDbEntity
8
0-1
6
CONTINUOUS
62
  4
100
AcDbVertex
100
AcDb2dVertex
10
440.805190300001
20
300.536733998528
30
0.0
0
SEQEND
5
aea
100
AcDbEntity
8
0-1
0
LINE
5
aeb
100
AcDbEntity
8
0-1
6
CONTINUOUS
62
4
100
AcDbLine
10
292.631919427304
20
295.307180346528
30
0.0
11
437.575636648002
21
295.307180346528
31
0.0
0
LINE
5
aec
100
AcDbEntity
8
0-1
6
CENTER
62
4
100
AcDbLine
10
445.805190300001
20
280.536733998528
30
0.0
11
290.000000000000
21
280.536733998528
31
0.0
0
LINE
5
aed
100
AcDbEntity
8
0-1
6
CONTINUOUS
62
4
100
AcDbLine
10
440.575636648002
20
268.766287650529
30
0.0
11
436.816866165002
21
270.525058133528
31
0.0
0
ARC
5
aee
100
AcDbEntity
8
0-1
6
CONTINUOUS
62
4
100
AcDbCircle
10
435.816866165002
20
270.525058133528
30
0.0
40
1.000000000000
100
AcDbArc
50
270.000000000000
51
360.000000000000
0
ARC
5
aef
100
AcDbEntity
8
0-1
6
CONTINUOUS
62
4
100
AcDbCircle
10
437.575636648002
20
268.766287650529
30
0.0
40
3.000000000000
100
AcDbArc
50
270.000000000000
51
360.000000000000
0
ARC
5
af0
100
AcDbEntity
8
0-1
6
CONTINUOUS
62
4
100
AcDbCircle
10
435.816866165002
20
290.548409863528
30
0.0
40
1.000000000000
100
AcDbArc
50
0.000000000000
51
90.000000000000
0
ARC
5
af1
100
AcDbEntity
8
0-1
6
CONTINUOUS
62
4
100
AcDbCircle
10
437.575636648002
20
292.307180346528
30
0.0
40
3.000000000000
100
AcDbArc
50
0.000000000000
51
90.000000000000
0
LINE
5
af2
100
AcDbEntity
8
0-1
6
CENTER
62
4
100
AcDbLine
10
293.331657154425
20
329.999999999985
30
0.0
11
443.206206611030
21
329.999999999985
31
0.0
0
LINE
5
af3
100
AcDbEntity
8
0-1
6
CENTER
62
4
100
AcDbLine
10
300.000000000000
20
323.331657154416
30
0.0
11
300.000000000000
21
473.256601688652
31
0.0
0
LINE
5
af4
100
AcDbEntity
8
0-1
6
CENTER
62
4
100
AcDbLine
10
619.670335484500
20
431.219557633391
30
0.0
11
619.670335484500
21
471.219557633392
31
0.0
0
LINE
5
af5
100
AcDbEntity
8
0-1
6
CENTER
62
4
100
AcDbLine
10
574.670335484500
20
471.219557633392
30
0.0
11
574.670335484500
21
431.219557633391
31
0.0
0
LINE
5
af6
100
AcDbEntity
8
0-1
6
CENTER
62
4
100
AcDbLine
10
410.423102302270
20
431.219557633391
30
0.0
11
410.423102302270
21
471.219557633392
31
0.0
0
LINE
5
af7
100
AcDbEntity
8
0-1
6
CENTER
62
4
100
AcDbLine
10
365.423102302270
20
471.219557633392
30
0.0
11
365.423102302270
21
431.219557633391
31
0.0
0
LINE
5
af8
100
AcDbEntity
8
F-F_J_ADD
6
HIDDEN
62
253
100
AcDbLine
10
310.000000000000
20
480.000000000000
30
0.0
11
310.000000000000
21
240.000000000000
31
0.0
0
LINE
5
af9
100
AcDbEntity
8
F-F_J_ADD
6
HIDDEN
62
253
100
AcDbLine
10
120.000000000000
20
130.000000000000
30
0.0
11
120.000000000000
21
30.000000000000
31
0.0
0
LINE
5
afa
100
AcDbEntity
8
F-F_J_ADD
6
HIDDEN
62
253
100
AcDbLine
10
120.000000000000
20
130.000000000000
30
0.0
11
0.000000000000
21
130.000000000000
31
0.0
0
LINE
5
afb
100
AcDbEntity
8
F-F_J_ADD
6
HIDDEN
62
253
100
AcDbLine
10
150.000000000000
20
111.126523738407
30
0.0
11
150.000000000000
21
30.000000000000
31
0.0
0
LINE
5
afc
100
AcDbEntity
8
F-F_J_ADD
6
HIDDEN
62
253
100
AcDbLine
10
180.000000000000
20
111.126523738407
30
0.0
11
180.000000000000
21
30.000000000000
31
0.0
0
LINE
5
afd
100
AcDbEntity
8
F-F_J_ADD
6
HIDDEN
62
253
100
AcDbLine
10
240.000000000000
20
111.126523738407
30
0.0
11
240.000000000000
21
30.000000000000
31
0.0
0
LINE
5
afe
100
AcDbEntity
8
F-F_J_ADD
6
HIDDEN
62
253
100
AcDbLine
10
210.000000000000
20
111.126523738407
30
0.0
11
210.000000000000
21
30.000000000000
31
0.0
0
LINE
5
aff
100
AcDbEntity
8
F-F_J_ADD
6
HIDDEN
62
253
100
AcDbLine
10
270.000000000000
20
170.000000000000
30
0.0
11
870.000000000000
21
170.000000000000
31
0.0
0
LINE
5
b00
100
AcDbEntity
8
F-F_J_ADD
6
HIDDEN
62
253
100
AcDbLine
10
160.000000000000
20
390.000000000000
30
0.0
11
160.000000000000
21
480.000000000000
31
0.0
0
LINE
5
b01
100
AcDbEntity
8
0-1
6
CENTER2
62
7
100
AcDbLine
10
122.500000000000
20
425.000000000000
30
0.0
11
122.500000000000
21
415.000000000000
31
0.0
0
LINE
5
b02
100
AcDbEntity
8
0-1
6
CENTER2
62
7
100
AcDbLine
10
127.500000000000
20
420.000000000000
30
0.0
11
117.500000000000
21
420.000000000000
31
0.0
0
LINE
5
b03
100
AcDbEntity
8
0-0
6
CONTINUOUS
62
7
100
AcDbLine
10
117.500000000000
20
437.899999999694
30
0.0
11
117.500000000000
21
439.299999999694
31
0.0
0
LINE
5
b04
100
AcDbEntity
8
0-0
6
CONTINUOUS
62
7
100
AcDbLine
10
117.800000000000
20
439.599999999694
30
0.0
11
127.200000000000
21
439.599999999694
31
0.0
0
LINE
5
b05
100
AcDbEntity
8
0-0
6
CONTINUOUS
62
7
100
AcDbLine
10
127.500000000000
20
439.299999999694
30
0.0
11
127.500000000000
21
437.899999999694
31
0.0
0
LINE
5
b06
100
AcDbEntity
8
0-0
6
CONTINUOUS
62
7
100
AcDbLine
10
127.200000000000
20
437.599999999694
30
0.0
11
126.683663493990
21
437.599999999694
31
0.0
0
LINE
5
b07
100
AcDbEntity
8
0-0
6
CONTINUOUS
62
7
100
AcDbLine
10
126.200700580845
20
437.229409522245
30
0.0
11
125.688027612496
21
435.316087956698
31
0.0
0
LINE
5
b08
100
AcDbEntity
8
0-0
6
CONTINUOUS
62
7
100
AcDbLine
10
125.717997739247
20
435.088442243168
30
0.0
11
126.259807621135
21
434.149999999694
31
0.0
0
LINE
5
b09
100
AcDbEntity
8
0-0
6
CONTINUOUS
62
7
100
AcDbLine
10
126.150000000000
20
433.740192378559
30
0.0
11
125.630384757729
21
433.440192378559
31
0.0
0
LINE
5
b0a
100
AcDbEntity
8
0-0
6
CONTINUOUS
62
7
100
AcDbLine
10
125.220577136594
20
433.549999999694
30
0.0
11
124.678767254706
21
434.488442243168
31
0.0
0
LINE
5
b0b
100
AcDbEntity
8
0-0
6
CONTINUOUS
62
7
100
AcDbLine
10
124.528916620949
20
435.626670810821
30
0.0
11
125.103378164177
21
437.770590477143
31
0.0
0
LINE
5
b0c
100
AcDbEntity
8
0-0
6
CONTINUOUS
62
7
100
AcDbLine
10
124.620415251032
20
438.399999999694
30
0.0
11
120.379584748968
21
438.399999999694
31
0.0
0
LINE
5
b0d
100
AcDbEntity
8
0-0
6
CONTINUOUS
62
7
100
AcDbLine
10
119.896621835823
20
437.770590477143
30
0.0
11
120.471083379051
21
435.626670810821
31
0.0
0
LINE
5
b0e
100
AcDbEntity
8
0-0
6
CONTINUOUS
62
7
100
AcDbLine
10
120.321232745295
20
434.488442243168
30
0.0
11
119.779422863406
21
433.549999999694
31
0.0
0
LINE
5
b0f
100
AcDbEntity
8
0-0
6
CONTINUOUS
62
7
100
AcDbLine
10
119.369615242271
20
433.440192378559
30
0.0
11
118.850000000000
21
433.740192378559
31
0.0
0
LINE
5
b10
100
AcDbEntity
8
0-0
6
CONTINUOUS
62
7
100
AcDbLine
10
118.740192378865
20
434.149999999694
30
0.0
11
119.282002260753
21
435.088442243168
31
0.0
0
LINE
5
b11
100
AcDbEntity
8
0-0
6
CONTINUOUS
62
7
100
AcDbLine
10
119.311972387505
20
435.316087956698
30
0.0
11
118.799299419155
21
437.229409522245
31
0.0
0
LINE
5
b12
100
AcDbEntity
8
0-0
6
CONTINUOUS
62
7
100
AcDbLine
10
118.316336506011
20
437.599999999694
30
0.0
11
117.800000000000
21
437.599999999694
31
0.0
0
ARC
5
b13
100
AcDbEntity
8
0-0
6
CONTINUOUS
62
7
100
AcDbCircle
10
117.800000000000
20
439.299999999694
30
0.0
40
0.300000000000
100
AcDbArc
50
90.000000000000
51
180.000000000000
0
ARC
5
b14
100
AcDbEntity
8
0-0
6
CONTINUOUS
62
7
100
AcDbCircle
10
117.800000000000
20
437.899999999694
30
0.0
40
0.300000000000
100
AcDbArc
50
180.000000000000
51
270.000000000000
0
ARC
5
b15
100
AcDbEntity
8
0-0
6
CONTINUOUS
62
7
100
AcDbCircle
10
120.379584748968
20
437.899999999694
30
0.0
40
0.500000000000
100
AcDbArc
50
90.000000000000
51
195.000000000000
0
ARC
5
b16
100
AcDbEntity
8
0-0
6
CONTINUOUS
62
7
100
AcDbCircle
10
118.316336506011
20
437.099999999694
30
0.0
40
0.500000000000
100
AcDbArc
50
15.000000000000
51
90.000000000000
0
ARC
5
b17
100
AcDbEntity
8
0-0
6
CONTINUOUS
62
7
100
AcDbCircle
10
119.022194639618
20
435.238442243168
30
0.0
40
0.300000000000
100
AcDbArc
50
330.000000000000
51
375.000000000000
0
ARC
5
b18
100
AcDbEntity
8
0-0
6
CONTINUOUS
62
7
100
AcDbCircle
10
119.000000000000
20
433.999999999694
30
0.0
40
0.300000000000
100
AcDbArc
50
150.000000000000
51
240.000000000000
0
ARC
5
b19
100
AcDbEntity
8
0-0
6
CONTINUOUS
62
7
100
AcDbCircle
10
119.519615242271
20
433.699999999694
30
0.0
40
0.300000000000
100
AcDbArc
50
240.000000000000
51
330.000000000000
0
ARC
5
b1a
100
AcDbEntity
8
0-0
6
CONTINUOUS
62
7
100
AcDbCircle
10
119.022194639618
20
435.238442243168
30
0.0
40
1.500000000000
100
AcDbArc
50
330.000000000000
51
375.000000000000
0
ARC
5
b1b
100
AcDbEntity
8
0-0
6
CONTINUOUS
62
7
100
AcDbCircle
10
127.200000000000
20
439.299999999694
30
0.0
40
0.300000000000
100
AcDbArc
50
0.000000000000
51
90.000000000000
0
ARC
5
b1c
100
AcDbEntity
8
0-0
6
CONTINUOUS
62
7
100
AcDbCircle
10
127.200000000000
20
437.899999999694
30
0.0
40
0.300000000000
100
AcDbArc
50
270.000000000000
51
360.000000000000
0
ARC
5
b1d
100
AcDbEntity
8
0-0
6
CONTINUOUS
62
7
100
AcDbCircle
10
124.620415251032
20
437.899999999694
30
0.0
40
0.500000000000
100
AcDbArc
50
345.000000000000
51
450.000000000000
0
ARC
5
b1e
100
AcDbEntity
8
0-0
6
CONTINUOUS
62
7
100
AcDbCircle
10
126.683663493990
20
437.099999999694
30
0.0
40
0.500000000000
100
AcDbArc
50
90.000000000000
51
165.000000000000
0
ARC
5
b1f
100
AcDbEntity
8
0-0
6
CONTINUOUS
62
7
100
AcDbCircle
10
125.977805360382
20
435.238442243168
30
0.0
40
0.300000000000
100
AcDbArc
50
165.000000000000
51
210.000000000000
0
ARC
5
b20
100
AcDbEntity
8
0-0
6
CONTINUOUS
62
7
100
AcDbCircle
10
126.000000000000
20
433.999999999694
30
0.0
40
0.300000000000
100
AcDbArc
50
300.000000000000
51
390.000000000000
0
ARC
5
b21
100
AcDbEntity
8
0-0
6
CONTINUOUS
62
7
100
AcDbCircle
10
125.480384757729
20
433.699999999694
30
0.0
40
0.300000000000
100
AcDbArc
50
210.000000000000
51
300.000000000000
0
ARC
5
b22
100
AcDbEntity
8
0-0
6
CONTINUOUS
62
7
100
AcDbCircle
10
125.977805360382
20
435.238442243168
30
0.0
40
1.500000000000
100
AcDbArc
50
165.000000000000
51
210.000000000000
0
POLYLINE
5
b23
100
AcDbEntity
8
0-9
6
CONTINUOUS
62
  5
100
AcDb2dPolyline
66
1
10
0.0
20
0.0
30
0.0
70
0
0
VERTEX
5
b24
100
AcDbEntity
8
0-9
6
CONTINUOUS
62
  5
100
AcDbVertex
100
AcDb2dVertex
10
142.369095889853
20
437.599999520000
30
0.0
0
VERTEX
5
b25
100
AcDbEntity
8
0-9
6
CONTINUOUS
62
  5
100
AcDbVertex
100
AcDb2dVertex
10
141.869095889853
20
436.574847599211
30
0.0
0
VERTEX
5
b26
100
AcDbEntity
8
0-9
6
CONTINUOUS
62
  5
100
AcDbVertex
100
AcDb2dVertex
10
141.869095889853
20
436.099999520000
30
0.0
0
VERTEX
5
b27
100
AcDbEntity
8
0-9
6
CONTINUOUS
62
  5
100
AcDbVertex
100
AcDb2dVertex
10
142.569095889853
20
435.399999520000
30
0.0
0
VERTEX
5
b28
100
AcDbEntity
8
0-9
6
CONTINUOUS
62
  5
100
AcDbVertex
100
AcDb2dVertex
10
142.569095889853
20
429.999999520000
30
0.0
0
VERTEX
5
b29
100
AcDbEntity
8
0-9
6
CONTINUOUS
62
  5
100
AcDbVertex
100
AcDb2dVertex
10
152.430904116473
20
429.999999520000
30
0.0
0
VERTEX
5
b2a
100
AcDbEntity
8
0-9
6
CONTINUOUS
62
  5
100
AcDbVertex
100
AcDb2dVertex
10
152.430904116473
20
435.399999520000
30
0.0
0
VERTEX
5
b2b
100
AcDbEntity
8
0-9
6
CONTINUOUS
62
  5
100
AcDbVertex
100
AcDb2dVertex
10
153.130904116473
20
436.099999520000
30
0.0
0
VERTEX
5
b2c
100
AcDbEntity
8
0-9
6
CONTINUOUS
62
  5
100
AcDbVertex
100
AcDb2dVertex
10
153.130904116473
20
436.574847599211
30
0.0
0
VERTEX
5
b2d
100
AcDbEntity
8
0-9
6
CONTINUOUS
62
  5
100
AcDbVertex
100
AcDb2dVertex
10
152.630904116473
20
437.599999520000
30
0.0
0
VERTEX
5
b2e
100
AcDbEntity
8
0-9
6
CONTINUOUS
62
  5
100
AcDbVertex
100
AcDb2dVertex
10
151.530904116473
20
437.599999520000
30
0.0
0
VERTEX
5
b2f
100
AcDbEntity
8
0-9
6
CONTINUOUS
62
  5
100
AcDbVertex
100
AcDb2dVertex
10
151.530904116473
20
436.658845246812
30
0.0
0
VERTEX
5
b30
100
AcDbEntity
8
0-9
6
CONTINUOUS
62
  5
100
AcDbVertex
100
AcDb2dVertex
10
150.630904116473
20
435.099999520000
30
0.0
0
VERTEX
5
b31
100
AcDbEntity
8
0-9
6
CONTINUOUS
62
  5
100
AcDbVertex
100
AcDb2dVertex
10
151.230904116473
20
434.499999520000
30
0.0
0
VERTEX
5
b32
100
AcDbEntity
8
0-9
6
CONTINUOUS
62
  5
100
AcDbVertex
100
AcDb2dVertex
10
151.230904116473
20
430.599999520000
30
0.0
0
VERTEX
5
b33
100
AcDbEntity
8
0-9
6
CONTINUOUS
62
  5
100
AcDbVertex
100
AcDb2dVertex
10
149.702868435346
20
430.599999520000
30
0.0
0
VERTEX
5
b34
100
AcDbEntity
8
0-9
6
CONTINUOUS
62
  5
100
AcDbVertex
100
AcDb2dVertex
10
149.458845732724
20
431.510704644384
30
0.0
0
VERTEX
5
b35
100
AcDbEntity
8
0-9
6
CONTINUOUS
62
  5
100
AcDbVertex
100
AcDb2dVertex
10
145.541154279100
20
431.510704644384
30
0.0
0
VERTEX
5
b36
100
AcDbEntity
8
0-9
6
CONTINUOUS
62
  5
100
AcDbVertex
100
AcDb2dVertex
10
145.297131576478
20
430.599999520000
30
0.0
0
VERTEX
5
b37
100
AcDbEntity
8
0-9
6
CONTINUOUS
62
  5
100
AcDbVertex
100
AcDb2dVertex
10
143.769095889853
20
430.599999520000
30
0.0
0
VERTEX
5
b38
100
AcDbEntity
8
0-9
6
CONTINUOUS
62
  5
100
AcDbVertex
100
AcDb2dVertex
10
143.769095889853
20
434.499999520000
30
0.0
0
VERTEX
5
b39
100
AcDbEntity
8
0-9
6
CONTINUOUS
62
  5
100
AcDbVertex
100
AcDb2dVertex
10
144.369095889853
20
435.099999520000
30
0.0
0
VERTEX
5
b3a
100
AcDbEntity
8
0-9
6
CONTINUOUS
62
  5
100
AcDbVertex
100
AcDb2dVertex
10
143.469095889853
20
436.658845246812
30
0.0
0
VERTEX
5
b3b
100
AcDbEntity
8
0-9
6
CONTINUOUS
62
  5
100
AcDbVertex
100
AcDb2dVertex
10
143.469095889853
20
437.599999520000
30
0.0
0
VERTEX
5
b3c
100
AcDbEntity
8
0-9
6
CONTINUOUS
62
  5
100
AcDbVertex
100
AcDb2dVertex
10
142.369095889853
20
437.599999520000
30
0.0
0
SEQEND
5
b3d
100
AcDbEntity
8
0-9
0
LINE
5
b3e
100
AcDbEntity
8
0-9
6
CENTER
62
5
100
AcDbLine
10
143.978399707695
20
420.000000000000
30
0.0
11
151.940968590430
21
420.000000000000
31
0.0
0
LINE
5
b3f
100
AcDbEntity
8
0-9
6
CENTER
62
5
100
AcDbLine
10
147.500000000000
20
416.392719161891
30
0.0
11
147.500000000000
21
424.070910584528
31
0.0
0
ARC
5
b40
100
AcDbEntity
8
0-0
6
CONTINUOUS
62
7
100
AcDbCircle
10
239.315068913019
20
440.201133305580
30
0.0
40
0.200000000000
100
AcDbArc
50
89.800000000000
51
178.000000000000
0
ARC
5
b41
100
AcDbEntity
8
0-0
6
CONTINUOUS
62
7
100
AcDbCircle
10
251.489903933073
20
440.852590137630
30
0.0
40
1.500000000000
100
AcDbArc
50
30.000000000000
51
90.000000000000
0
LINE
5
b42
100
AcDbEntity
8
0-0
6
CONTINUOUS
62
7
100
AcDbLine
10
253.195159821399
20
440.899000299144
30
0.0
11
252.788942038750
21
441.602590137630
31
0.0
0
LINE
5
b43
100
AcDbEntity
8
0-0
6
CONTINUOUS
62
7
100
AcDbLine
10
253.221954740642
20
440.799000299144
30
0.0
11
253.221954740642
21
440.652590137611
31
0.0
0
ARC
5
b44
100
AcDbEntity
8
0-0
6
CONTINUOUS
62
7
100
AcDbCircle
10
253.021954740642
20
440.799000299144
30
0.0
40
0.200000000000
100
AcDbArc
50
0.000000000000
51
30.000000000000
0
LINE
5
b45
100
AcDbEntity
8
0-0
6
CONTINUOUS
62
7
100
AcDbLine
10
215.248749659885
20
440.899000299144
30
0.0
11
215.654967442534
21
441.602590137630
31
0.0
0
LINE
5
b46
100
AcDbEntity
8
0-0
6
CONTINUOUS
62
7
100
AcDbLine
10
215.221954740642
20
440.799000299144
30
0.0
11
215.221954740642
21
440.652590137611
31
0.0
0
ARC
5
b47
100
AcDbEntity
8
0-0
6
CONTINUOUS
62
7
100
AcDbCircle
10
215.421954740642
20
440.799000299144
30
0.0
40
0.200000000000
100
AcDbArc
50
150.000000000000
51
180.000000000000
0
ARC
5
b48
100
AcDbEntity
8
0-0
6
CONTINUOUS
62
7
100
AcDbCircle
10
216.954005548211
20
440.852590137630
30
0.0
40
1.500000000000
100
AcDbArc
50
90.000000000000
51
150.000000000000
0
LINE
5
b49
100
AcDbEntity
8
0-0
6
CONTINUOUS
62
7
100
AcDbLine
10
251.489903933073
20
442.352590137630
30
0.0
11
216.954005548211
21
442.352590137630
31
0.0
0
ARC
5
b4a
100
AcDbEntity
8
0-0
6
CONTINUOUS
62
7
100
AcDbCircle
10
215.521954740642
20
440.652590137611
30
0.0
40
0.300000000000
100
AcDbArc
50
180.000000000000
51
265.407124289466
0
LINE
5
b4b
100
AcDbEntity
8
0-0
6
CONTINUOUS
62
7
100
AcDbLine
10
239.315767043302
20
440.401132087112
30
0.0
11
252.945977235219
21
440.353553484750
31
0.0
0
ARC
5
b4c
100
AcDbEntity
8
0-0
6
CONTINUOUS
62
7
100
AcDbCircle
10
252.921954740642
20
440.652590137611
30
0.0
40
0.300000000000
100
AcDbArc
50
274.592875710529
51
360.000000000000
0
ARC
5
b4d
100
AcDbEntity
8
0-0
6
CONTINUOUS
62
7
100
AcDbCircle
10
237.235679230719
20
439.952590137611
30
0.0
40
0.400000000000
100
AcDbArc
50
2.000000000000
51
90.000000000000
0
LINE
5
b4e
100
AcDbEntity
8
0-0
6
CONTINUOUS
62
7
100
AcDbLine
10
231.208230250565
20
440.352590137611
30
0.0
11
237.235679230719
21
440.352590137611
31
0.0
0
LINE
5
b4f
100
AcDbEntity
8
0-0
6
CONTINUOUS
62
7
100
AcDbLine
10
237.705438121889
20
437.951938887294
30
0.0
11
237.635435561526
21
439.966549936292
31
0.0
0
ARC
5
b50
100
AcDbEntity
8
0-0
6
CONTINUOUS
62
7
100
AcDbCircle
10
239.236619401350
20
437.944633219499
30
0.0
40
0.200000000000
100
AcDbArc
50
177.999999999999
51
218.000000000003
0
LINE
5
b51
100
AcDbEntity
8
0-0
6
CONTINUOUS
62
7
100
AcDbLine
10
239.036741235946
20
437.951613118840
30
0.0
11
239.115190747616
21
440.208113204920
31
0.0
0
ARC
5
b52
100
AcDbEntity
8
0-0
6
CONTINUOUS
62
7
100
AcDbCircle
10
238.704828948908
20
437.986838383996
30
0.0
40
1.000000000000
100
AcDbArc
50
181.999999999999
51
226.491931961942
0
LINE
5
b53
100
AcDbEntity
8
0-0
6
CONTINUOUS
62
7
100
AcDbLine
10
240.173944427964
20
436.420058045943
30
0.0
11
239.079017250629
21
437.821500924434
31
0.0
0
ARC
5
b54
100
AcDbEntity
8
0-0
6
CONTINUOUS
62
7
100
AcDbCircle
10
240.095143352603
20
436.358491898411
30
0.0
40
0.100000000000
100
AcDbArc
50
325.000000000000
51
398.000000000000
0
LINE
5
b55
100
AcDbEntity
8
0-0
6
CONTINUOUS
62
7
100
AcDbLine
10
238.912104786834
20
436.411302749988
30
0.0
11
238.016372237297
21
437.261560950018
31
0.0
0
ARC
5
b56
100
AcDbEntity
8
0-0
6
CONTINUOUS
62
7
100
AcDbCircle
10
238.843259115673
20
436.338775006590
30
0.0
40
0.100000000000
100
AcDbArc
50
335.000000000000
51
406.491931961939
0
LINE
5
b57
100
AcDbEntity
8
0-0
6
CONTINUOUS
62
7
100
AcDbLine
10
229.128142437981
20
440.401132087112
30
0.0
11
215.497932246065
21
440.353553484750
31
0.0
0
LINE
5
b58
100
AcDbEntity
8
0-0
6
CONTINUOUS
62
7
100
AcDbLine
10
240.177058557032
20
436.301134254776
30
0.0
11
238.139732207800
21
433.299036747037
31
0.0
0
LINE
5
b59
100
AcDbEntity
8
0-0
6
CONTINUOUS
62
7
100
AcDbLine
10
238.933889894377
20
436.296513180416
30
0.0
11
237.993886044665
21
434.200262287287
31
0.0
0
ARC
5
b5a
100
AcDbEntity
8
0-0
6
CONTINUOUS
62
7
100
AcDbCircle
10
237.786178817207
20
433.652590137630
30
0.0
40
0.500000000000
100
AcDbArc
50
78.807725027936
51
315.000000000000
0
ARC
5
b5b
100
AcDbEntity
8
0-0
6
CONTINUOUS
62
7
100
AcDbCircle
10
237.902640071234
20
434.241178938331
30
0.0
40
0.100000000000
100
AcDbArc
50
258.807725027920
51
335.847512960662
0
ARC
5
b5c
100
AcDbEntity
8
0-0
6
CONTINUOUS
62
7
100
AcDbCircle
10
229.128840568264
20
440.201133305580
30
0.0
40
0.200000000000
100
AcDbArc
50
2.000000000000
51
90.200000000000
0
ARC
5
b5d
100
AcDbEntity
8
0-0
6
CONTINUOUS
62
7
100
AcDbCircle
10
231.208230250565
20
439.952590137611
30
0.0
40
0.400000000000
100
AcDbArc
50
90.000000000000
51
178.000000000000
0
LINE
5
b5e
100
AcDbEntity
8
0-0
6
CONTINUOUS
62
7
100
AcDbLine
10
230.738471359394
20
437.951938887294
30
0.0
11
230.808473919757
21
439.966549936292
31
0.0
0
ARC
5
b5f
100
AcDbEntity
8
0-0
6
CONTINUOUS
62
7
100
AcDbCircle
10
229.207290079933
20
437.944633219499
30
0.0
40
0.200000000000
100
AcDbArc
50
321.999999999997
51
362.000000000000
0
LINE
5
b60
100
AcDbEntity
8
0-0
6
CONTINUOUS
62
7
100
AcDbLine
10
229.407168245337
20
437.951613118840
30
0.0
11
229.328718733668
21
440.208113204920
31
0.0
0
ARC
5
b61
100
AcDbEntity
8
0-0
6
CONTINUOUS
62
7
100
AcDbCircle
10
229.739080532375
20
437.986838383996
30
0.0
40
1.000000000000
100
AcDbArc
50
313.508068038058
51
358.000000000001
0
LINE
5
b62
100
AcDbEntity
8
0-0
6
CONTINUOUS
62
7
100
AcDbLine
10
228.269965053320
20
436.420058045943
30
0.0
11
229.364892230655
21
437.821500924434
31
0.0
0
ARC
5
b63
100
AcDbEntity
8
0-0
6
CONTINUOUS
62
7
100
AcDbCircle
10
228.348766128680
20
436.358491898411
30
0.0
40
0.100000000000
100
AcDbArc
50
142.000000000000
51
215.000000000000
0
LINE
5
b64
100
AcDbEntity
8
0-0
6
CONTINUOUS
62
7
100
AcDbLine
10
229.531804694450
20
436.411302749988
30
0.0
11
230.427537243986
21
437.261560950018
31
0.0
0
ARC
5
b65
100
AcDbEntity
8
0-0
6
CONTINUOUS
62
7
100
AcDbCircle
10
229.600650365611
20
436.338775006590
30
0.0
40
0.100000000000
100
AcDbArc
50
133.508068038061
51
205.000000000000
0
LINE
5
b66
100
AcDbEntity
8
0-0
6
CONTINUOUS
62
7
100
AcDbLine
10
228.266850924252
20
436.301134254776
30
0.0
11
230.304177273484
21
433.299036747037
31
0.0
0
LINE
5
b67
100
AcDbEntity
8
0-0
6
CONTINUOUS
62
7
100
AcDbLine
10
229.510019586907
20
436.296513180416
30
0.0
11
230.450023436619
21
434.200262287287
31
0.0
0
ARC
5
b68
100
AcDbEntity
8
0-0
6
CONTINUOUS
62
7
100
AcDbCircle
10
230.657730664077
20
433.652590137630
30
0.0
40
0.500000000000
100
AcDbArc
50
225.000000000000
51
461.192274972064
0
ARC
5
b69
100
AcDbEntity
8
0-0
6
CONTINUOUS
62
7
100
AcDbCircle
10
230.541269410050
20
434.241178938331
30
0.0
40
0.100000000000
100
AcDbArc
50
204.152487039338
51
281.192274972080
0
LINE
5
b6a
100
AcDbEntity
8
0-1
6
CONTINUOUS
62
4
100
AcDbLine
10
224.368400968669
20
421.014213274789
30
0.0
11
224.675507940410
21
420.707107256723
31
0.0
0
LINE
5
b6b
100
AcDbEntity
8
0-1
6
CONTINUOUS
62
4
100
AcDbLine
10
226.971954740642
20
426.172206591440
30
0.0
11
229.871954359172
21
424.497891138864
31
0.0
0
LINE
5
b6c
100
AcDbEntity
8
0-1
6
CONTINUOUS
62
4
100
AcDbLine
10
241.221954740642
20
428.253553103280
30
0.0
11
227.221954740642
21
428.253553103280
31
0.0
0
LINE
5
b6d
100
AcDbEntity
8
0-1
6
CONTINUOUS
62
4
100
AcDbLine
10
238.571955122111
20
424.497891138864
30
0.0
11
241.471954740642
21
426.172206591440
31
0.0
0
LINE
5
b6e
100
AcDbEntity
8
0-1
6
CONTINUOUS
62
4
100
AcDbLine
10
240.868400968669
20
430.499999712778
30
0.0
11
242.075508512614
21
431.707107256723
31
0.0
0
LINE
5
b6f
100
AcDbEntity
8
0-1
6
CONTINUOUS
62
4
100
AcDbLine
10
227.929061330913
20
430.353553484750
30
0.0
11
240.514847196696
21
430.353553484750
31
0.0
0
LINE
5
b70
100
AcDbEntity
8
0-1
6
CONTINUOUS
62
4
100
AcDbLine
10
224.221954740642
20
426.646446894479
30
0.0
11
224.221954740642
21
421.367767046762
31
0.0
0
ARC
5
b71
100
AcDbEntity
8
0-1
6
CONTINUOUS
62
4
100
AcDbCircle
10
224.721954740642
20
421.367767046762
30
0.0
40
0.500000000000
100
AcDbArc
50
180.000000000000
51
225.000000000000
0
ARC
5
b72
100
AcDbEntity
8
0-1
6
CONTINUOUS
62
4
100
AcDbCircle
10
224.321955122111
20
420.353553484750
30
0.0
40
0.500000000000
100
AcDbArc
50
314.999984741211
51
404.999984741211
0
ARC
5
b73
100
AcDbEntity
8
0-1
6
CONTINUOUS
62
4
100
AcDbCircle
10
244.121954359172
20
420.353553484750
30
0.0
40
0.500000000000
100
AcDbArc
50
134.999984741211
51
225.000000000000
0
ARC
5
b74
100
AcDbEntity
8
0-1
6
CONTINUOUS
62
4
100
AcDbCircle
10
229.621954359172
20
424.064878176523
30
0.0
40
0.500000000000
100
AcDbArc
50
0.000000000000
51
60.000000000000
0
ARC
5
b75
100
AcDbEntity
8
0-1
6
CONTINUOUS
62
4
100
AcDbCircle
10
238.821955122111
20
424.064878176523
30
0.0
40
0.500000000000
100
AcDbArc
50
119.999984741211
51
180.000000000000
0
ARC
5
b76
100
AcDbEntity
8
0-1
6
CONTINUOUS
62
4
100
AcDbCircle
10
240.514847196696
20
430.853553484750
30
0.0
40
0.500000000000
100
AcDbArc
50
270.000000000000
51
315.000000000000
0
LINE
5
b77
100
AcDbEntity
8
0-1
6
CONTINUOUS
62
4
100
AcDbLine
10
230.121954359172
20
424.064878176523
30
0.0
11
230.121954359172
21
420.000000094157
31
0.0
0
LINE
5
b78
100
AcDbEntity
8
0-1
6
CONTINUOUS
62
4
100
AcDbLine
10
238.321955122111
20
420.000000094157
30
0.0
11
238.321955122111
21
424.064878176523
31
0.0
0
LINE
5
b79
100
AcDbEntity
8
0-1
6
CONTINUOUS
62
4
100
AcDbLine
10
216.503920711635
20
425.453553866220
30
0.0
11
214.721954740642
21
425.453553866220
31
0.0
0
LINE
5
b7a
100
AcDbEntity
8
0-1
6
CONTINUOUS
62
4
100
AcDbLine
10
216.727527536510
20
425.506339739633
30
0.0
11
217.545561470149
21
425.915357302499
31
0.0
0
ARC
5
b7b
100
AcDbEntity
8
0-1
6
CONTINUOUS
62
4
100
AcDbCircle
10
214.721954740642
20
425.953553866220
30
0.0
40
0.500000000000
100
AcDbArc
50
180.000000000000
51
270.000000000000
0
ARC
5
b7c
100
AcDbEntity
8
0-1
6
CONTINUOUS
62
4
100
AcDbCircle
10
216.503920711635
20
425.953553866220
30
0.0
40
0.500000000000
100
AcDbArc
50
270.000000000000
51
296.565048217773
0
LINE
5
b7d
100
AcDbEntity
8
0-1
6
CONTINUOUS
62
4
100
AcDbLine
10
243.882261671184
20
437.411533306909
30
0.0
11
244.329903043864
21
436.181649397684
31
0.0
0
LINE
5
b7e
100
AcDbEntity
8
0-1
6
CONTINUOUS
62
4
100
AcDbLine
10
245.163975156902
20
438.693246077371
30
0.0
11
246.393860258220
21
438.245604943109
31
0.0
0
LINE
5
b7f
100
AcDbEntity
8
0-1
6
CONTINUOUS
62
4
100
AcDbLine
10
252.561645902751
20
437.411533306909
30
0.0
11
252.114006437419
21
436.181649397684
31
0.0
0
LINE
5
b80
100
AcDbEntity
8
0-1
6
CONTINUOUS
62
4
100
AcDbLine
10
251.279934324382
20
438.693246077371
30
0.0
11
250.050049223064
21
438.245604943109
31
0.0
0
ARC
5
b81
100
AcDbEntity
8
0-1
6
CONTINUOUS
62
4
100
AcDbCircle
10
244.821955122111
20
437.753553580118
30
0.0
40
1.000000000000
100
AcDbArc
50
69.999984741211
51
199.999984741211
0
ARC
5
b82
100
AcDbEntity
8
0-1
6
CONTINUOUS
62
4
100
AcDbCircle
10
251.621956266521
20
437.753553580118
30
0.0
40
1.000000000000
100
AcDbArc
50
340.000000000000
51
470.000000000000
0
ARC
5
b83
100
AcDbEntity
8
0-1
6
CONTINUOUS
62
4
100
AcDbCircle
10
248.221954740642
20
434.353553484750
30
0.0
40
4.300000190735
100
AcDbArc
50
154.840560913086
51
205.159423828125
0
ARC
5
b84
100
AcDbEntity
8
0-1
6
CONTINUOUS
62
4
100
AcDbCircle
10
248.221954740642
20
434.353553484750
30
0.0
40
4.300000190735
100
AcDbArc
50
64.840560913086
51
115.159423828125
0
ARC
5
b85
100
AcDbEntity
8
0-1
6
CONTINUOUS
62
4
100
AcDbCircle
10
248.221954740642
20
434.353553484750
30
0.0
40
4.300000190735
100
AcDbArc
50
334.840560913086
51
385.159423828125
0
LINE
5
b86
100
AcDbEntity
8
0-1
6
CONTINUOUS
62
4
100
AcDbLine
10
250.621956266521
20
427.853553484750
30
0.0
11
250.621956266521
21
426.362570475412
31
0.0
0
LINE
5
b87
100
AcDbEntity
8
0-1
6
CONTINUOUS
62
4
100
AcDbLine
10
251.716381467937
20
425.506339739633
30
0.0
11
250.898346342204
21
425.915357302499
31
0.0
0
LINE
5
b88
100
AcDbEntity
8
0-1
6
CONTINUOUS
62
4
100
AcDbLine
10
251.939987577556
20
425.453553866220
30
0.0
11
253.721954740642
21
425.453553866220
31
0.0
0
LINE
5
b89
100
AcDbEntity
8
0-1
6
CONTINUOUS
62
4
100
AcDbLine
10
243.882261671184
20
431.295573901010
30
0.0
11
244.329903043864
21
432.525457571817
31
0.0
0
LINE
5
b8a
100
AcDbEntity
8
0-1
6
CONTINUOUS
62
4
100
AcDbLine
10
245.163975156902
20
430.013860415292
30
0.0
11
246.393860258220
21
430.461501787973
31
0.0
0
LINE
5
b8b
100
AcDbEntity
8
0-1
6
CONTINUOUS
62
4
100
AcDbLine
10
252.561645902751
20
431.295573901010
30
0.0
11
252.114006437419
21
432.525457571817
31
0.0
0
LINE
5
b8c
100
AcDbEntity
8
0-1
6
CONTINUOUS
62
4
100
AcDbLine
10
251.279934324382
20
430.013860415292
30
0.0
11
250.050049223064
21
430.461501787973
31
0.0
0
LINE
5
b8d
100
AcDbEntity
8
0-1
6
CONTINUOUS
62
4
100
AcDbLine
10
244.075508512614
20
421.014213274789
30
0.0
11
243.768400587199
21
420.707107256723
31
0.0
0
LINE
5
b8e
100
AcDbEntity
8
0-1
6
CONTINUOUS
62
4
100
AcDbLine
10
241.721954740642
20
426.605219553781
30
0.0
11
241.721954740642
21
427.753553103280
31
0.0
0
LINE
5
b8f
100
AcDbEntity
8
0-1
6
CONTINUOUS
62
4
100
AcDbLine
10
244.221954740642
20
426.646446894479
30
0.0
11
244.221954740642
21
421.367767046762
31
0.0
0
LINE
5
b90
100
AcDbEntity
8
0-1
6
CONTINUOUS
62
4
100
AcDbLine
10
245.575508512614
20
428.207107256723
30
0.0
11
244.368400968669
21
426.999999712778
31
0.0
0
LINE
5
b91
100
AcDbEntity
8
0-1
6
CONTINUOUS
62
4
100
AcDbLine
10
245.929062284587
20
428.353553484750
30
0.0
11
250.121956266521
21
428.353553484750
31
0.0
0
ARC
5
b92
100
AcDbEntity
8
0-1
6
CONTINUOUS
62
4
100
AcDbCircle
10
251.121956266521
20
426.362570475412
30
0.0
40
0.500000000000
100
AcDbArc
50
180.000000000000
51
243.434936523438
0
ARC
5
b93
100
AcDbEntity
8
0-1
6
CONTINUOUS
62
4
100
AcDbCircle
10
253.721954740642
20
425.953553866220
30
0.0
40
0.500000000000
100
AcDbArc
50
270.000000000000
51
360.000000000000
0
ARC
5
b94
100
AcDbEntity
8
0-1
6
CONTINUOUS
62
4
100
AcDbCircle
10
250.121956266521
20
427.853553484750
30
0.0
40
0.500000000000
100
AcDbArc
50
0.000000000000
51
90.000000000000
0
ARC
5
b95
100
AcDbEntity
8
0-1
6
CONTINUOUS
62
4
100
AcDbCircle
10
251.939987577556
20
425.953553866220
30
0.0
40
0.500000000000
100
AcDbArc
50
243.434936523438
51
270.000000000000
0
ARC
5
b96
100
AcDbEntity
8
0-1
6
CONTINUOUS
62
4
100
AcDbCircle
10
244.821955122111
20
430.953553866220
30
0.0
40
1.000000000000
100
AcDbArc
50
160.000000000000
51
290.000000000000
0
ARC
5
b97
100
AcDbEntity
8
0-1
6
CONTINUOUS
62
4
100
AcDbCircle
10
251.621956266521
20
430.953553866220
30
0.0
40
1.000000000000
100
AcDbArc
50
249.999984741211
51
379.999984741211
0
ARC
5
b98
100
AcDbEntity
8
0-1
6
CONTINUOUS
62
4
100
AcDbCircle
10
248.221954740642
20
434.353553484750
30
0.0
40
4.300000190735
100
AcDbArc
50
244.840560913086
51
295.159423828125
0
ARC
5
b99
100
AcDbEntity
8
0-1
6
CONTINUOUS
62
4
100
AcDbCircle
10
243.721954740642
20
421.367767046762
30
0.0
40
0.500000000000
100
AcDbArc
50
314.999984741211
51
360.000000000000
0
ARC
5
b9a
100
AcDbEntity
8
0-1
6
CONTINUOUS
62
4
100
AcDbCircle
10
241.221954740642
20
427.753553103280
30
0.0
40
0.500000000000
100
AcDbArc
50
0.000000000000
51
90.000000000000
0
ARC
5
b9b
100
AcDbEntity
8
0-1
6
CONTINUOUS
62
4
100
AcDbCircle
10
241.221954740642
20
426.605219553781
30
0.0
40
0.500000000000
100
AcDbArc
50
299.999984741211
51
360.000000000000
0
ARC
5
b9c
100
AcDbEntity
8
0-1
6
CONTINUOUS
62
4
100
AcDbCircle
10
244.721954740642
20
426.646446894479
30
0.0
40
0.500000000000
100
AcDbArc
50
135.000000000000
51
180.000000000000
0
ARC
5
b9d
100
AcDbEntity
8
0-1
6
CONTINUOUS
62
4
100
AcDbCircle
10
245.929062284587
20
427.853553484750
30
0.0
40
0.500000000000
100
AcDbArc
50
90.000000000000
51
135.000000000000
0
ARC
5
b9e
100
AcDbEntity
8
0-1
6
CONTINUOUS
62
4
100
AcDbCircle
10
241.721954740642
20
432.060660075021
30
0.0
40
0.500000000000
100
AcDbArc
50
315.000000000000
51
360.000000000000
0
LINE
5
b9f
100
AcDbEntity
8
0-1
6
CONTINUOUS
62
4
100
AcDbLine
10
241.721954740642
20
436.753553580118
30
0.0
11
240.230972684978
21
436.753553580118
31
0.0
0
LINE
5
ba0
100
AcDbEntity
8
0-1
6
CONTINUOUS
62
4
100
AcDbLine
10
239.374740995525
20
437.847980688882
30
0.0
11
239.783758558391
21
437.029946755243
31
0.0
0
ARC
5
ba1
100
AcDbEntity
8
0-1
6
CONTINUOUS
62
4
100
AcDbCircle
10
240.230972684978
20
437.253553580118
30
0.0
40
0.500000000000
100
AcDbArc
50
206.565048217773
51
270.000000000000
0
ARC
5
ba2
100
AcDbEntity
8
0-1
6
CONTINUOUS
62
4
100
AcDbCircle
10
239.821955122111
20
438.071587513757
30
0.0
40
0.500000000000
100
AcDbArc
50
180.000000000000
51
206.565048217773
0
ARC
5
ba3
100
AcDbEntity
8
0-1
6
CONTINUOUS
62
4
100
AcDbCircle
10
241.721954740642
20
436.253553580118
30
0.0
40
0.500000000000
100
AcDbArc
50
0.000000000000
51
90.000000000000
0
LINE
5
ba4
100
AcDbEntity
8
0-1
6
CONTINUOUS
62
4
100
AcDbLine
10
242.221954740642
20
432.060660075021
30
0.0
11
242.221954740642
21
436.253553580118
31
0.0
0
LINE
5
ba5
100
AcDbEntity
8
0-1
6
CONTINUOUS
62
4
100
AcDbLine
10
239.321955122111
20
438.071587513757
30
0.0
11
239.321955122111
21
439.853553484750
31
0.0
0
ARC
5
ba6
100
AcDbEntity
8
0-1
6
CONTINUOUS
62
4
100
AcDbCircle
10
239.821955122111
20
439.853553484750
30
0.0
40
0.500000000000
100
AcDbArc
50
90.000000000000
51
180.000000000000
0
ARC
5
ba7
100
AcDbEntity
8
0-1
6
CONTINUOUS
62
4
100
AcDbCircle
10
252.721954740642
20
438.853553484750
30
0.0
40
1.500000000000
100
AcDbArc
50
0.000000000000
51
90.000000000000
0
LINE
5
ba8
100
AcDbEntity
8
0-1
6
CONTINUOUS
62
4
100
AcDbLine
10
254.221954740642
20
425.953553866220
30
0.0
11
254.221954740642
21
438.853553484750
31
0.0
0
LINE
5
ba9
100
AcDbEntity
8
0-1
6
CONTINUOUS
62
4
100
AcDbLine
10
215.882262148021
20
437.411533306909
30
0.0
11
216.329903282283
21
436.181649397684
31
0.0
0
LINE
5
baa
100
AcDbEntity
8
0-1
6
CONTINUOUS
62
4
100
AcDbLine
10
224.561647810100
20
437.411533306909
30
0.0
11
224.114006437419
21
436.181649397684
31
0.0
0
LINE
5
bab
100
AcDbEntity
8
0-1
6
CONTINUOUS
62
4
100
AcDbLine
10
226.221954740642
20
432.060660075021
30
0.0
11
226.221954740642
21
436.253553580118
31
0.0
0
ARC
5
bac
100
AcDbEntity
8
0-1
6
CONTINUOUS
62
4
100
AcDbCircle
10
226.721954740642
20
436.253553580118
30
0.0
40
0.500000000000
100
AcDbArc
50
90.000000000000
51
180.000000000000
0
ARC
5
bad
100
AcDbEntity
8
0-1
6
CONTINUOUS
62
4
100
AcDbCircle
10
220.221954740642
20
434.353553484750
30
0.0
40
4.300000190735
100
AcDbArc
50
154.840560913086
51
205.159423828125
0
ARC
5
bae
100
AcDbEntity
8
0-1
6
CONTINUOUS
62
4
100
AcDbCircle
10
220.221954740642
20
434.353553484750
30
0.0
40
4.300000190735
100
AcDbArc
50
334.840560913086
51
385.159423828125
0
LINE
5
baf
100
AcDbEntity
8
0-1
6
CONTINUOUS
62
4
100
AcDbLine
10
217.821954645274
20
427.853553484750
30
0.0
11
217.821954645274
21
426.362570475412
31
0.0
0
LINE
5
bb0
100
AcDbEntity
8
0-1
6
CONTINUOUS
62
4
100
AcDbLine
10
215.882262148021
20
431.295573901010
30
0.0
11
216.329903282283
21
432.525457571817
31
0.0
0
LINE
5
bb1
100
AcDbEntity
8
0-1
6
CONTINUOUS
62
4
100
AcDbLine
10
217.163974918483
20
430.013860415292
30
0.0
11
218.393858827708
21
430.461501787973
31
0.0
0
LINE
5
bb2
100
AcDbEntity
8
0-1
6
CONTINUOUS
62
4
100
AcDbLine
10
224.561647810100
20
431.295573901010
30
0.0
11
224.114006437419
21
432.525457571817
31
0.0
0
LINE
5
bb3
100
AcDbEntity
8
0-1
6
CONTINUOUS
62
4
100
AcDbLine
10
223.279934324382
20
430.013860415292
30
0.0
11
222.050050653575
21
430.461501787973
31
0.0
0
LINE
5
bb4
100
AcDbEntity
8
0-1
6
CONTINUOUS
62
4
100
AcDbLine
10
226.721954740642
20
427.753553103280
30
0.0
11
226.721954740642
21
426.605219553781
31
0.0
0
LINE
5
bb5
100
AcDbEntity
8
0-1
6
CONTINUOUS
62
4
100
AcDbLine
10
226.368400968669
20
431.707107256723
30
0.0
11
227.575508512614
21
430.499999712778
31
0.0
0
LINE
5
bb6
100
AcDbEntity
8
0-1
6
CONTINUOUS
62
4
100
AcDbLine
10
222.868400968669
20
428.207107256723
30
0.0
11
224.075508512614
21
426.999999712778
31
0.0
0
LINE
5
bb7
100
AcDbEntity
8
0-1
6
CONTINUOUS
62
4
100
AcDbLine
10
222.514848150371
20
428.353553484750
30
0.0
11
218.321954645274
21
428.353553484750
31
0.0
0
ARC
5
bb8
100
AcDbEntity
8
0-1
6
CONTINUOUS
62
4
100
AcDbCircle
10
217.321954645274
20
426.362570475412
30
0.0
40
0.500000000000
100
AcDbArc
50
296.565048217773
51
360.000000000000
0
ARC
5
bb9
100
AcDbEntity
8
0-1
6
CONTINUOUS
62
4
100
AcDbCircle
10
218.321954645274
20
427.853553484750
30
0.0
40
0.500000000000
100
AcDbArc
50
90.000000000000
51
180.000000000000
0
ARC
5
bba
100
AcDbEntity
8
0-1
6
CONTINUOUS
62
4
100
AcDbCircle
10
216.821954645274
20
430.953553866220
30
0.0
40
1.000000000000
100
AcDbArc
50
160.000000000000
51
290.000000000000
0
ARC
5
bbb
100
AcDbEntity
8
0-1
6
CONTINUOUS
62
4
100
AcDbCircle
10
223.621954359172
20
430.953553866220
30
0.0
40
1.000000000000
100
AcDbArc
50
249.999984741211
51
379.999984741211
0
ARC
5
bbc
100
AcDbEntity
8
0-1
6
CONTINUOUS
62
4
100
AcDbCircle
10
220.221954740642
20
434.353553484750
30
0.0
40
4.300000190735
100
AcDbArc
50
244.840560913086
51
295.159423828125
0
ARC
5
bbd
100
AcDbEntity
8
0-1
6
CONTINUOUS
62
4
100
AcDbCircle
10
227.221954740642
20
426.605219553781
30
0.0
40
0.500000000000
100
AcDbArc
50
180.000000000000
51
240.000000000000
0
ARC
5
bbe
100
AcDbEntity
8
0-1
6
CONTINUOUS
62
4
100
AcDbCircle
10
227.221954740642
20
427.753553103280
30
0.0
40
0.500000000000
100
AcDbArc
50
90.000000000000
51
180.000000000000
0
ARC
5
bbf
100
AcDbEntity
8
0-1
6
CONTINUOUS
62
4
100
AcDbCircle
10
227.929061330913
20
430.853553484750
30
0.0
40
0.500000000000
100
AcDbArc
50
225.000000000000
51
270.000000000000
0
ARC
5
bc0
100
AcDbEntity
8
0-1
6
CONTINUOUS
62
4
100
AcDbCircle
10
226.721954740642
20
432.060660075021
30
0.0
40
0.500000000000
100
AcDbArc
50
180.000000000000
51
225.000000000000
0
ARC
5
bc1
100
AcDbEntity
8
0-1
6
CONTINUOUS
62
4
100
AcDbCircle
10
223.721954740642
20
426.646446894479
30
0.0
40
0.500000000000
100
AcDbArc
50
0.000000000000
51
45.000000000000
0
ARC
5
bc2
100
AcDbEntity
8
0-1
6
CONTINUOUS
62
4
100
AcDbCircle
10
222.514848150371
20
427.853553484750
30
0.0
40
0.500000000000
100
AcDbArc
50
45.000000000000
51
90.000000000000
0
LINE
5
bc3
100
AcDbEntity
8
0-1
6
CONTINUOUS
62
4
100
AcDbLine
10
229.121954359172
20
438.071587513757
30
0.0
11
229.121954359172
21
439.853553484750
31
0.0
0
ARC
5
bc4
100
AcDbEntity
8
0-1
6
CONTINUOUS
62
4
100
AcDbCircle
10
228.621954359172
20
439.853553484750
30
0.0
40
0.500000000000
100
AcDbArc
50
0.000000000000
51
90.000000000000
0
ARC
5
bc5
100
AcDbEntity
8
0-1
6
CONTINUOUS
62
4
100
AcDbCircle
10
228.621954359172
20
438.071587513757
30
0.0
40
0.500000000000
100
AcDbArc
50
333.434936523438
51
360.000000000000
0
LINE
5
bc6
100
AcDbEntity
8
0-1
6
CONTINUOUS
62
4
100
AcDbLine
10
229.069168485759
20
437.847980688882
30
0.0
11
228.660150922893
21
437.029946755243
31
0.0
0
ARC
5
bc7
100
AcDbEntity
8
0-1
6
CONTINUOUS
62
4
100
AcDbCircle
10
228.212937749980
20
437.253553580118
30
0.0
40
0.500000000000
100
AcDbArc
50
270.000000000000
51
333.434936523438
0
LINE
5
bc8
100
AcDbEntity
8
0-1
6
CONTINUOUS
62
4
100
AcDbLine
10
226.721954740642
20
436.753553580118
30
0.0
11
228.212937749980
21
436.753553580118
31
0.0
0
ARC
5
bc9
100
AcDbEntity
8
0-1
6
CONTINUOUS
62
4
100
AcDbCircle
10
215.721954740642
20
438.853553484750
30
0.0
40
1.500000000000
100
AcDbArc
50
90.000000000000
51
180.000000000000
0
LINE
5
bca
100
AcDbEntity
8
0-1
6
CONTINUOUS
62
4
100
AcDbLine
10
214.221954740642
20
425.953553866220
30
0.0
11
214.221954740642
21
438.853553484750
31
0.0
0
ARC
5
bcb
100
AcDbEntity
8
0-1
6
CONTINUOUS
62
4
100
AcDbCircle
10
216.821954645274
20
437.753553580118
30
0.0
40
1.000000000000
100
AcDbArc
50
69.999984741211
51
199.999984741211
0
LINE
5
bcc
100
AcDbEntity
8
0-1
6
CONTINUOUS
62
4
100
AcDbLine
10
217.163974918483
20
438.693246077371
30
0.0
11
218.393858827708
21
438.245604943109
31
0.0
0
ARC
5
bcd
100
AcDbEntity
8
0-1
6
CONTINUOUS
62
4
100
AcDbCircle
10
220.221954740642
20
434.353553484750
30
0.0
40
4.300000190735
100
AcDbArc
50
64.840560913086
51
115.159423828125
0
LINE
5
bce
100
AcDbEntity
8
0-1
6
CONTINUOUS
62
4
100
AcDbLine
10
223.279934324382
20
438.693246077371
30
0.0
11
222.050050653575
21
438.245604943109
31
0.0
0
ARC
5
bcf
100
AcDbEntity
8
0-1
6
CONTINUOUS
62
4
100
AcDbCircle
10
223.621954359172
20
437.753553580118
30
0.0
40
1.000000000000
100
AcDbArc
50
340.000000000000
51
470.000000000000
0
LINE
5
bd0
100
AcDbEntity
8
F-F_J_ADD
6
HIDDEN
62
4
100
AcDbLine
10
248.221954740642
20
434.353553484750
30
0.0
11
254.221954740642
21
440.353553484750
31
0.0
0
LINE
5
bd1
100
AcDbEntity
8
F-F_J_ADD
6
HIDDEN
62
4
100
AcDbLine
10
220.221954740642
20
434.353553484750
30
0.0
11
214.221954740642
21
440.353553484750
31
0.0
0
LINE
5
bd2
100
AcDbEntity
8
0-1
6
CONTINUOUS
62
4
100
AcDbLine
10
252.721954740642
20
440.353553484750
30
0.0
11
215.721954740642
21
440.353553484750
31
0.0
0
LINE
5
bd3
100
AcDbEntity
8
0-1
6
PHANTOM
62
4
100
AcDbLine
10
234.221954740642
20
440.353553484750
30
0.0
11
234.221954740642
21
420.000000000000
31
0.0
0
ARC
5
bd4
100
AcDbEntity
8
0-0
6
CONTINUOUS
62
7
100
AcDbCircle
10
195.093114172378
20
440.200169958441
30
0.0
40
0.200000000000
100
AcDbArc
50
89.800000000000
51
178.000000000000
0
ARC
5
bd5
100
AcDbEntity
8
0-0
6
CONTINUOUS
62
7
100
AcDbCircle
10
207.267949192431
20
440.851626790491
30
0.0
40
1.500000000000
100
AcDbArc
50
30.000000000000
51
90.000000000000
0
LINE
5
bd6
100
AcDbEntity
8
0-0
6
CONTINUOUS
62
7
100
AcDbLine
10
208.973205080757
20
440.898036952005
30
0.0
11
208.566987298108
21
441.601626790491
31
0.0
0
LINE
5
bd7
100
AcDbEntity
8
0-0
6
CONTINUOUS
62
7
100
AcDbLine
10
209.000000000000
20
440.798036952005
30
0.0
11
209.000000000000
21
440.651626790472
31
0.0
0
ARC
5
bd8
100
AcDbEntity
8
0-0
6
CONTINUOUS
62
7
100
AcDbCircle
10
208.800000000000
20
440.798036952005
30
0.0
40
0.200000000000
100
AcDbArc
50
0.000000000000
51
30.000000000000
0
LINE
5
bd9
100
AcDbEntity
8
0-0
6
CONTINUOUS
62
7
100
AcDbLine
10
171.026794919243
20
440.898036952005
30
0.0
11
171.433012701892
21
441.601626790491
31
0.0
0
LINE
5
bda
100
AcDbEntity
8
0-0
6
CONTINUOUS
62
7
100
AcDbLine
10
171.000000000000
20
440.798036952005
30
0.0
11
171.000000000000
21
440.651626790472
31
0.0
0
ARC
5
bdb
100
AcDbEntity
8
0-0
6
CONTINUOUS
62
7
100
AcDbCircle
10
171.200000000000
20
440.798036952005
30
0.0
40
0.200000000000
100
AcDbArc
50
150.000000000000
51
180.000000000000
0
ARC
5
bdc
100
AcDbEntity
8
0-0
6
CONTINUOUS
62
7
100
AcDbCircle
10
172.732050807569
20
440.851626790491
30
0.0
40
1.500000000000
100
AcDbArc
50
90.000000000000
51
150.000000000000
0
LINE
5
bdd
100
AcDbEntity
8
0-0
6
CONTINUOUS
62
7
100
AcDbLine
10
207.267949192431
20
442.351626790491
30
0.0
11
172.732050807569
21
442.351626790491
31
0.0
0
ARC
5
bde
100
AcDbEntity
8
0-0
6
CONTINUOUS
62
7
100
AcDbCircle
10
171.300000000000
20
440.651626790472
30
0.0
40
0.300000000000
100
AcDbArc
50
180.000000000000
51
265.407124289466
0
LINE
5
bdf
100
AcDbEntity
8
0-0
6
CONTINUOUS
62
7
100
AcDbLine
10
195.093812302661
20
440.400168739973
30
0.0
11
208.724022494577
21
440.352590137611
31
0.0
0
ARC
5
be0
100
AcDbEntity
8
0-0
6
CONTINUOUS
62
7
100
AcDbCircle
10
208.700000000000
20
440.651626790472
30
0.0
40
0.300000000000
100
AcDbArc
50
274.592875710529
51
360.000000000000
0
ARC
5
be1
100
AcDbEntity
8
0-0
6
CONTINUOUS
62
7
100
AcDbCircle
10
193.013724490077
20
439.951626790472
30
0.0
40
0.400000000000
100
AcDbArc
50
2.000000000000
51
90.000000000000
0
LINE
5
be2
100
AcDbEntity
8
0-0
6
CONTINUOUS
62
7
100
AcDbLine
10
186.986275509923
20
440.351626790472
30
0.0
11
193.013724490077
21
440.351626790472
31
0.0
0
LINE
5
be3
100
AcDbEntity
8
0-0
6
CONTINUOUS
62
7
100
AcDbLine
10
193.483483381247
20
437.950975540155
30
0.0
11
193.413480820885
21
439.965586589153
31
0.0
0
ARC
5
be4
100
AcDbEntity
8
0-0
6
CONTINUOUS
62
7
100
AcDbCircle
10
195.014664660708
20
437.943669872360
30
0.0
40
0.200000000000
100
AcDbArc
50
177.999999999999
51
218.000000000003
0
LINE
5
be5
100
AcDbEntity
8
0-0
6
CONTINUOUS
62
7
100
AcDbLine
10
194.814786495304
20
437.950649771701
30
0.0
11
194.893236006974
21
440.207149857782
31
0.0
0
ARC
5
be6
100
AcDbEntity
8
0-0
6
CONTINUOUS
62
7
100
AcDbCircle
10
194.482874208266
20
437.985875036858
30
0.0
40
1.000000000000
100
AcDbArc
50
181.999999999999
51
226.491931961942
0
LINE
5
be7
100
AcDbEntity
8
0-0
6
CONTINUOUS
62
7
100
AcDbLine
10
195.951989687322
20
436.419094698804
30
0.0
11
194.857062509987
21
437.820537577295
31
0.0
0
ARC
5
be8
100
AcDbEntity
8
0-0
6
CONTINUOUS
62
7
100
AcDbCircle
10
195.873188611961
20
436.357528551272
30
0.0
40
0.100000000000
100
AcDbArc
50
325.000000000000
51
398.000000000000
0
LINE
5
be9
100
AcDbEntity
8
0-0
6
CONTINUOUS
62
7
100
AcDbLine
10
194.690150046192
20
436.410339402849
30
0.0
11
193.794417496655
21
437.260597602880
31
0.0
0
ARC
5
bea
100
AcDbEntity
8
0-0
6
CONTINUOUS
62
7
100
AcDbCircle
10
194.621304375031
20
436.337811659451
30
0.0
40
0.100000000000
100
AcDbArc
50
335.000000000000
51
406.491931961939
0
LINE
5
beb
100
AcDbEntity
8
0-0
6
CONTINUOUS
62
7
100
AcDbLine
10
184.906187697339
20
440.400168739973
30
0.0
11
171.275977505423
21
440.352590137611
31
0.0
0
LINE
5
bec
100
AcDbEntity
8
0-0
6
CONTINUOUS
62
7
100
AcDbLine
10
195.955103816390
20
436.300170907637
30
0.0
11
193.917777467158
21
433.298073399898
31
0.0
0
LINE
5
bed
100
AcDbEntity
8
0-0
6
CONTINUOUS
62
7
100
AcDbLine
10
194.711935153735
20
436.295549833277
30
0.0
11
193.771931304023
21
434.199298940148
31
0.0
0
ARC
5
bee
100
AcDbEntity
8
0-0
6
CONTINUOUS
62
7
100
AcDbCircle
10
193.564224076565
20
433.651626790491
30
0.0
40
0.500000000000
100
AcDbArc
50
78.807725027936
51
315.000000000000
0
ARC
5
bef
100
AcDbEntity
8
0-0
6
CONTINUOUS
62
7
100
AcDbCircle
10
193.680685330592
20
434.240215591192
30
0.0
40
0.100000000000
100
AcDbArc
50
258.807725027920
51
335.847512960662
0
ARC
5
bf0
100
AcDbEntity
8
0-0
6
CONTINUOUS
62
7
100
AcDbCircle
10
184.906885827622
20
440.200169958441
30
0.0
40
0.200000000000
100
AcDbArc
50
2.000000000000
51
90.200000000000
0
ARC
5
bf1
100
AcDbEntity
8
0-0
6
CONTINUOUS
62
7
100
AcDbCircle
10
186.986275509923
20
439.951626790472
30
0.0
40
0.400000000000
100
AcDbArc
50
90.000000000000
51
178.000000000000
0
LINE
5
bf2
100
AcDbEntity
8
0-0
6
CONTINUOUS
62
7
100
AcDbLine
10
186.516516618753
20
437.950975540155
30
0.0
11
186.586519179115
21
439.965586589153
31
0.0
0
ARC
5
bf3
100
AcDbEntity
8
0-0
6
CONTINUOUS
62
7
100
AcDbCircle
10
184.985335339292
20
437.943669872360
30
0.0
40
0.200000000000
100
AcDbArc
50
321.999999999997
51
362.000000000000
0
LINE
5
bf4
100
AcDbEntity
8
0-0
6
CONTINUOUS
62
7
100
AcDbLine
10
185.185213504696
20
437.950649771701
30
0.0
11
185.106763993026
21
440.207149857782
31
0.0
0
ARC
5
bf5
100
AcDbEntity
8
0-0
6
CONTINUOUS
62
7
100
AcDbCircle
10
185.517125791734
20
437.985875036858
30
0.0
40
1.000000000000
100
AcDbArc
50
313.508068038058
51
358.000000000001
0
LINE
5
bf6
100
AcDbEntity
8
0-0
6
CONTINUOUS
62
7
100
AcDbLine
10
184.048010312678
20
436.419094698804
30
0.0
11
185.142937490013
21
437.820537577295
31
0.0
0
ARC
5
bf7
100
AcDbEntity
8
0-0
6
CONTINUOUS
62
7
100
AcDbCircle
10
184.126811388039
20
436.357528551272
30
0.0
40
0.100000000000
100
AcDbArc
50
142.000000000000
51
215.000000000000
0
LINE
5
bf8
100
AcDbEntity
8
0-0
6
CONTINUOUS
62
7
100
AcDbLine
10
185.309849953808
20
436.410339402849
30
0.0
11
186.205582503345
21
437.260597602880
31
0.0
0
ARC
5
bf9
100
AcDbEntity
8
0-0
6
CONTINUOUS
62
7
100
AcDbCircle
10
185.378695624969
20
436.337811659451
30
0.0
40
0.100000000000
100
AcDbArc
50
133.508068038061
51
205.000000000000
0
LINE
5
bfa
100
AcDbEntity
8
0-0
6
CONTINUOUS
62
7
100
AcDbLine
10
184.044896183610
20
436.300170907637
30
0.0
11
186.082222532842
21
433.298073399898
31
0.0
0
LINE
5
bfb
100
AcDbEntity
8
0-0
6
CONTINUOUS
62
7
100
AcDbLine
10
185.288064846265
20
436.295549833277
30
0.0
11
186.228068695977
21
434.199298940148
31
0.0
0
ARC
5
bfc
100
AcDbEntity
8
0-0
6
CONTINUOUS
62
7
100
AcDbCircle
10
186.435775923435
20
433.651626790491
30
0.0
40
0.500000000000
100
AcDbArc
50
225.000000000000
51
461.192274972064
0
ARC
5
bfd
100
AcDbEntity
8
0-0
6
CONTINUOUS
62
7
100
AcDbCircle
10
186.319314669408
20
434.240215591192
30
0.0
40
0.100000000000
100
AcDbArc
50
204.152487039338
51
281.192274972080
0
LINE
5
bfe
100
AcDbEntity
8
0-1
6
PHANTOM
62
4
100
AcDbLine
10
190.000000000000
20
442.351626790491
30
0.0
11
190.000000000000
21
412.713663771593
31
0.0
0
LINE
5
bff
100
AcDbEntity
8
0-0
6
CONTINUOUS
62
7
100
AcDbLine
10
982.619390085782
20
417.291061676007
30
0.0
11
970.862043656699
21
413.763857747282
31
0.0
0
LINE
5
c00
100
AcDbEntity
8
0-0
6
CONTINUOUS
62
7
100
AcDbLine
10
985.000000000000
20
438.005244650273
30
0.0
11
985.000000000000
21
420.113723911613
31
0.0
0
LINE
5
c01
100
AcDbEntity
8
0-0
6
CONTINUOUS
62
7
100
AcDbLine
10
987.000000000000
20
420.113723911613
30
0.0
11
987.000000000000
21
438.005244650273
31
0.0
0
LINE
5
c02
100
AcDbEntity
8
0-0
6
CONTINUOUS
62
7
100
AcDbLine
10
953.000000000000
20
438.005244650273
30
0.0
11
953.000000000000
21
420.113723911613
31
0.0
0
LINE
5
c03
100
AcDbEntity
8
0-0
6
CONTINUOUS
62
7
100
AcDbLine
10
956.805914143085
20
415.375409105565
30
0.0
11
965.447152890193
21
412.783037481432
31
0.0
0
LINE
5
c04
100
AcDbEntity
8
0-0
6
CONTINUOUS
62
7
100
AcDbLine
10
974.552847109807
20
412.783037481432
30
0.0
11
983.194085856915
21
415.375409105565
31
0.0
0
LINE
5
c05
100
AcDbEntity
8
0-0
6
CONTINUOUS
62
7
100
AcDbLine
10
987.400000000000
20
438.005244650273
30
0.0
11
953.000000000000
21
438.005244650273
31
0.0
0
ELLIPSE
  5
c06
100
AcDbEntity
8
0-0
6
CONTINUOUS
62
7
100
AcDbEllipse
10
981.400000000000
20
420.113723911613
30
0.0
11
-3.600000000000
21
0.000000000000
31
0.0
210
0.0
220
0.0
230
1.0
40
0.833333333333
41
1.916351907377
42
3.141592653590
0
ARC
5
c07
100
AcDbEntity
8
0-0
6
CONTINUOUS
62
7
100
AcDbCircle
10
970.000000000000
20
416.637336602946
30
0.0
40
3.000000000000
100
AcDbArc
50
253.300755766006
51
286.699244233993
0
ELLIPSE
  5
c08
100
AcDbEntity
8
0-0
6
CONTINUOUS
62
7
100
AcDbEllipse
10
958.600000000000
20
420.113723911613
30
0.0
11
-5.600000000000
21
0.000000000000
31
0.0
210
0.0
220
0.0
230
1.0
40
0.892857142857
41
0.000000000000
42
1.225240746213
0
ELLIPSE
  5
c09
100
AcDbEntity
8
0-0
6
CONTINUOUS
62
7
100
AcDbEllipse
10
981.400000000000
20
420.113723911613
30
0.0
11
-5.600000000000
21
0.000000000000
31
0.0
210
0.0
220
0.0
230
1.0
40
0.892857142857
41
1.916351907377
42
3.141592653590
0
ARC
5
c0a
100
AcDbEntity
8
0-0
6
CONTINUOUS
62
7
100
AcDbCircle
10
975.414890766506
20
409.909558625769
30
0.0
40
3.000000000000
100
AcDbArc
50
106.699244233994
51
146.414381465820
0
ARC
5
c0b
100
AcDbEntity
8
0-0
6
CONTINUOUS
62
7
100
AcDbCircle
10
970.000000000000
20
413.505244650273
30
0.0
40
3.500000000000
100
AcDbArc
50
213.585618534180
51
326.414381465820
0
ARC
5
c0c
100
AcDbEntity
8
0-0
6
CONTINUOUS
62
7
100
AcDbCircle
10
964.585109233494
20
409.909558625769
30
0.0
40
3.000000000000
100
AcDbArc
50
33.585618534180
51
73.300755766006
0
LINE
5
c0d
100
AcDbEntity
8
0-0
6
CENTER
62
4
100
AcDbLine
10
970.000000000000
20
441.646518392033
30
0.0
11
970.000000000000
21
407.898070636135
31
0.0
0
LINE
5
c0e
100
AcDbEntity
8
0-0
6
CONTINUOUS
62
7
100
AcDbLine
10
955.000000000000
20
420.113723911613
30
0.0
11
955.000000000000
21
438.005244650273
31
0.0
0
LINE
5
c0f
100
AcDbEntity
8
0-0
6
CONTINUOUS
62
7
100
AcDbLine
10
969.137956343301
20
413.763857747282
30
0.0
11
957.380609914218
21
417.291061676007
31
0.0
0
ELLIPSE
  5
c10
100
AcDbEntity
8
0-0
6
CONTINUOUS
62
7
100
AcDbEllipse
10
958.600000000000
20
420.113723911613
30
0.0
11
-3.600000000000
21
0.000000000000
31
0.0
210
0.0
220
0.0
230
1.0
40
0.833333333333
41
0.000000000000
42
1.225240746213
0
LINE
5
c11
100
AcDbEntity
8
0-0
6
CONTINUOUS
62
7
100
AcDbLine
10
950.000000000000
20
334.424786468922
30
0.0
11
950.000000000000
21
311.656878421595
31
0.0
0
POLYLINE
5
c12
100
AcDbEntity
8
0-0
6
CONTINUOUS
62
  7
100
AcDb2dPolyline
66
1
10
0.0
20
0.0
30
0.0
70
0
0
VERTEX
5
c13
100
AcDbEntity
8
0-0
6
CONTINUOUS
62
  7
100
AcDbVertex
100
AcDb2dVertex
10
948.000000000000
20
311.656878421595
30
0.0
0
VERTEX
5
c14
100
AcDbEntity
8
0-0
6
CONTINUOUS
62
  7
100
AcDbVertex
100
AcDb2dVertex
10
948.000000000000
20
334.424786468922
30
0.0
0
VERTEX
5
c15
100
AcDbEntity
8
0-0
6
CONTINUOUS
62
  7
100
AcDbVertex
100
AcDb2dVertex
10
992.000000000000
20
334.424786468922
30
0.0
0
VERTEX
5
c16
100
AcDbEntity
8
0-0
6
CONTINUOUS
62
  7
100
AcDbVertex
100
AcDb2dVertex
10
992.000000000000
20
311.656878421595
30
0.0
0
SEQEND
5
c17
100
AcDbEntity
8
0-0
0
LINE
5
c18
100
AcDbEntity
8
0-0
6
CONTINUOUS
62
7
100
AcDbLine
10
990.000000000000
20
311.656878421595
30
0.0
11
990.000000000000
21
334.424786468922
31
0.0
0
LINE
5
c19
100
AcDbEntity
8
0-0
6
CONTINUOUS
62
7
100
AcDbLine
10
987.862043656699
20
308.783399565932
30
0.0
11
970.862043656699
21
303.683399565932
31
0.0
0
LINE
5
c1a
100
AcDbEntity
8
0-0
6
CONTINUOUS
62
7
100
AcDbLine
10
969.137956343301
20
303.683399565932
30
0.0
11
952.137956343301
21
308.783399565932
31
0.0
0
LINE
5
c1b
100
AcDbEntity
8
0-0
6
CONTINUOUS
62
7
100
AcDbLine
10
951.563260572168
20
306.867746995489
30
0.0
11
964.824940782478
21
302.889242932397
31
0.0
0
LINE
5
c1c
100
AcDbEntity
8
0-0
6
CONTINUOUS
62
7
100
AcDbLine
10
975.175059217522
20
302.889242932397
30
0.0
11
988.436739427832
21
306.867746995489
31
0.0
0
ARC
5
c1d
100
AcDbEntity
8
0-0
6
CONTINUOUS
62
7
100
AcDbCircle
10
970.000000000000
20
306.556878421595
30
0.0
40
3.000000000000
100
AcDbArc
50
253.300755766007
51
286.699244233993
0
ARC
5
c1e
100
AcDbEntity
8
0-0
6
CONTINUOUS
62
7
100
AcDbCircle
10
953.000000000000
20
311.656878421595
30
0.0
40
3.000000000000
100
AcDbArc
50
180.000000000000
51
253.300755766007
0
ARC
5
c1f
100
AcDbEntity
8
0-0
6
CONTINUOUS
62
7
100
AcDbCircle
10
987.000000000000
20
311.656878421595
30
0.0
40
3.000000000000
100
AcDbArc
50
286.699244233993
51
360.000000000000
0
ARC
5
c20
100
AcDbEntity
8
0-0
6
CONTINUOUS
62
7
100
AcDbCircle
10
987.000000000000
20
311.656878421595
30
0.0
40
5.000000000000
100
AcDbArc
50
286.699244233993
51
360.000000000000
0
ARC
5
c21
100
AcDbEntity
8
0-0
6
CONTINUOUS
62
7
100
AcDbCircle
10
953.000000000000
20
311.656878421595
30
0.0
40
5.000000000000
100
AcDbArc
50
180.000000000000
51
253.300755766007
0
ARC
5
c22
100
AcDbEntity
8
0-0
6
CONTINUOUS
62
7
100
AcDbCircle
10
963.962897125778
20
300.015764076733
30
0.0
40
3.000000000000
100
AcDbArc
50
21.753787161934
51
73.300755766006
0
ARC
5
c23
100
AcDbEntity
8
0-0
6
CONTINUOUS
62
7
100
AcDbCircle
10
970.000000000000
20
302.424786468922
30
0.0
40
3.500000000000
100
AcDbArc
50
201.753787161934
51
338.246212838066
0
ARC
5
c24
100
AcDbEntity
8
0-0
6
CONTINUOUS
62
7
100
AcDbCircle
10
976.037102874222
20
300.015764076733
30
0.0
40
3.000000000000
100
AcDbArc
50
106.699244233994
51
158.246212838066
0
LINE
5
c25
100
AcDbEntity
8
0-0
6
CENTER
62
4
100
AcDbLine
10
970.000000000000
20
295.380561421344
30
0.0
11
970.000000000000
21
339.279818123389
31
0.0
0
LINE
5
c26
100
AcDbEntity
8
F-F_J_ADD
6
HIDDEN
62
253
100
AcDbLine
10
1000.000000000000
20
480.000000000000
30
0.0
11
0.000000000000
21
480.000000000000
31
0.0
0
LINE
5
c27
100
AcDbEntity
8
F-F_J_ADD
6
HIDDEN
62
253
100
AcDbLine
10
700.000000000000
20
350.000000000000
30
0.0
11
1000.000000000000
21
350.000000000000
31
0.0
0
LINE
5
c28
100
AcDbEntity
8
F-F_J_ADD
6
HIDDEN
62
253
100
AcDbLine
10
1000.000000000000
20
240.000000000000
30
0.0
11
1000.000000000000
21
480.000000000000
31
0.0
0
LINE
5
c29
100
AcDbEntity
8
F-F_J_ADD
6
HIDDEN
62
253
100
AcDbLine
10
0.000000000000
20
240.000000000000
30
0.0
11
1000.000000000000
21
240.000000000000
31
0.0
0
TEXT
5
c2a
100
AcDbEntity
8
0-0
62
7
370
-3
100
AcDbText
10
970.200
20
340.047
30
0.0
40
4.208
1
自由形状
41
0.856
50
0.000
100
AcDbText
0
TEXT
5
c2b
100
AcDbEntity
8
0-0
62
7
370
-3
100
AcDbText
10
970.200
20
442.414
30
0.0
40
4.208
1
自由形状
41
0.856
50
0.000
100
AcDbText
0
ENDSEC
 0
SECTION
  2
OBJECTS
 0
DICTIONARY
  5
C
100
AcDbDictionary
  3
ACAD_GROUP
350
D
  3
ACAD_MLINESTYLE
350
E
 0
DICTIONARY
  5
D
102
{ACAD_REACTORS
102
}
100
AcDbDictionary
 0
DICTIONARY
  5
E
102
{ACAD_REACTORS
102
}
100
AcDbDictionary
  3
STANDARD
350
13
0
MLINESTYLE
  5
13
102
{ACAD_REACTORS
102
}
100
AcDbMlineStyle
  2
STANDARD
 70
    0
3

62
256
51
90.0
52
90.0
71
0
0
ACDBPLACEHOLDER
  5
14
102
{ACAD_REACTORS
102
}
0
ENDSEC
0
EOF
