0
SECTION
2
HEADER
9
$ACADVER
1
AC1015
9
$ACADMAINTVER
 70
6
9
$DWGCODEPAGE
3
ANSI_932
9
$EXTMIN
10
0.000
20
0.000
30
0.0
9
$EXTMAX
10
1189.000
20
841.000
30
0.0
9
$LIMMIN
10
0.000
20
0.000
9
$LIMMAX
10
1189.000
20
841.000
9
$DIMSCALE
40
1.000000
9
$LTSCALE
40
2.000
9
$PDMODE
70
0
9
$PDSIZE
40
40.0
9
$HANDSEED
5
61c8e
9
$UNITMODE
70
0
9
$VISRETAIN
70
0
9
$PLINEGEN
70
0
9
$PSLTSCALE
70
1
9
$TREEDEPTH
70
3020
9
$CMLSTYLE
2
STANDARD
9
$CMLJUST
70
0
9
$CMLSCALE
40
1.0
9
$PROXYGRAPHICS
70
1
9
$MEASUREMENT
70
0
9
$CELWEIGHT
370
-1
9
$ENDCAPS
280
0
9
$JOINSTYLE
280
0
9
$LWDISPLAY
290
0
9
$INSUNITS
70
0
9
$HYPERLINKBASE
1

9
$STYLESHEET
1

9
$XEDIT
290
1
9
$CEPSNTYPE
380
0
9
$PSTYLEMODE
290
1
9
$FINGERPRINTGUID
2
{5F082321-0195-11D3-BDFB-0060B0CD5109}
9
$VERSIONGUID
2
{12943756-294D-11D3-98C2-0060B087942D}
9
$EXTNAMES
290
1
9
$PSVPSCALE
40
0.0
9
$OLESTARTUP
290
0
0
ENDSEC
0
SECTION
  2
CLASSES
0
ENDSEC
0
SECTION
2
TABLES
0
TABLE
2
VPORT
5
190
100
AcDbSymbolTable
70
2
0
VPORT
5
191
100
AcDbSymbolTableRecord
100
AcDbViewportTableRecord
2
*ACTIVE
70
0
10
0.0
20
0.0
11
1.0
21
1.0
12
594.500
22
420.500
13
0.0
23
0.0
14
1.0
24
1.0
15
0.0
25
0.0
16
0.0
26
0.0
36
1.0
17
0.0
27
0.0
37
0.0
40
861.594
41
2.0
42
50.0
43
0.0
44
0.0
50
0.0
51
0.0
71
0
72
1000
73
1
74
1
75
0
76
0
77
0
78
0
0
ENDTAB
0
TABLE
2
LTYPE
5
1f4
100
AcDbSymbolTable
70
9
0
LTYPE
5
1f5
100
AcDbSymbolTableRecord
100
AcDbLinetypeTableRecord
2
BYBLOCK
70
 64
3

72
 65
73
  0
40
0.0
0
LTYPE
5
1f6
100
AcDbSymbolTableRecord
100
AcDbLinetypeTableRecord
2
BYLAYER
70
 64
3

72
 65
73
  0
40
0.0
0
LTYPE
5
1f7
100
AcDbSymbolTableRecord
100
AcDbLinetypeTableRecord
2
CONTINUOUS
70
64
3
SolidLine
72
65
73
0
40
0.0
0
LTYPE
5
1f8
100
AcDbSymbolTableRecord
100
AcDbLinetypeTableRecord
2
DOT
70
64
3
--  --  --  --  --  --  --  --     
72
65
73
2
40
3.000
49
1.000
74
0
49
-2.000
74
0
0
LTYPE
5
1f9
100
AcDbSymbolTableRecord
100
AcDbLinetypeTableRecord
2
DASHED
70
64
3
----    ----    ----    ----    
72
65
73
2
40
5.000
49
2.000
74
0
49
-3.000
74
0
0
LTYPE
5
1fa
100
AcDbSymbolTableRecord
100
AcDbLinetypeTableRecord
2
DASHED2
70
64
3
------  ------  ------  ------ 
72
65
73
2
40
10.000
49
4.000
74
0
49
-6.000
74
0
0
LTYPE
5
1fb
100
AcDbSymbolTableRecord
100
AcDbLinetypeTableRecord
2
CENTER
70
64
3
----- - ----- - ----- - ----- - 
72
65
73
4
40
10.000
49
6.000
74
0
49
-3.000
74
0
49
1.000
74
0
49
-3.000
74
0
0
LTYPE
5
1fc
100
AcDbSymbolTableRecord
100
AcDbLinetypeTableRecord
2
CENTER2
70
64
3
----------  --  ----------  -- 
72
65
73
4
40
17.000
49
12.000
74
0
49
-5.000
74
0
49
2.000
74
0
49
-5.000
74
0
0
LTYPE
5
1fd
100
AcDbSymbolTableRecord
100
AcDbLinetypeTableRecord
2
PHANTOM
70
64
3
--- - - --- - - --- - - --- - -
72
65
73
6
40
13.000
49
5.000
74
0
49
-3.000
74
0
49
1.000
74
0
49
-3.000
74
0
49
1.000
74
0
49
-3.000
74
0
0
LTYPE
5
1fe
100
AcDbSymbolTableRecord
100
AcDbLinetypeTableRecord
2
PHANTOM2
70
64
3
--------  -  -  --------  -  -
72
65
73
6
40
20.000
49
6.000
74
0
49
-5.000
74
0
49
2.000
74
0
49
-5.000
74
0
49
2.000
74
0
49
-5.000
74
0
0
LTYPE
5
1ff
100
AcDbSymbolTableRecord
100
AcDbLinetypeTableRecord
2
HIDDEN
70
64
3
-   -   -   -   -   -   -   -   
72
65
73
2
40
3.000
49
0.500
74
0
49
-2.500
74
0
0
ENDTAB
0
TABLE
2
STYLE
5
200
100
AcDbSymbolTable
70
1
0
STYLE
5
201
100
AcDbSymbolTableRecord
100
AcDbTextStyleTableRecord
2
STANDARD
70
0
40
0.0
41
1.0
50
0.0
71
0
42
0.0
3
txt.shx
4
extfont.shx
0
STYLE
5
202
100
AcDbSymbolTableRecord
100
AcDbTextStyleTableRecord
2
TATEGAKI
70
4
40
0.0
41
1.0
50
0.0
71
0
42
0.0
3
txt.shx
4
extfont.shx
0
STYLE
5
203
100
AcDbSymbolTableRecord
100
AcDbTextStyleTableRecord
2
DIM
70
0
40
0.0
41
0.75
50
0.0
71
0
42
0.0
3
txt.shx
4
extfont.shx
0
STYLE
5
204
100
AcDbSymbolTableRecord
100
AcDbTextStyleTableRecord
2
_Gothic_
70
0
40
1.0
41
1.0
50
0.0
71
0
42
10.0
3

4

1001
ACAD
1000
MS Gothic
1071
32817
0
STYLE
5
205
100
AcDbSymbolTableRecord
100
AcDbTextStyleTableRecord
2
_TateGothic_
70
4
40
0.0
41
1.0
50
0.0
71
0
42
0.0
3
@MS Gothic
4

0
ENDTAB
0
TABLE
2
VIEW
5
206
100
AcDbSymbolTable
70
0
0
ENDTAB
0
TABLE
2
UCS
5
207
100
AcDbSymbolTable
70
0
0
ENDTAB
0
TABLE
2
APPID
5
208
100
AcDbSymbolTable
70
1
0
APPID
5
209
100
AcDbSymbolTableRecord
100
AcDbRegAppTableRecord
2
ACAD
70
0
0
ENDTAB
0
TABLE
2
DIMSTYLE
5
403
330
0
100
AcDbSymbolTable
70
1
100
AcDbDimStyleTable
71
0
0
DIMSTYLE
105
404
330
402
100
AcDbSymbolTableRecord
100
AcDbDimStyleTableRecord
2
JAC_DIM
70
0
41
2.000
42
0.000
44
0.0
73
0
74
0
77
1
78
8
79
2
140
0.000
170
0
171
2
172
0
173
0
174
0
175
0
176
0
177
0
178
0
270
2
271
0
272
0
273
2
274
2
340
201
275
0
280
0
281
0
282
0
283
0
284
0
285
0
286
0
287
3
288
0
0
ENDTAB
0
TABLE
2
BLOCK_RECORD
5
405
100
AcDbSymbolTable
70
0
0
BLOCK_RECORD
5
406
100
AcDbSymbolTableRecord
100
AcDbBlockTableRecord
2
*MODEL_SPACE
0
BLOCK_RECORD
5
407
100
AcDbSymbolTableRecord
100
AcDbBlockTableRecord
2
*PAPER_SPACE
0
BLOCK_RECORD
5
408
100
AcDbSymbolTableRecord
100
AcDbBlockTableRecord
2
_JACCONVERT_
0
ENDTAB
0
TABLE
2
LAYER
5
409
100
AcDbSymbolTable
70
10
0
LAYER
5
40a
100
AcDbSymbolTableRecord
100
AcDbLayerTableRecord
2
0
70
0
62
7
6
CONTINUOUS
370
-3
390
14
0
LAYER
5
40b
100
AcDbSymbolTableRecord
100
AcDbLayerTableRecord
2
0-0
70
0
62
7
6
CONTINUOUS
370
-3
390
14
0
LAYER
5
40c
100
AcDbSymbolTableRecord
100
AcDbLayerTableRecord
2
0-1
70
0
62
7
6
CONTINUOUS
370
-3
390
14
0
LAYER
5
40d
100
AcDbSymbolTableRecord
100
AcDbLayerTableRecord
2
0-F
70
0
62
7
6
CONTINUOUS
370
-3
390
14
0
LAYER
5
40e
100
AcDbSymbolTableRecord
100
AcDbLayerTableRecord
2
F-F_J_ADD
70
0
62
-7
6
CONTINUOUS
290
0
370
-3
390
14
0
ENDTAB
0
ENDSEC
0
SECTION
2
BLOCKS
0
BLOCK
5
40f
100
AcDbEntity
67
1
8
0
100
AcDbBlockBegin
2
*MODEL_SPACE
70
0
10
0.0
20
0.0
30
0.0
3
*MODEL_SPACE
1

0
ENDBLK
5
410
100
AcDbEntity
8
0
100
AcDbBlockEnd
0
BLOCK
5
411
100
AcDbEntity
67
1
8
0
100
AcDbBlockBegin
2
*PAPER_SPACE
70
0
10
0.0
20
0.0
30
0.0
3
*PAPER_SPACE
1

0
ENDBLK
5
412
100
AcDbEntity
67
1
8
0
100
AcDbBlockEnd
0
BLOCK
5
413
100
AcDbEntity
8
0
100
AcDbBlockBegin
2
_JACCONVERT_
70
2
10
0.0
20
0.0
30
0.0
3
_JACCONVERT_
1
_JACCONVERT_
0
ATTDEF
5
414
100
AcDbEntity
8
0
62
0
100
AcDbText
10
0.0
20
0.0
30
0.0
40
1.0
1
User:UnSettingUp
100
AcDbAttributeDefinition
3

2
USER
70
8
0
ATTDEF
5
415
100
AcDbEntity
8
0
62
0
100
AcDbText
10
0.0
20
2.0
30
0.0
40
1.0
1
Date:23/07/14 16:41
100
AcDbAttributeDefinition
3

2
REVDATE
70
8
0
ATTDEF
5
416
100
AcDbEntity
8
0
62
0
100
AcDbText
10
0.0
20
4.0
30
0.0
40
1.0
1
File:202_LECO40_guide.dxf
100
AcDbAttributeDefinition
3

2
FNAME
70
8
0
ATTDEF
5
417
100
AcDbEntity
8
0
62
0
100
AcDbText
10
0.0
20
6.0
30
0.0
40
1.0
1
JacConvert Version3.11 copyright (c) 2001-2016 K.Nakahara
100
AcDbAttributeDefinition
3

2
VER
70
8
0
ENDBLK
5
418
100
AcDbEntity
67
1
8
0
100
AcDbBlockEnd
0
ENDSEC
0
SECTION
2
ENTITIES
0
LINE
5
419
100
AcDbEntity
8
0-0
6
CONTINUOUS
62
7
100
AcDbLine
10
1.500000000000
20
143.374468085106
30
0.0
11
14.400000000000
21
143.374468085106
31
0.0
0
LINE
5
41a
100
AcDbEntity
8
0-0
6
CONTINUOUS
62
7
100
AcDbLine
10
14.900000000000
20
142.874468085106
30
0.0
11
14.900000000000
21
141.092502073856
31
0.0
0
LINE
5
41b
100
AcDbEntity
8
0-0
6
CONTINUOUS
62
7
100
AcDbLine
10
14.847213595500
20
140.868895276106
30
0.0
11
14.438196601125
21
140.050861287356
31
0.0
0
LINE
5
41c
100
AcDbEntity
8
0-0
6
CONTINUOUS
62
7
100
AcDbLine
10
13.990983005625
20
139.774468085106
30
0.0
11
12.500000000000
21
139.774468085106
31
0.0
0
LINE
5
41d
100
AcDbEntity
8
0-0
6
CONTINUOUS
62
7
100
AcDbLine
10
12.000000000000
20
139.274468085106
30
0.0
11
12.000000000000
21
135.081574866293
31
0.0
0
LINE
5
41e
100
AcDbEntity
8
0-0
6
CONTINUOUS
62
7
100
AcDbLine
10
12.146446609407
20
134.728021475700
30
0.0
11
13.353553390593
21
133.520914694513
31
0.0
0
LINE
5
41f
100
AcDbEntity
8
0-0
6
CONTINUOUS
62
7
100
AcDbLine
10
13.707106781187
20
133.374468085106
30
0.0
11
18.985786437627
21
133.374468085106
31
0.0
0
LINE
5
420
100
AcDbEntity
8
0-0
6
CONTINUOUS
62
7
100
AcDbLine
10
19.339339828220
20
133.228021475700
30
0.0
11
19.646446609407
21
132.920914694513
31
0.0
0
LINE
5
421
100
AcDbEntity
8
0-0
6
CONTINUOUS
62
7
100
AcDbLine
10
20.353553390593
20
132.920914694513
30
0.0
11
20.660660171780
21
133.228021475700
31
0.0
0
LINE
5
422
100
AcDbEntity
8
0-0
6
CONTINUOUS
62
7
100
AcDbLine
10
21.014213562373
20
133.374468085106
30
0.0
11
26.292893218814
21
133.374468085106
31
0.0
0
POLYLINE
5
423
100
AcDbEntity
8
0-0
6
CONTINUOUS
62
  7
100
AcDb2dPolyline
66
1
10
0.0
20
0.0
30
0.0
70
0
0
VERTEX
5
424
100
AcDbEntity
8
0-0
6
CONTINUOUS
62
  7
100
AcDbVertex
100
AcDb2dVertex
10
26.646446609407
20
133.520914694513
30
0.0
0
VERTEX
5
425
100
AcDbEntity
8
0-0
6
CONTINUOUS
62
  7
100
AcDbVertex
100
AcDb2dVertex
10
27.143933982822
20
134.018402067928
30
0.0
0
VERTEX
5
426
100
AcDbEntity
8
0-0
6
CONTINUOUS
62
  7
100
AcDbVertex
100
AcDb2dVertex
10
27.356066017178
20
134.018402067928
30
0.0
0
VERTEX
5
427
100
AcDbEntity
8
0-0
6
CONTINUOUS
62
  7
100
AcDbVertex
100
AcDb2dVertex
10
27.356066017178
20
134.230534102284
30
0.0
0
VERTEX
5
428
100
AcDbEntity
8
0-0
6
CONTINUOUS
62
  7
100
AcDbVertex
100
AcDb2dVertex
10
27.853553390593
20
134.728021475700
30
0.0
0
SEQEND
5
429
100
AcDbEntity
8
0-0
0
LINE
5
42a
100
AcDbEntity
8
0-0
6
CONTINUOUS
62
7
100
AcDbLine
10
28.000000000000
20
135.081574866293
30
0.0
11
28.000000000000
21
139.274468085106
31
0.0
0
LINE
5
42b
100
AcDbEntity
8
0-0
6
CONTINUOUS
62
7
100
AcDbLine
10
27.500000000000
20
139.774468085106
30
0.0
11
26.009016994375
21
139.774468085106
31
0.0
0
LINE
5
42c
100
AcDbEntity
8
0-0
6
CONTINUOUS
62
7
100
AcDbLine
10
25.561803398875
20
140.050861287356
30
0.0
11
25.152786404500
21
140.868895276106
31
0.0
0
LINE
5
42d
100
AcDbEntity
8
0-0
6
CONTINUOUS
62
7
100
AcDbLine
10
25.100000000000
20
141.092502073856
30
0.0
11
25.100000000000
21
142.874468085106
31
0.0
0
LINE
5
42e
100
AcDbEntity
8
0-0
6
CONTINUOUS
62
7
100
AcDbLine
10
25.600000000000
20
143.374468085106
30
0.0
11
38.500000000000
21
143.374468085106
31
0.0
0
LINE
5
42f
100
AcDbEntity
8
0-0
6
CONTINUOUS
62
7
100
AcDbLine
10
40.000000000000
20
141.874468085106
30
0.0
11
40.000000000000
21
139.674468085107
31
0.0
0
LINE
5
430
100
AcDbEntity
8
0-0
6
CONTINUOUS
62
7
100
AcDbLine
10
39.500000000000
20
139.174468085107
30
0.0
11
39.485032163622
21
139.174468085107
31
0.0
0
LINE
5
431
100
AcDbEntity
8
0-0
6
CONTINUOUS
62
7
100
AcDbLine
10
30.500000000000
20
136.898309080475
30
0.0
11
30.500000000000
21
109.850627089738
31
0.0
0
LINE
5
432
100
AcDbEntity
8
0-0
6
CONTINUOUS
62
7
100
AcDbLine
10
28.000000000000
20
111.667361303920
30
0.0
11
28.000000000000
21
107.474468085107
31
0.0
0
LINE
5
433
100
AcDbEntity
8
0-0
6
CONTINUOUS
62
7
100
AcDbLine
10
27.500000000000
20
106.974468085107
30
0.0
11
26.009016994375
21
106.974468085107
31
0.0
0
LINE
5
434
100
AcDbEntity
8
0-0
6
CONTINUOUS
62
7
100
AcDbLine
10
25.561803398875
20
106.698074882856
30
0.0
11
25.152786404500
21
105.880040894107
31
0.0
0
LINE
5
435
100
AcDbEntity
8
0-0
6
CONTINUOUS
62
7
100
AcDbLine
10
25.100000000000
20
105.656434096357
30
0.0
11
25.100000000000
21
103.874468085106
31
0.0
0
LINE
5
436
100
AcDbEntity
8
0-0
6
CONTINUOUS
62
7
100
AcDbLine
10
25.600000000000
20
103.374468085106
30
0.0
11
38.500000000000
21
103.374468085106
31
0.0
0
LINE
5
437
100
AcDbEntity
8
0-0
6
CONTINUOUS
62
7
100
AcDbLine
10
40.000000000000
20
104.874468085106
30
0.0
11
40.000000000000
21
107.074468085107
31
0.0
0
LINE
5
438
100
AcDbEntity
8
0-0
6
CONTINUOUS
62
7
100
AcDbLine
10
39.500000000000
20
107.574468085107
30
0.0
11
39.485032163622
21
107.574468085107
31
0.0
0
LINE
5
439
100
AcDbEntity
8
0-0
6
CONTINUOUS
62
7
100
AcDbLine
10
27.853553390593
20
112.020914694513
30
0.0
11
26.646446609407
21
113.228021475700
31
0.0
0
LINE
5
43a
100
AcDbEntity
8
0-0
6
CONTINUOUS
62
7
100
AcDbLine
10
26.292893218814
20
113.374468085106
30
0.0
11
21.014213562373
21
113.374468085106
31
0.0
0
LINE
5
43b
100
AcDbEntity
8
0-0
6
CONTINUOUS
62
7
100
AcDbLine
10
20.660660171780
20
113.520914694513
30
0.0
11
20.353553390593
21
113.828021475700
31
0.0
0
LINE
5
43c
100
AcDbEntity
8
0-0
6
CONTINUOUS
62
7
100
AcDbLine
10
19.646446609407
20
113.828021475700
30
0.0
11
19.339339828220
21
113.520914694513
31
0.0
0
LINE
5
43d
100
AcDbEntity
8
0-0
6
CONTINUOUS
62
7
100
AcDbLine
10
18.985786437627
20
113.374468085106
30
0.0
11
13.707106781187
21
113.374468085106
31
0.0
0
POLYLINE
5
43e
100
AcDbEntity
8
0-0
6
CONTINUOUS
62
  7
100
AcDb2dPolyline
66
1
10
0.0
20
0.0
30
0.0
70
0
0
VERTEX
5
43f
100
AcDbEntity
8
0-0
6
CONTINUOUS
62
  7
100
AcDbVertex
100
AcDb2dVertex
10
13.353553390593
20
113.228021475700
30
0.0
0
VERTEX
5
440
100
AcDbEntity
8
0-0
6
CONTINUOUS
62
  7
100
AcDbVertex
100
AcDb2dVertex
10
12.856066017178
20
112.730534102284
30
0.0
0
VERTEX
5
441
100
AcDbEntity
8
0-0
6
CONTINUOUS
62
  7
100
AcDbVertex
100
AcDb2dVertex
10
12.643933982822
20
112.730534102284
30
0.0
0
VERTEX
5
442
100
AcDbEntity
8
0-0
6
CONTINUOUS
62
  7
100
AcDbVertex
100
AcDb2dVertex
10
12.643933982822
20
112.518402067928
30
0.0
0
VERTEX
5
443
100
AcDbEntity
8
0-0
6
CONTINUOUS
62
  7
100
AcDbVertex
100
AcDb2dVertex
10
12.146446609407
20
112.020914694513
30
0.0
0
SEQEND
5
444
100
AcDbEntity
8
0-0
0
LINE
5
445
100
AcDbEntity
8
0-0
6
CONTINUOUS
62
7
100
AcDbLine
10
12.000000000000
20
111.667361303920
30
0.0
11
12.000000000000
21
107.474468085107
31
0.0
0
LINE
5
446
100
AcDbEntity
8
0-0
6
CONTINUOUS
62
7
100
AcDbLine
10
12.500000000000
20
106.974468085107
30
0.0
11
13.990983005625
21
106.974468085107
31
0.0
0
LINE
5
447
100
AcDbEntity
8
0-0
6
CONTINUOUS
62
7
100
AcDbLine
10
14.438196601125
20
106.698074882856
30
0.0
11
14.847213595500
21
105.880040894107
31
0.0
0
LINE
5
448
100
AcDbEntity
8
0-0
6
CONTINUOUS
62
7
100
AcDbLine
10
14.900000000000
20
105.656434096357
30
0.0
11
14.900000000000
21
103.874468085106
31
0.0
0
LINE
5
449
100
AcDbEntity
8
0-0
6
CONTINUOUS
62
7
100
AcDbLine
10
14.400000000000
20
103.374468085106
30
0.0
11
1.500000000000
21
103.374468085106
31
0.0
0
LINE
5
44a
100
AcDbEntity
8
0-0
6
CONTINUOUS
62
7
100
AcDbLine
10
0.000000000000
20
104.874468085106
30
0.0
11
0.000000000000
21
117.774468085106
31
0.0
0
LINE
5
44b
100
AcDbEntity
8
0-0
6
CONTINUOUS
62
7
100
AcDbLine
10
0.500000000000
20
118.274468085106
30
0.0
11
2.281966011250
21
118.274468085106
31
0.0
0
LINE
5
44c
100
AcDbEntity
8
0-0
6
CONTINUOUS
62
7
100
AcDbLine
10
2.505572809000
20
118.221681680607
30
0.0
11
3.323606797750
21
117.812664686232
31
0.0
0
LINE
5
44d
100
AcDbEntity
8
0-0
6
CONTINUOUS
62
7
100
AcDbLine
10
3.600000000000
20
117.365451090732
30
0.0
11
3.600000000000
21
115.874468085106
31
0.0
0
LINE
5
44e
100
AcDbEntity
8
0-0
6
CONTINUOUS
62
7
100
AcDbLine
10
4.100000000000
20
115.374468085106
30
0.0
11
8.292893218814
21
115.374468085106
31
0.0
0
LINE
5
44f
100
AcDbEntity
8
0-0
6
CONTINUOUS
62
7
100
AcDbLine
10
8.646446609407
20
115.520914694513
30
0.0
11
9.853553390593
21
116.728021475700
31
0.0
0
LINE
5
450
100
AcDbEntity
8
0-0
6
CONTINUOUS
62
7
100
AcDbLine
10
10.000000000000
20
117.081574866293
30
0.0
11
10.000000000000
21
129.667361303920
31
0.0
0
LINE
5
451
100
AcDbEntity
8
0-0
6
CONTINUOUS
62
7
100
AcDbLine
10
9.853553390593
20
130.020914694513
30
0.0
11
8.646446609407
21
131.228021475700
31
0.0
0
LINE
5
452
100
AcDbEntity
8
0-0
6
CONTINUOUS
62
7
100
AcDbLine
10
8.292893218814
20
131.374468085106
30
0.0
11
4.100000000000
21
131.374468085106
31
0.0
0
LINE
5
453
100
AcDbEntity
8
0-0
6
CONTINUOUS
62
7
100
AcDbLine
10
3.600000000000
20
130.874468085106
30
0.0
11
3.600000000000
21
129.383485079481
31
0.0
0
LINE
5
454
100
AcDbEntity
8
0-0
6
CONTINUOUS
62
7
100
AcDbLine
10
3.323606797750
20
128.936271483982
30
0.0
11
2.505572809000
21
128.527254489607
31
0.0
0
LINE
5
455
100
AcDbEntity
8
0-0
6
CONTINUOUS
62
7
100
AcDbLine
10
2.281966011250
20
128.474468085107
30
0.0
11
0.500000000000
21
128.474468085107
31
0.0
0
LINE
5
456
100
AcDbEntity
8
0-0
6
CONTINUOUS
62
7
100
AcDbLine
10
0.000000000000
20
128.974468085107
30
0.0
11
0.000000000000
21
141.874468085106
31
0.0
0
LINE
5
457
100
AcDbEntity
8
0-0
6
CONTINUOUS
62
7
100
AcDbLine
10
27.900000000000
20
116.374468085106
30
0.0
11
27.900000000000
21
130.374468085106
31
0.0
0
LINE
5
458
100
AcDbEntity
8
0-0
6
CONTINUOUS
62
7
100
AcDbLine
10
27.400000000000
20
130.874468085106
30
0.0
11
26.251666049840
21
130.874468085106
31
0.0
0
LINE
5
459
100
AcDbEntity
8
0-0
6
CONTINUOUS
62
7
100
AcDbLine
10
25.818653347947
20
130.624468085106
30
0.0
11
24.000000000000
21
127.474468085107
31
0.0
0
LINE
5
45a
100
AcDbEntity
8
0-0
6
CONTINUOUS
62
7
100
AcDbLine
10
23.711324865405
20
127.474468085107
30
0.0
11
16.288675134595
21
127.474468085107
31
0.0
0
LINE
5
45b
100
AcDbEntity
8
0-0
6
CONTINUOUS
62
7
100
AcDbLine
10
16.000000000000
20
127.474468085107
30
0.0
11
14.181346652053
21
130.624468085106
31
0.0
0
LINE
5
45c
100
AcDbEntity
8
0-0
6
CONTINUOUS
62
7
100
AcDbLine
10
13.748333950160
20
130.874468085106
30
0.0
11
12.600000000000
21
130.874468085106
31
0.0
0
LINE
5
45d
100
AcDbEntity
8
0-0
6
CONTINUOUS
62
7
100
AcDbLine
10
12.100000000000
20
130.374468085106
30
0.0
11
12.100000000000
21
116.374468085106
31
0.0
0
LINE
5
45e
100
AcDbEntity
8
0-0
6
CONTINUOUS
62
7
100
AcDbLine
10
12.600000000000
20
115.874468085106
30
0.0
11
13.748333950160
21
115.874468085106
31
0.0
0
LINE
5
45f
100
AcDbEntity
8
0-0
6
CONTINUOUS
62
7
100
AcDbLine
10
14.181346652053
20
116.124468085106
30
0.0
11
15.855662432703
21
119.024468085106
31
0.0
0
LINE
5
460
100
AcDbEntity
8
0-0
6
CONTINUOUS
62
7
100
AcDbLine
10
16.288675134595
20
119.274468085106
30
0.0
11
23.711324865405
21
119.274468085106
31
0.0
0
LINE
5
461
100
AcDbEntity
8
0-0
6
CONTINUOUS
62
7
100
AcDbLine
10
24.144337567297
20
119.024468085106
30
0.0
11
25.818653347947
21
116.124468085106
31
0.0
0
LINE
5
462
100
AcDbEntity
8
0-0
6
CONTINUOUS
62
7
100
AcDbLine
10
26.251666049840
20
115.874468085106
30
0.0
11
27.400000000000
21
115.874468085106
31
0.0
0
ARC
5
463
100
AcDbEntity
8
0-0
6
CONTINUOUS
62
7
100
AcDbCircle
10
31.000000000000
20
109.850627089738
30
0.0
40
0.500000000000
100
AcDbArc
50
180.000000000000
51
196.664571373819
0
ARC
5
464
100
AcDbEntity
8
0-0
6
CONTINUOUS
62
7
100
AcDbCircle
10
35.790000000000
20
111.284468085107
30
0.0
40
5.500000000000
100
AcDbArc
50
196.664571373819
51
266.977548216808
0
ARC
5
465
100
AcDbEntity
8
0-0
6
CONTINUOUS
62
7
100
AcDbCircle
10
39.485032163622
20
107.074468085107
30
0.0
40
0.500000000000
100
AcDbArc
50
90.000000000000
51
135.439125683890
0
ARC
5
466
100
AcDbEntity
8
0-0
6
CONTINUOUS
62
7
100
AcDbCircle
10
35.210000000000
20
111.284468085107
30
0.0
40
5.500000000000
100
AcDbArc
50
273.022451783192
51
315.439125683890
0
ARC
5
467
100
AcDbEntity
8
0-0
6
CONTINUOUS
62
7
100
AcDbCircle
10
39.500000000000
20
107.074468085107
30
0.0
40
0.500000000000
100
AcDbArc
50
0.000000000000
51
90.000000000000
0
ARC
5
468
100
AcDbEntity
8
0-0
6
CONTINUOUS
62
7
100
AcDbCircle
10
31.000000000000
20
136.898309080475
30
0.0
40
0.500000000000
100
AcDbArc
50
163.335428626181
51
180.000000000000
0
ARC
5
469
100
AcDbEntity
8
0-0
6
CONTINUOUS
62
7
100
AcDbCircle
10
35.790000000000
20
135.464468085107
30
0.0
40
5.500000000000
100
AcDbArc
50
93.022451783192
51
163.335428626181
0
ARC
5
46a
100
AcDbEntity
8
0-0
6
CONTINUOUS
62
7
100
AcDbCircle
10
39.485032163622
20
139.674468085107
30
0.0
40
0.500000000000
100
AcDbArc
50
224.560874316110
51
270.000000000000
0
ARC
5
46b
100
AcDbEntity
8
0-0
6
CONTINUOUS
62
7
100
AcDbCircle
10
35.210000000000
20
135.464468085107
30
0.0
40
5.500000000000
100
AcDbArc
50
44.560874316110
51
86.977548216808
0
ARC
5
46c
100
AcDbEntity
8
0-0
6
CONTINUOUS
62
7
100
AcDbCircle
10
9.500000000000
20
117.081574866293
30
0.0
40
0.500000000000
100
AcDbArc
50
315.000000000000
51
360.000000000000
0
ARC
5
46d
100
AcDbEntity
8
0-0
6
CONTINUOUS
62
7
100
AcDbCircle
10
8.292893218814
20
115.874468085106
30
0.0
40
0.500000000000
100
AcDbArc
50
270.000000000000
51
315.000000000000
0
ARC
5
46e
100
AcDbEntity
8
0-0
6
CONTINUOUS
62
7
100
AcDbCircle
10
4.100000000000
20
115.874468085106
30
0.0
40
0.500000000000
100
AcDbArc
50
180.000000000000
51
270.000000000000
0
ARC
5
46f
100
AcDbEntity
8
0-0
6
CONTINUOUS
62
7
100
AcDbCircle
10
3.100000000000
20
117.365451090732
30
0.0
40
0.500000000000
100
AcDbArc
50
0.000000000000
51
63.434948822922
0
ARC
5
470
100
AcDbEntity
8
0-0
6
CONTINUOUS
62
7
100
AcDbCircle
10
2.281966011250
20
117.774468085106
30
0.0
40
0.500000000000
100
AcDbArc
50
63.434948822922
51
90.000000000000
0
ARC
5
471
100
AcDbEntity
8
0-0
6
CONTINUOUS
62
7
100
AcDbCircle
10
0.500000000000
20
117.774468085106
30
0.0
40
0.500000000000
100
AcDbArc
50
90.000000000000
51
180.000000000000
0
ARC
5
472
100
AcDbEntity
8
0-0
6
CONTINUOUS
62
7
100
AcDbCircle
10
9.500000000000
20
129.667361303920
30
0.0
40
0.500000000000
100
AcDbArc
50
0.000000000000
51
45.000000000000
0
ARC
5
473
100
AcDbEntity
8
0-0
6
CONTINUOUS
62
7
100
AcDbCircle
10
8.292893218814
20
130.874468085106
30
0.0
40
0.500000000000
100
AcDbArc
50
45.000000000000
51
90.000000000000
0
ARC
5
474
100
AcDbEntity
8
0-0
6
CONTINUOUS
62
7
100
AcDbCircle
10
4.100000000000
20
130.874468085106
30
0.0
40
0.500000000000
100
AcDbArc
50
90.000000000000
51
180.000000000000
0
ARC
5
475
100
AcDbEntity
8
0-0
6
CONTINUOUS
62
7
100
AcDbCircle
10
3.100000000000
20
129.383485079481
30
0.0
40
0.500000000000
100
AcDbArc
50
296.565051177078
51
360.000000000000
0
ARC
5
476
100
AcDbEntity
8
0-0
6
CONTINUOUS
62
7
100
AcDbCircle
10
2.281966011250
20
128.974468085107
30
0.0
40
0.500000000000
100
AcDbArc
50
270.000000000000
51
296.565051177078
0
ARC
5
477
100
AcDbEntity
8
0-0
6
CONTINUOUS
62
7
100
AcDbCircle
10
0.500000000000
20
128.974468085107
30
0.0
40
0.500000000000
100
AcDbArc
50
180.000000000000
51
270.000000000000
0
ARC
5
478
100
AcDbEntity
8
0-0
6
CONTINUOUS
62
7
100
AcDbCircle
10
21.014213562373
20
113.874468085106
30
0.0
40
0.500000000000
100
AcDbArc
50
225.000000000000
51
270.000000000000
0
ARC
5
479
100
AcDbEntity
8
0-0
6
CONTINUOUS
62
7
100
AcDbCircle
10
18.985786437627
20
113.874468085106
30
0.0
40
0.500000000000
100
AcDbArc
50
270.000000000000
51
315.000000000000
0
ARC
5
47a
100
AcDbEntity
8
0-0
6
CONTINUOUS
62
7
100
AcDbCircle
10
20.000000000000
20
113.474468085107
30
0.0
40
0.500000000000
100
AcDbArc
50
45.000000000000
51
135.000000000000
0
ARC
5
47b
100
AcDbEntity
8
0-0
6
CONTINUOUS
62
7
100
AcDbCircle
10
26.292893218814
20
112.874468085106
30
0.0
40
0.500000000000
100
AcDbArc
50
45.000000000000
51
90.000000000000
0
ARC
5
47c
100
AcDbEntity
8
0-0
6
CONTINUOUS
62
7
100
AcDbCircle
10
27.500000000000
20
111.667361303920
30
0.0
40
0.500000000000
100
AcDbArc
50
0.000000000000
51
45.000000000000
0
ARC
5
47d
100
AcDbEntity
8
0-0
6
CONTINUOUS
62
7
100
AcDbCircle
10
27.500000000000
20
107.474468085107
30
0.0
40
0.500000000000
100
AcDbArc
50
270.000000000000
51
360.000000000000
0
ARC
5
47e
100
AcDbEntity
8
0-0
6
CONTINUOUS
62
7
100
AcDbCircle
10
26.009016994375
20
106.474468085107
30
0.0
40
0.500000000000
100
AcDbArc
50
90.000000000000
51
153.434948822922
0
ARC
5
47f
100
AcDbEntity
8
0-0
6
CONTINUOUS
62
7
100
AcDbCircle
10
25.600000000000
20
105.656434096357
30
0.0
40
0.500000000000
100
AcDbArc
50
153.434948822922
51
180.000000000000
0
ARC
5
480
100
AcDbEntity
8
0-0
6
CONTINUOUS
62
7
100
AcDbCircle
10
25.600000000000
20
103.874468085106
30
0.0
40
0.500000000000
100
AcDbArc
50
180.000000000000
51
270.000000000000
0
ARC
5
481
100
AcDbEntity
8
0-0
6
CONTINUOUS
62
7
100
AcDbCircle
10
13.707106781187
20
112.874468085106
30
0.0
40
0.500000000000
100
AcDbArc
50
90.000000000000
51
135.000000000000
0
ARC
5
482
100
AcDbEntity
8
0-0
6
CONTINUOUS
62
7
100
AcDbCircle
10
12.500000000000
20
111.667361303920
30
0.0
40
0.500000000000
100
AcDbArc
50
135.000000000000
51
180.000000000000
0
ARC
5
483
100
AcDbEntity
8
0-0
6
CONTINUOUS
62
7
100
AcDbCircle
10
12.500000000000
20
107.474468085107
30
0.0
40
0.500000000000
100
AcDbArc
50
180.000000000000
51
270.000000000000
0
ARC
5
484
100
AcDbEntity
8
0-0
6
CONTINUOUS
62
7
100
AcDbCircle
10
13.990983005625
20
106.474468085107
30
0.0
40
0.500000000000
100
AcDbArc
50
26.565051177078
51
90.000000000000
0
ARC
5
485
100
AcDbEntity
8
0-0
6
CONTINUOUS
62
7
100
AcDbCircle
10
14.400000000000
20
105.656434096357
30
0.0
40
0.500000000000
100
AcDbArc
50
0.000000000000
51
26.565051177078
0
ARC
5
486
100
AcDbEntity
8
0-0
6
CONTINUOUS
62
7
100
AcDbCircle
10
14.400000000000
20
103.874468085106
30
0.0
40
0.500000000000
100
AcDbArc
50
270.000000000000
51
360.000000000000
0
ARC
5
487
100
AcDbEntity
8
0-0
6
CONTINUOUS
62
7
100
AcDbCircle
10
18.985786437627
20
132.874468085106
30
0.0
40
0.500000000000
100
AcDbArc
50
45.000000000000
51
90.000000000000
0
ARC
5
488
100
AcDbEntity
8
0-0
6
CONTINUOUS
62
7
100
AcDbCircle
10
21.014213562373
20
132.874468085106
30
0.0
40
0.500000000000
100
AcDbArc
50
90.000000000000
51
135.000000000000
0
ARC
5
489
100
AcDbEntity
8
0-0
6
CONTINUOUS
62
7
100
AcDbCircle
10
20.000000000000
20
133.274468085106
30
0.0
40
0.500000000000
100
AcDbArc
50
225.000000000000
51
315.000000000000
0
ARC
5
48a
100
AcDbEntity
8
0-0
6
CONTINUOUS
62
7
100
AcDbCircle
10
13.707106781187
20
133.874468085106
30
0.0
40
0.500000000000
100
AcDbArc
50
225.000000000000
51
270.000000000000
0
ARC
5
48b
100
AcDbEntity
8
0-0
6
CONTINUOUS
62
7
100
AcDbCircle
10
12.500000000000
20
135.081574866293
30
0.0
40
0.500000000000
100
AcDbArc
50
180.000000000000
51
225.000000000000
0
ARC
5
48c
100
AcDbEntity
8
0-0
6
CONTINUOUS
62
7
100
AcDbCircle
10
12.500000000000
20
139.274468085106
30
0.0
40
0.500000000000
100
AcDbArc
50
90.000000000000
51
180.000000000000
0
ARC
5
48d
100
AcDbEntity
8
0-0
6
CONTINUOUS
62
7
100
AcDbCircle
10
13.990983005625
20
140.274468085106
30
0.0
40
0.500000000000
100
AcDbArc
50
270.000000000000
51
333.434948822922
0
ARC
5
48e
100
AcDbEntity
8
0-0
6
CONTINUOUS
62
7
100
AcDbCircle
10
14.400000000000
20
141.092502073856
30
0.0
40
0.500000000000
100
AcDbArc
50
333.434948822922
51
360.000000000000
0
ARC
5
48f
100
AcDbEntity
8
0-0
6
CONTINUOUS
62
7
100
AcDbCircle
10
14.400000000000
20
142.874468085106
30
0.0
40
0.500000000000
100
AcDbArc
50
0.000000000000
51
90.000000000000
0
ARC
5
490
100
AcDbEntity
8
0-0
6
CONTINUOUS
62
7
100
AcDbCircle
10
26.292893218814
20
133.874468085106
30
0.0
40
0.500000000000
100
AcDbArc
50
270.000000000000
51
315.000000000000
0
ARC
5
491
100
AcDbEntity
8
0-0
6
CONTINUOUS
62
7
100
AcDbCircle
10
27.500000000000
20
135.081574866293
30
0.0
40
0.500000000000
100
AcDbArc
50
315.000000000000
51
360.000000000000
0
ARC
5
492
100
AcDbEntity
8
0-0
6
CONTINUOUS
62
7
100
AcDbCircle
10
27.500000000000
20
139.274468085106
30
0.0
40
0.500000000000
100
AcDbArc
50
0.000000000000
51
90.000000000000
0
ARC
5
493
100
AcDbEntity
8
0-0
6
CONTINUOUS
62
7
100
AcDbCircle
10
26.009016994375
20
140.274468085106
30
0.0
40
0.500000000000
100
AcDbArc
50
206.565051177078
51
270.000000000000
0
ARC
5
494
100
AcDbEntity
8
0-0
6
CONTINUOUS
62
7
100
AcDbCircle
10
25.600000000000
20
141.092502073856
30
0.0
40
0.500000000000
100
AcDbArc
50
180.000000000000
51
206.565051177078
0
ARC
5
495
100
AcDbEntity
8
0-0
6
CONTINUOUS
62
7
100
AcDbCircle
10
25.600000000000
20
142.874468085106
30
0.0
40
0.500000000000
100
AcDbArc
50
90.000000000000
51
180.000000000000
0
CIRCLE
5
496
100
AcDbEntity
8
0-0
6
CONTINUOUS
62
7
100
AcDbCircle
10
6.000000000000
20
109.374468085106
30
0.0
40
3.400000000000
0
CIRCLE
5
497
100
AcDbEntity
8
0-0
6
CONTINUOUS
62
7
100
AcDbCircle
10
6.000000000000
20
137.374468085106
30
0.0
40
3.400000000000
0
ARC
5
498
100
AcDbEntity
8
0-0
6
CONTINUOUS
62
7
100
AcDbCircle
10
12.600000000000
20
116.374468085106
30
0.0
40
0.500000000000
100
AcDbArc
50
180.000000000000
51
270.000000000000
0
ARC
5
499
100
AcDbEntity
8
0-0
6
CONTINUOUS
62
7
100
AcDbCircle
10
13.748333950160
20
116.374468085106
30
0.0
40
0.500000000000
100
AcDbArc
50
270.000000000000
51
330.000000000000
0
ARC
5
49a
100
AcDbEntity
8
0-0
6
CONTINUOUS
62
7
100
AcDbCircle
10
16.288675134595
20
118.774468085106
30
0.0
40
0.500000000000
100
AcDbArc
50
90.000000000000
51
150.000000000000
0
ARC
5
49b
100
AcDbEntity
8
0-0
6
CONTINUOUS
62
7
100
AcDbCircle
10
23.711324865405
20
118.774468085106
30
0.0
40
0.500000000000
100
AcDbArc
50
30.000000000000
51
90.000000000000
0
ARC
5
49c
100
AcDbEntity
8
0-0
6
CONTINUOUS
62
7
100
AcDbCircle
10
26.251666049840
20
116.374468085106
30
0.0
40
0.500000000000
100
AcDbArc
50
210.000000000000
51
270.000000000000
0
ARC
5
49d
100
AcDbEntity
8
0-0
6
CONTINUOUS
62
7
100
AcDbCircle
10
27.400000000000
20
116.374468085106
30
0.0
40
0.500000000000
100
AcDbArc
50
270.000000000000
51
360.000000000000
0
ARC
5
49e
100
AcDbEntity
8
0-0
6
CONTINUOUS
62
7
100
AcDbCircle
10
27.400000000000
20
130.374468085106
30
0.0
40
0.500000000000
100
AcDbArc
50
0.000000000000
51
90.000000000000
0
ARC
5
49f
100
AcDbEntity
8
0-0
6
CONTINUOUS
62
7
100
AcDbCircle
10
26.251666049840
20
130.374468085106
30
0.0
40
0.500000000000
100
AcDbArc
50
90.000000000000
51
150.000000000000
0
ARC
5
4a0
100
AcDbEntity
8
0-0
6
CONTINUOUS
62
7
100
AcDbCircle
10
23.711324865405
20
127.974468085107
30
0.0
40
0.500000000000
100
AcDbArc
50
270.000000000000
51
330.000000000000
0
ARC
5
4a1
100
AcDbEntity
8
0-0
6
CONTINUOUS
62
7
100
AcDbCircle
10
16.288675134595
20
127.974468085107
30
0.0
40
0.500000000000
100
AcDbArc
50
210.000000000000
51
270.000000000000
0
ARC
5
4a2
100
AcDbEntity
8
0-0
6
CONTINUOUS
62
7
100
AcDbCircle
10
13.748333950160
20
130.374468085106
30
0.0
40
0.500000000000
100
AcDbArc
50
30.000000000000
51
90.000000000000
0
ARC
5
4a3
100
AcDbEntity
8
0-0
6
CONTINUOUS
62
7
100
AcDbCircle
10
12.600000000000
20
130.374468085106
30
0.0
40
0.500000000000
100
AcDbArc
50
90.000000000000
51
180.000000000000
0
ARC
5
4a4
100
AcDbEntity
8
0-0
6
CONTINUOUS
62
7
100
AcDbCircle
10
1.500000000000
20
141.874468085106
30
0.0
40
1.500000000000
100
AcDbArc
50
90.000000000000
51
180.000000000000
0
ARC
5
4a5
100
AcDbEntity
8
0-0
6
CONTINUOUS
62
7
100
AcDbCircle
10
1.500000000000
20
104.874468085106
30
0.0
40
1.500000000000
100
AcDbArc
50
180.000000000000
51
270.000000000000
0
ARC
5
4a6
100
AcDbEntity
8
0-0
6
CONTINUOUS
62
7
100
AcDbCircle
10
38.500000000000
20
104.874468085106
30
0.0
40
1.500000000000
100
AcDbArc
50
270.000000000000
51
360.000000000000
0
ARC
5
4a7
100
AcDbEntity
8
0-0
6
CONTINUOUS
62
7
100
AcDbCircle
10
38.500000000000
20
141.874468085106
30
0.0
40
1.500000000000
100
AcDbArc
50
0.000000000000
51
90.000000000000
0
ARC
5
4a8
100
AcDbEntity
8
0-0
6
CONTINUOUS
62
7
100
AcDbCircle
10
39.500000000000
20
139.674468085107
30
0.0
40
0.500000000000
100
AcDbArc
50
270.000000000000
51
360.000000000000
0
LINE
5
4a9
100
AcDbEntity
8
0-1
6
CENTER
62
4
100
AcDbLine
10
0.000000000000
20
123.374468085106
30
0.0
11
40.000000000000
21
123.374468085106
31
0.0
0
LINE
5
4aa
100
AcDbEntity
8
0-1
6
CENTER
62
4
100
AcDbLine
10
20.000000000000
20
103.374468085106
30
0.0
11
20.000000000000
21
143.374468085106
31
0.0
0
LINE
5
4ab
100
AcDbEntity
8
0-1
6
CENTER
62
4
100
AcDbLine
10
1.626814281094
20
137.374468085106
30
0.0
11
10.776366060557
21
137.374468085106
31
0.0
0
LINE
5
4ac
100
AcDbEntity
8
0-1
6
CENTER
62
4
100
AcDbLine
10
6.000000000000
20
141.834795967600
30
0.0
11
6.000000000000
21
133.152058054436
31
0.0
0
LINE
5
4ad
100
AcDbEntity
8
0-1
6
CENTER
62
4
100
AcDbLine
10
6.000000000000
20
113.834795967600
30
0.0
11
6.000000000000
21
105.152058054436
31
0.0
0
LINE
5
4ae
100
AcDbEntity
8
0-1
6
CENTER
62
4
100
AcDbLine
10
1.626814281094
20
109.374468085106
30
0.0
11
10.776366060557
21
109.374468085106
31
0.0
0
POLYLINE
5
4af
100
AcDbEntity
8
0-0
6
CONTINUOUS
62
  7
100
AcDb2dPolyline
66
1
10
0.0
20
0.0
30
0.0
70
0
0
VERTEX
5
4b0
100
AcDbEntity
8
0-0
6
CONTINUOUS
62
  7
100
AcDbVertex
100
AcDb2dVertex
10
75.000000000000
20
115.487716671761
30
0.0
0
VERTEX
5
4b1
100
AcDbEntity
8
0-0
6
CONTINUOUS
62
  7
100
AcDbVertex
100
AcDb2dVertex
10
77.500000000000
20
116.931092378434
30
0.0
0
VERTEX
5
4b2
100
AcDbEntity
8
0-0
6
CONTINUOUS
62
  7
100
AcDbVertex
100
AcDb2dVertex
10
77.500000000000
20
119.817843791779
30
0.0
0
VERTEX
5
4b3
100
AcDbEntity
8
0-0
6
CONTINUOUS
62
  7
100
AcDbVertex
100
AcDb2dVertex
10
75.000000000000
20
121.261219498452
30
0.0
0
VERTEX
5
4b4
100
AcDbEntity
8
0-0
6
CONTINUOUS
62
  7
100
AcDbVertex
100
AcDb2dVertex
10
72.500000000000
20
119.817843791779
30
0.0
0
VERTEX
5
4b5
100
AcDbEntity
8
0-0
6
CONTINUOUS
62
  7
100
AcDbVertex
100
AcDb2dVertex
10
72.500000000000
20
116.931092378434
30
0.0
0
VERTEX
5
4b6
100
AcDbEntity
8
0-0
6
CONTINUOUS
62
  7
100
AcDbVertex
100
AcDb2dVertex
10
75.000000000000
20
115.487716671761
30
0.0
0
SEQEND
5
4b7
100
AcDbEntity
8
0-0
0
POLYLINE
5
4b8
100
AcDbEntity
8
0-0
6
CONTINUOUS
62
  7
100
AcDb2dPolyline
66
1
10
0.0
20
0.0
30
0.0
70
0
0
VERTEX
5
4b9
100
AcDbEntity
8
0-0
6
CONTINUOUS
62
  7
100
AcDbVertex
100
AcDb2dVertex
10
123.500000000000
20
120.574468085106
30
0.0
0
VERTEX
5
4ba
100
AcDbEntity
8
0-0
6
CONTINUOUS
62
  7
100
AcDbVertex
100
AcDb2dVertex
10
123.500000000000
20
116.174468085106
30
0.0
0
VERTEX
5
4bb
100
AcDbEntity
8
0-0
6
CONTINUOUS
62
  7
100
AcDbVertex
100
AcDb2dVertex
10
122.700000000000
20
115.374468085106
30
0.0
0
SEQEND
5
4bc
100
AcDbEntity
8
0-0
0
LINE
5
4bd
100
AcDbEntity
8
0-0
6
CONTINUOUS
62
7
100
AcDbLine
10
122.700000000000
20
121.374468085106
30
0.0
11
115.500000000000
21
121.374468085106
31
0.0
0
LINE
5
4be
100
AcDbEntity
8
0-0
6
CONTINUOUS
62
7
100
AcDbLine
10
123.500000000000
20
120.574468085106
30
0.0
11
122.700000000000
21
121.374468085106
31
0.0
0
LINE
5
4bf
100
AcDbEntity
8
0-0
6
CONTINUOUS
62
7
100
AcDbLine
10
122.700000000000
20
115.374468085106
30
0.0
11
115.500000000000
21
115.374468085106
31
0.0
0
POLYLINE
5
4c0
100
AcDbEntity
8
0-0
6
CONTINUOUS
62
  7
100
AcDb2dPolyline
66
1
10
0.0
20
0.0
30
0.0
70
0
0
VERTEX
5
4c1
100
AcDbEntity
8
0-0
6
CONTINUOUS
62
  7
100
AcDbVertex
100
AcDb2dVertex
10
115.500000000000
20
122.374468085106
30
0.0
0
VERTEX
5
4c2
100
AcDbEntity
8
0-0
6
CONTINUOUS
62
  7
100
AcDbVertex
100
AcDb2dVertex
10
115.500000000000
20
114.374468085106
30
0.0
0
VERTEX
5
4c3
100
AcDbEntity
8
0-0
6
CONTINUOUS
62
  7
100
AcDbVertex
100
AcDb2dVertex
10
114.500000000000
20
114.374468085106
30
0.0
0
SEQEND
5
4c4
100
AcDbEntity
8
0-0
0
LINE
5
4c5
100
AcDbEntity
8
0-0
6
CONTINUOUS
62
7
100
AcDbLine
10
114.500000000000
20
122.374468085106
30
0.0
11
115.500000000000
21
122.374468085106
31
0.0
0
LINE
5
4c6
100
AcDbEntity
8
0-0
6
CONTINUOUS
62
7
100
AcDbLine
10
114.500000000000
20
130.553917556877
30
0.0
11
114.500000000000
21
106.195018613336
31
0.0
0
LINE
5
4c7
100
AcDbEntity
8
0-0
6
CONTINUOUS
62
7
100
AcDbLine
10
105.500000000000
20
130.553917556877
30
0.0
11
105.500000000000
21
106.195018613336
31
0.0
0
CIRCLE
5
4c8
100
AcDbEntity
8
0-0
6
CONTINUOUS
62
7
100
AcDbCircle
10
75.000000000000
20
118.374468085106
30
0.0
40
5.000000000000
0
ARC
5
4c9
100
AcDbEntity
8
0-0
6
CONTINUOUS
62
7
100
AcDbCircle
10
110.000000000000
20
128.374468085106
30
0.0
40
5.000000000000
100
AcDbArc
50
25.841932763167
51
154.158067236833
0
ARC
5
4ca
100
AcDbEntity
8
0-0
6
CONTINUOUS
62
7
100
AcDbCircle
10
110.000000000000
20
108.374468085106
30
0.0
40
5.000000000000
100
AcDbArc
50
205.841932763167
51
334.158067236833
0
CIRCLE
5
4cb
100
AcDbEntity
8
0-0
6
CONTINUOUS
62
7
100
AcDbCircle
10
75.000000000000
20
118.374468085106
30
0.0
40
15.000000000000
0
CIRCLE
5
4cc
100
AcDbEntity
8
0-0
6
CONTINUOUS
62
7
100
AcDbCircle
10
75.000000000000
20
118.374468085106
30
0.0
40
9.000000000000
0
LINE
5
4cd
100
AcDbEntity
8
0-1
6
CENTER
62
4
100
AcDbLine
10
75.000000000000
20
133.374468085106
30
0.0
11
75.000000000000
21
103.374468085106
31
0.0
0
LINE
5
4ce
100
AcDbEntity
8
0-1
6
CENTER
62
4
100
AcDbLine
10
90.000000000000
20
118.374468085106
30
0.0
11
60.000000000000
21
118.374468085106
31
0.0
0
LINE
5
4cf
100
AcDbEntity
8
0-1
6
CENTER
62
4
100
AcDbLine
10
105.500000000000
20
118.374468085106
30
0.0
11
123.500000000000
21
118.374468085106
31
0.0
0
LINE
5
4d0
100
AcDbEntity
8
0-1
6
CONTINUOUS
62
4
100
AcDbLine
10
115.500000000000
20
121.374468085106
30
0.0
11
115.961880215352
21
120.574468085106
31
0.0
0
LINE
5
4d1
100
AcDbEntity
8
0-1
6
CONTINUOUS
62
4
100
AcDbLine
10
115.500000000000
20
115.374468085106
30
0.0
11
115.926960750756
21
116.113985798253
31
0.0
0
LINE
5
4d2
100
AcDbEntity
8
0-1
6
CONTINUOUS
62
4
100
AcDbLine
10
115.961880215352
20
115.374468085106
30
0.0
11
115.961880215352
21
121.374468085106
31
0.0
0
LINE
5
4d3
100
AcDbEntity
8
0-1
6
CENTER
62
4
100
AcDbLine
10
110.000000000000
20
103.374468085106
30
0.0
11
110.000000000000
21
133.374468085106
31
0.0
0
LINE
5
4d4
100
AcDbEntity
8
0-1
6
CONTINUOUS
62
4
100
AcDbLine
10
115.926960750756
20
116.113985798253
30
0.0
11
123.439517713146
21
116.113985798253
31
0.0
0
LINE
5
4d5
100
AcDbEntity
8
0-1
6
CONTINUOUS
62
4
100
AcDbLine
10
115.961880215352
20
120.574468085106
30
0.0
11
123.500000000000
21
120.574468085106
31
0.0
0
LINE
5
4d6
100
AcDbEntity
8
0-1
6
CONTINUOUS
62
4
100
AcDbLine
10
122.700000000000
20
115.374468085106
30
0.0
11
122.700000000000
21
121.374468085106
31
0.0
0
LINE
5
4d7
100
AcDbEntity
8
0-0
6
CONTINUOUS
62
7
100
AcDbLine
10
187.266209938880
20
131.945182299378
30
0.0
11
187.266209938880
21
104.803753870835
31
0.0
0
LINE
5
4d8
100
AcDbEntity
8
0-0
6
CONTINUOUS
62
7
100
AcDbLine
10
180.266209938880
20
131.945182299378
30
0.0
11
180.266209938880
21
104.803753870835
31
0.0
0
LINE
5
4d9
100
AcDbEntity
8
0-0
6
CONTINUOUS
62
7
100
AcDbLine
10
198.266209938880
20
120.924468037423
30
0.0
11
197.816210129615
21
121.374468085106
31
0.0
0
POLYLINE
5
4da
100
AcDbEntity
8
0-0
6
CONTINUOUS
62
  7
100
AcDb2dPolyline
66
1
10
0.0
20
0.0
30
0.0
70
0
0
VERTEX
5
4db
100
AcDbEntity
8
0-0
6
CONTINUOUS
62
  7
100
AcDbVertex
100
AcDb2dVertex
10
197.816210129615
20
115.374468085106
30
0.0
0
VERTEX
5
4dc
100
AcDbEntity
8
0-0
6
CONTINUOUS
62
  7
100
AcDbVertex
100
AcDb2dVertex
10
198.266209938880
20
115.824468132790
30
0.0
0
VERTEX
5
4dd
100
AcDbEntity
8
0-0
6
CONTINUOUS
62
  7
100
AcDbVertex
100
AcDb2dVertex
10
198.266209938880
20
120.924468037423
30
0.0
0
SEQEND
5
4de
100
AcDbEntity
8
0-0
0
LINE
5
4df
100
AcDbEntity
8
0-0
6
CONTINUOUS
62
7
100
AcDbLine
10
190.266209938880
20
121.374468085106
30
0.0
11
197.816210129615
21
121.374468085106
31
0.0
0
LINE
5
4e0
100
AcDbEntity
8
0-0
6
CONTINUOUS
62
7
100
AcDbLine
10
190.266209938880
20
115.374468085106
30
0.0
11
197.816210129615
21
115.374468085106
31
0.0
0
POLYLINE
5
4e1
100
AcDbEntity
8
0-0
6
CONTINUOUS
62
  7
100
AcDb2dPolyline
66
1
10
0.0
20
0.0
30
0.0
70
0
0
VERTEX
5
4e2
100
AcDbEntity
8
0-0
6
CONTINUOUS
62
  7
100
AcDbVertex
100
AcDb2dVertex
10
190.266209938880
20
113.624468085106
30
0.0
0
VERTEX
5
4e3
100
AcDbEntity
8
0-0
6
CONTINUOUS
62
  7
100
AcDbVertex
100
AcDb2dVertex
10
190.266209938880
20
123.124468085106
30
0.0
0
VERTEX
5
4e4
100
AcDbEntity
8
0-0
6
CONTINUOUS
62
  7
100
AcDbVertex
100
AcDb2dVertex
10
187.266209938880
20
123.124468085106
30
0.0
0
SEQEND
5
4e5
100
AcDbEntity
8
0-0
0
LINE
5
4e6
100
AcDbEntity
8
0-0
6
CONTINUOUS
62
7
100
AcDbLine
10
187.266209938880
20
113.624468085106
30
0.0
11
190.266209938880
21
113.624468085106
31
0.0
0
LINE
5
4e7
100
AcDbEntity
8
0-0
6
CONTINUOUS
62
7
100
AcDbLine
10
142.500000000000
20
118.874468085106
30
0.0
11
143.500000000000
21
118.874468085106
31
0.0
0
POLYLINE
5
4e8
100
AcDbEntity
8
0-0
6
CONTINUOUS
62
  7
100
AcDb2dPolyline
66
1
10
0.0
20
0.0
30
0.0
70
0
0
VERTEX
5
4e9
100
AcDbEntity
8
0-0
6
CONTINUOUS
62
  7
100
AcDbVertex
100
AcDb2dVertex
10
142.500000000000
20
118.874468085106
30
0.0
0
VERTEX
5
4ea
100
AcDbEntity
8
0-0
6
CONTINUOUS
62
  7
100
AcDbVertex
100
AcDb2dVertex
10
142.500000000000
20
117.874468085106
30
0.0
0
VERTEX
5
4eb
100
AcDbEntity
8
0-0
6
CONTINUOUS
62
  7
100
AcDbVertex
100
AcDb2dVertex
10
143.500000000000
20
117.874468085106
30
0.0
0
SEQEND
5
4ec
100
AcDbEntity
8
0-0
0
POLYLINE
5
4ed
100
AcDbEntity
8
0-0
6
CONTINUOUS
62
  7
100
AcDb2dPolyline
66
1
10
0.0
20
0.0
30
0.0
70
0
0
VERTEX
5
4ee
100
AcDbEntity
8
0-0
6
CONTINUOUS
62
  7
100
AcDbVertex
100
AcDb2dVertex
10
144.500000000000
20
116.874468085106
30
0.0
0
VERTEX
5
4ef
100
AcDbEntity
8
0-0
6
CONTINUOUS
62
  7
100
AcDbVertex
100
AcDb2dVertex
10
144.500000000000
20
115.874468085106
30
0.0
0
VERTEX
5
4f0
100
AcDbEntity
8
0-0
6
CONTINUOUS
62
  7
100
AcDbVertex
100
AcDb2dVertex
10
145.500000000000
20
115.874468085106
30
0.0
0
VERTEX
5
4f1
100
AcDbEntity
8
0-0
6
CONTINUOUS
62
  7
100
AcDbVertex
100
AcDb2dVertex
10
145.500000000000
20
116.874468085106
30
0.0
0
SEQEND
5
4f2
100
AcDbEntity
8
0-0
0
POLYLINE
5
4f3
100
AcDbEntity
8
0-0
6
CONTINUOUS
62
  7
100
AcDb2dPolyline
66
1
10
0.0
20
0.0
30
0.0
70
0
0
VERTEX
5
4f4
100
AcDbEntity
8
0-0
6
CONTINUOUS
62
  7
100
AcDbVertex
100
AcDb2dVertex
10
146.500000000000
20
117.874468085106
30
0.0
0
VERTEX
5
4f5
100
AcDbEntity
8
0-0
6
CONTINUOUS
62
  7
100
AcDbVertex
100
AcDb2dVertex
10
147.500000000000
20
117.874468085106
30
0.0
0
VERTEX
5
4f6
100
AcDbEntity
8
0-0
6
CONTINUOUS
62
  7
100
AcDbVertex
100
AcDb2dVertex
10
147.500000000000
20
118.874468085106
30
0.0
0
VERTEX
5
4f7
100
AcDbEntity
8
0-0
6
CONTINUOUS
62
  7
100
AcDbVertex
100
AcDb2dVertex
10
146.500000000000
20
118.874468085106
30
0.0
0
SEQEND
5
4f8
100
AcDbEntity
8
0-0
0
POLYLINE
5
4f9
100
AcDbEntity
8
0-0
6
CONTINUOUS
62
  7
100
AcDb2dPolyline
66
1
10
0.0
20
0.0
30
0.0
70
0
0
VERTEX
5
4fa
100
AcDbEntity
8
0-0
6
CONTINUOUS
62
  7
100
AcDbVertex
100
AcDb2dVertex
10
145.500000000000
20
119.874468085106
30
0.0
0
VERTEX
5
4fb
100
AcDbEntity
8
0-0
6
CONTINUOUS
62
  7
100
AcDbVertex
100
AcDb2dVertex
10
145.500000000000
20
120.874468085106
30
0.0
0
VERTEX
5
4fc
100
AcDbEntity
8
0-0
6
CONTINUOUS
62
  7
100
AcDbVertex
100
AcDb2dVertex
10
144.500000000000
20
120.874468085106
30
0.0
0
VERTEX
5
4fd
100
AcDbEntity
8
0-0
6
CONTINUOUS
62
  7
100
AcDbVertex
100
AcDb2dVertex
10
144.500000000000
20
119.874468085106
30
0.0
0
SEQEND
5
4fe
100
AcDbEntity
8
0-0
0
ARC
5
4ff
100
AcDbEntity
8
0-0
6
CONTINUOUS
62
7
100
AcDbCircle
10
183.766209938880
20
108.374468085106
30
0.0
40
5.000000000000
100
AcDbArc
50
225.572995999194
51
314.427004000806
0
ARC
5
500
100
AcDbEntity
8
0-0
6
CONTINUOUS
62
7
100
AcDbCircle
10
183.766209938880
20
128.374468085106
30
0.0
40
5.000000000000
100
AcDbArc
50
45.572995999194
51
134.427004000806
0
CIRCLE
5
501
100
AcDbEntity
8
0-0
6
CONTINUOUS
62
7
100
AcDbCircle
10
145.000000000000
20
118.374468085106
30
0.0
40
15.000000000000
0
CIRCLE
5
502
100
AcDbEntity
8
0-0
6
CONTINUOUS
62
7
100
AcDbCircle
10
145.000000000000
20
118.374468085106
30
0.0
40
5.000000000000
0
ARC
5
503
100
AcDbEntity
8
0-0
6
CONTINUOUS
62
7
100
AcDbCircle
10
146.500000000000
20
119.874468085106
30
0.0
40
1.000000000000
100
AcDbArc
50
180.000000000000
51
270.000000000000
0
ARC
5
504
100
AcDbEntity
8
0-0
6
CONTINUOUS
62
7
100
AcDbCircle
10
146.500000000000
20
116.874468085106
30
0.0
40
1.000000000000
100
AcDbArc
50
90.000000000000
51
180.000000000000
0
ARC
5
505
100
AcDbEntity
8
0-0
6
CONTINUOUS
62
7
100
AcDbCircle
10
143.500000000000
20
116.874468085106
30
0.0
40
1.000000000000
100
AcDbArc
50
0.000000000000
51
90.000000000000
0
ARC
5
506
100
AcDbEntity
8
0-0
6
CONTINUOUS
62
7
100
AcDbCircle
10
143.500000000000
20
119.874468085106
30
0.0
40
1.000000000000
100
AcDbArc
50
270.000000000000
51
360.000000000000
0
LINE
5
507
100
AcDbEntity
8
0-1
6
CENTER
62
4
100
AcDbLine
10
145.000000000000
20
133.374468085106
30
0.0
11
145.000000000000
21
103.374468085106
31
0.0
0
LINE
5
508
100
AcDbEntity
8
0-1
6
CENTER
62
4
100
AcDbLine
10
160.000000000000
20
118.374468085106
30
0.0
11
130.000000000000
21
118.374468085106
31
0.0
0
LINE
5
509
100
AcDbEntity
8
0-1
6
CENTER
62
4
100
AcDbLine
10
183.766209938880
20
103.374468085106
30
0.0
11
183.766209938880
21
133.374468085106
31
0.0
0
LINE
5
50a
100
AcDbEntity
8
0-1
6
CENTER
62
4
100
AcDbLine
10
180.266209938880
20
118.374468085106
30
0.0
11
198.266209938880
21
118.374468085106
31
0.0
0
LINE
5
50b
100
AcDbEntity
8
0-1
6
CONTINUOUS
62
4
100
AcDbLine
10
198.266209938880
20
120.924468037423
30
0.0
11
190.266209938880
21
120.924468037423
31
0.0
0
LINE
5
50c
100
AcDbEntity
8
0-1
6
CONTINUOUS
62
4
100
AcDbLine
10
198.266209938880
20
115.824468132790
30
0.0
11
190.266209938880
21
115.824468132790
31
0.0
0
LINE
5
50d
100
AcDbEntity
8
0-1
6
CONTINUOUS
62
4
100
AcDbLine
10
197.816210129615
20
121.374468085106
30
0.0
11
197.816210129615
21
115.374468085106
31
0.0
0
LINE
5
50e
100
AcDbEntity
8
0-0
6
CONTINUOUS
62
7
100
AcDbLine
10
311.500000000000
20
108.374468085106
30
0.0
11
311.500000000000
21
128.374468085106
31
0.0
0
LINE
5
50f
100
AcDbEntity
8
0-0
6
CONTINUOUS
62
7
100
AcDbLine
10
306.500000000000
20
133.374468085106
30
0.0
11
235.000000000000
21
133.374468085106
31
0.0
0
LINE
5
510
100
AcDbEntity
8
0-0
6
CONTINUOUS
62
7
100
AcDbLine
10
235.000000000000
20
103.374468085106
30
0.0
11
306.500000000000
21
103.374468085106
31
0.0
0
ARC
5
511
100
AcDbEntity
8
0-0
6
CONTINUOUS
62
7
100
AcDbCircle
10
235.000000000000
20
118.374468085106
30
0.0
40
15.000000000000
100
AcDbArc
50
90.000000000000
51
270.000000000000
0
CIRCLE
5
512
100
AcDbEntity
8
0-0
6
CONTINUOUS
62
7
100
AcDbCircle
10
273.500000000000
20
118.374468085106
30
0.0
40
3.050000000000
0
CIRCLE
5
513
100
AcDbEntity
8
0-0
6
CONTINUOUS
62
7
100
AcDbCircle
10
303.500000000000
20
118.374468085106
30
0.0
40
3.050000000000
0
CIRCLE
5
514
100
AcDbEntity
8
0-0
6
CONTINUOUS
62
7
100
AcDbCircle
10
235.000000000000
20
118.374468085106
30
0.0
40
3.050000000000
0
ARC
5
515
100
AcDbEntity
8
0-0
6
CONTINUOUS
62
7
100
AcDbCircle
10
306.500000000000
20
128.374468085106
30
0.0
40
5.000000000000
100
AcDbArc
50
0.000000000000
51
90.000000000000
0
ARC
5
516
100
AcDbEntity
8
0-0
6
CONTINUOUS
62
7
100
AcDbCircle
10
306.500000000000
20
108.374468085106
30
0.0
40
5.000000000000
100
AcDbArc
50
270.000000000000
51
360.000000000000
0
LINE
5
517
100
AcDbEntity
8
0-0
6
CONTINUOUS
62
7
100
AcDbLine
10
311.500000000000
20
155.463064595106
30
0.0
11
220.000000000000
21
155.463064595107
31
0.0
0
POLYLINE
5
518
100
AcDbEntity
8
0-0
6
CONTINUOUS
62
  7
100
AcDb2dPolyline
66
1
10
0.0
20
0.0
30
0.0
70
0
0
VERTEX
5
519
100
AcDbEntity
8
0-0
6
CONTINUOUS
62
  7
100
AcDbVertex
100
AcDb2dVertex
10
311.500000000000
20
157.463064595106
30
0.0
0
VERTEX
5
51a
100
AcDbEntity
8
0-0
6
CONTINUOUS
62
  7
100
AcDbVertex
100
AcDb2dVertex
10
220.000000000000
20
157.463064595107
30
0.0
0
VERTEX
5
51b
100
AcDbEntity
8
0-0
6
CONTINUOUS
62
  7
100
AcDbVertex
100
AcDb2dVertex
10
220.000000000000
20
155.463064595107
30
0.0
0
SEQEND
5
51c
100
AcDbEntity
8
0-0
0
LINE
5
51d
100
AcDbEntity
8
0-0
6
CONTINUOUS
62
7
100
AcDbLine
10
311.500000000000
20
157.463064595106
30
0.0
11
311.500000000000
21
155.463064595106
31
0.0
0
LINE
5
51e
100
AcDbEntity
8
0-1
6
CENTER
62
4
100
AcDbLine
10
220.000000000000
20
118.374468085106
30
0.0
11
311.500000000000
21
118.374468085106
31
0.0
0
LINE
5
51f
100
AcDbEntity
8
0-1
6
CENTER
62
4
100
AcDbLine
10
235.000000000000
20
133.374468085106
30
0.0
11
235.000000000000
21
103.374468085106
31
0.0
0
LINE
5
520
100
AcDbEntity
8
0-1
6
CENTER
62
4
100
AcDbLine
10
235.000000000000
20
160.201222929055
30
0.0
11
235.000000000000
21
151.571005966531
31
0.0
0
LINE
5
521
100
AcDbEntity
8
0-1
6
CENTER
62
4
100
AcDbLine
10
303.500000000000
20
112.179006742280
30
0.0
11
303.500000000000
21
124.892313282689
31
0.0
0
LINE
5
522
100
AcDbEntity
8
0-1
6
CENTER
62
4
100
AcDbLine
10
273.500000000000
20
124.892313282689
30
0.0
11
273.500000000000
21
112.179006742280
31
0.0
0
LINE
5
523
100
AcDbEntity
8
0-1
6
CONTINUOUS
62
7
100
AcDbLine
10
295.500000000000
20
152.463064595106
30
0.0
11
295.500000000000
21
155.463064595106
31
0.0
0
LINE
5
524
100
AcDbEntity
8
0-1
6
CONTINUOUS
62
7
100
AcDbLine
10
311.500000000000
20
152.463064595106
30
0.0
11
295.500000000000
21
152.463064595106
31
0.0
0
LINE
5
525
100
AcDbEntity
8
0-1
6
CONTINUOUS
62
7
100
AcDbLine
10
311.500000000000
20
152.463064595106
30
0.0
11
311.500000000000
21
155.463064595106
31
0.0
0
LINE
5
526
100
AcDbEntity
8
F-F_J_ADD
6
HIDDEN
62
253
100
AcDbLine
10
303.500000000000
20
152.463064595106
30
0.0
11
302.792893218813
21
153.170171376293
31
0.0
0
LINE
5
527
100
AcDbEntity
8
F-F_J_ADD
6
HIDDEN
62
253
100
AcDbLine
10
303.500000000000
20
152.463064595106
30
0.0
11
304.207106781187
21
153.170171376293
31
0.0
0
LINE
5
528
100
AcDbEntity
8
0-1
6
CONTINUOUS
62
4
100
AcDbLine
10
301.625000000000
20
147.063064499739
30
0.0
11
301.625000000000
21
152.463064595106
31
0.0
0
LINE
5
529
100
AcDbEntity
8
0-1
6
CONTINUOUS
62
4
100
AcDbLine
10
301.000000000000
20
147.063064499739
30
0.0
11
301.000000000000
21
152.463064595106
31
0.0
0
LINE
5
52a
100
AcDbEntity
8
0-1
6
CONTINUOUS
62
4
100
AcDbLine
10
300.375000000000
20
147.063064499739
30
0.0
11
300.375000000000
21
152.463064595106
31
0.0
0
LINE
5
52b
100
AcDbEntity
8
0-1
6
CONTINUOUS
62
4
100
AcDbLine
10
299.750000000000
20
147.063064499739
30
0.0
11
299.750000000000
21
152.463064595106
31
0.0
0
LINE
5
52c
100
AcDbEntity
8
0-1
6
CONTINUOUS
62
4
100
AcDbLine
10
299.125000000000
20
147.063064499739
30
0.0
11
299.125000000000
21
152.463064595106
31
0.0
0
LINE
5
52d
100
AcDbEntity
8
0-1
6
CONTINUOUS
62
4
100
AcDbLine
10
306.049999952316
20
152.463064595106
30
0.0
11
306.049999952316
21
164.463064595106
31
0.0
0
LINE
5
52e
100
AcDbEntity
8
0-1
6
CONTINUOUS
62
4
100
AcDbLine
10
300.950000047684
20
152.463064595106
30
0.0
11
300.950000047684
21
164.463064595106
31
0.0
0
LINE
5
52f
100
AcDbEntity
8
0-1
6
CONTINUOUS
62
2
100
AcDbLine
10
308.500000000000
20
147.063064499739
30
0.0
11
308.500000000000
21
152.463064595106
31
0.0
0
LINE
5
530
100
AcDbEntity
8
0-1
6
CONTINUOUS
62
2
100
AcDbLine
10
308.500000000000
20
147.063064499739
30
0.0
11
307.900000095367
21
146.463064595106
31
0.0
0
LINE
5
531
100
AcDbEntity
8
0-1
6
CONTINUOUS
62
2
100
AcDbLine
10
299.099999904633
20
146.463064595106
30
0.0
11
307.900000095367
21
146.463064595106
31
0.0
0
LINE
5
532
100
AcDbEntity
8
0-1
6
CONTINUOUS
62
2
100
AcDbLine
10
298.500000000000
20
147.063064499739
30
0.0
11
298.500000000000
21
152.463064595106
31
0.0
0
LINE
5
533
100
AcDbEntity
8
0-1
6
CONTINUOUS
62
2
100
AcDbLine
10
299.099999904633
20
146.463064595106
30
0.0
11
298.500000000000
21
147.063064499739
31
0.0
0
LINE
5
534
100
AcDbEntity
8
0-1
6
CONTINUOUS
62
2
100
AcDbLine
10
308.500000000000
20
147.063064499739
30
0.0
11
298.500000000000
21
147.063064499739
31
0.0
0
LINE
5
535
100
AcDbEntity
8
0-1
6
CONTINUOUS
62
2
100
AcDbLine
10
306.500000000000
20
164.013064785841
30
0.0
11
306.500000000000
21
152.463064595106
31
0.0
0
LINE
5
536
100
AcDbEntity
8
0-1
6
CONTINUOUS
62
2
100
AcDbLine
10
306.500000000000
20
164.013064785841
30
0.0
11
306.049999952316
21
164.463064595106
31
0.0
0
LINE
5
537
100
AcDbEntity
8
0-1
6
CONTINUOUS
62
2
100
AcDbLine
10
300.950000047684
20
164.463064595106
30
0.0
11
306.049999952316
21
164.463064595106
31
0.0
0
LINE
5
538
100
AcDbEntity
8
0-1
6
CONTINUOUS
62
2
100
AcDbLine
10
300.500000000000
20
164.013064785841
30
0.0
11
300.500000000000
21
152.463064595106
31
0.0
0
LINE
5
539
100
AcDbEntity
8
0-1
6
CONTINUOUS
62
2
100
AcDbLine
10
300.950000047684
20
164.463064595106
30
0.0
11
300.500000000000
21
164.013064785841
31
0.0
0
LINE
5
53a
100
AcDbEntity
8
0-1
6
CONTINUOUS
62
2
100
AcDbLine
10
306.500000000000
20
164.013064785841
30
0.0
11
300.500000000000
21
164.013064785841
31
0.0
0
LINE
5
53b
100
AcDbEntity
8
0-1
6
CONTINUOUS
62
7
100
AcDbLine
10
298.660068237963
20
158.519486723732
30
0.0
11
298.517397533496
21
160.150220337854
31
0.0
0
LINE
5
53c
100
AcDbEntity
8
0-1
6
CONTINUOUS
62
7
100
AcDbLine
10
297.521202835404
20
161.063064595106
30
0.0
11
297.200000000000
21
161.063064595106
31
0.0
0
LINE
5
53d
100
AcDbEntity
8
0-1
6
CONTINUOUS
62
7
100
AcDbLine
10
296.717037086855
20
161.692474117657
30
0.0
11
296.904249443799
21
162.391160145576
31
0.0
0
LINE
5
53e
100
AcDbEntity
8
0-1
6
CONTINUOUS
62
7
100
AcDbLine
10
297.137212356944
20
162.694763324917
30
0.0
11
299.503847577293
21
164.061140806459
31
0.0
0
LINE
5
53f
100
AcDbEntity
8
0-1
6
CONTINUOUS
62
7
100
AcDbLine
10
301.003847577293
20
164.463064595106
30
0.0
11
305.996152422706
21
164.463064595106
31
0.0
0
LINE
5
540
100
AcDbEntity
8
0-1
6
CONTINUOUS
62
7
100
AcDbLine
10
307.496152422706
20
164.061140806459
30
0.0
11
309.862787643056
21
162.694763324917
31
0.0
0
LINE
5
541
100
AcDbEntity
8
0-1
6
CONTINUOUS
62
7
100
AcDbLine
10
310.095750556200
20
162.391160145576
30
0.0
11
310.282962913144
21
161.692474117657
31
0.0
0
LINE
5
542
100
AcDbEntity
8
0-1
6
CONTINUOUS
62
7
100
AcDbLine
10
309.800000000000
20
161.063064595106
30
0.0
11
309.478797164595
21
161.063064595106
31
0.0
0
LINE
5
543
100
AcDbEntity
8
0-1
6
CONTINUOUS
62
7
100
AcDbLine
10
308.482602466503
20
160.150220337854
30
0.0
11
308.339931762037
21
158.519486723732
31
0.0
0
LINE
5
544
100
AcDbEntity
8
0-1
6
CONTINUOUS
62
7
100
AcDbLine
10
307.841834412991
20
158.063064595106
30
0.0
11
299.158165587009
21
158.063064595106
31
0.0
0
ARC
5
545
100
AcDbEntity
8
0-1
6
CONTINUOUS
62
7
100
AcDbCircle
10
307.841834412991
20
158.563064595106
30
0.0
40
0.500000000000
100
AcDbArc
50
270.000000000000
51
355.000000000000
0
ARC
5
546
100
AcDbEntity
8
0-1
6
CONTINUOUS
62
7
100
AcDbCircle
10
309.478797164595
20
160.063064595106
30
0.0
40
1.000000000000
100
AcDbArc
50
90.000000000000
51
175.000000000000
0
ARC
5
547
100
AcDbEntity
8
0-1
6
CONTINUOUS
62
7
100
AcDbCircle
10
309.800000000000
20
161.563064595106
30
0.0
40
0.500000000000
100
AcDbArc
50
270.000000000000
51
318.592702342671
0
ARC
5
548
100
AcDbEntity
8
0-1
6
CONTINUOUS
62
7
100
AcDbCircle
10
309.800000000000
20
161.563064595106
30
0.0
40
0.500000000000
100
AcDbArc
50
318.592702342671
51
375.000000000000
0
ARC
5
549
100
AcDbEntity
8
0-1
6
CONTINUOUS
62
7
100
AcDbCircle
10
309.612787643056
20
162.261750623025
30
0.0
40
0.500000000000
100
AcDbArc
50
15.000000000000
51
60.000000000000
0
ARC
5
54a
100
AcDbEntity
8
0-1
6
CONTINUOUS
62
7
100
AcDbCircle
10
305.996152422706
20
161.463064595106
30
0.0
40
3.000000000000
100
AcDbArc
50
60.000000000000
51
90.000000000000
0
ARC
5
54b
100
AcDbEntity
8
0-1
6
CONTINUOUS
62
7
100
AcDbCircle
10
299.158165587009
20
158.563064595106
30
0.0
40
0.500000000000
100
AcDbArc
50
185.000000000000
51
270.000000000000
0
ARC
5
54c
100
AcDbEntity
8
0-1
6
CONTINUOUS
62
7
100
AcDbCircle
10
297.521202835404
20
160.063064595106
30
0.0
40
1.000000000000
100
AcDbArc
50
5.000000000000
51
90.000000000000
0
ARC
5
54d
100
AcDbEntity
8
0-1
6
CONTINUOUS
62
7
100
AcDbCircle
10
297.200000000000
20
161.563064595106
30
0.0
40
0.500000000000
100
AcDbArc
50
221.407297657329
51
270.000000000000
0
ARC
5
54e
100
AcDbEntity
8
0-1
6
CONTINUOUS
62
7
100
AcDbCircle
10
297.200000000000
20
161.563064595106
30
0.0
40
0.500000000000
100
AcDbArc
50
165.000000000000
51
221.407297657329
0
ARC
5
54f
100
AcDbEntity
8
0-1
6
CONTINUOUS
62
7
100
AcDbCircle
10
297.387212356944
20
162.261750623025
30
0.0
40
0.500000000000
100
AcDbArc
50
120.000000000000
51
165.000000000000
0
ARC
5
550
100
AcDbEntity
8
0-1
6
CONTINUOUS
62
7
100
AcDbCircle
10
301.003847577293
20
161.463064595106
30
0.0
40
3.000000000000
100
AcDbArc
50
90.000000000000
51
120.000000000000
0
LINE
5
551
100
AcDbEntity
8
0-1
6
CENTER
62
4
100
AcDbLine
10
303.500000000000
20
145.753112952054
30
0.0
11
303.500000000000
21
164.768953476901
31
0.0
0
LINE
5
552
100
AcDbEntity
8
0-1
6
CONTINUOUS
62
7
100
AcDbLine
10
265.500000000000
20
152.463064595106
30
0.0
11
265.500000000000
21
155.463064595106
31
0.0
0
LINE
5
553
100
AcDbEntity
8
0-1
6
CONTINUOUS
62
7
100
AcDbLine
10
281.500000000000
20
152.463064595106
30
0.0
11
265.500000000000
21
152.463064595106
31
0.0
0
LINE
5
554
100
AcDbEntity
8
0-1
6
CONTINUOUS
62
7
100
AcDbLine
10
281.500000000000
20
152.463064595106
30
0.0
11
281.500000000000
21
155.463064595106
31
0.0
0
LINE
5
555
100
AcDbEntity
8
F-F_J_ADD
6
HIDDEN
62
253
100
AcDbLine
10
273.500000000000
20
152.463064595106
30
0.0
11
272.792893218813
21
153.170171376293
31
0.0
0
LINE
5
556
100
AcDbEntity
8
F-F_J_ADD
6
HIDDEN
62
253
100
AcDbLine
10
273.500000000000
20
152.463064595106
30
0.0
11
274.207106781187
21
153.170171376293
31
0.0
0
LINE
5
557
100
AcDbEntity
8
0-1
6
CONTINUOUS
62
4
100
AcDbLine
10
271.625000000000
20
147.063064499739
30
0.0
11
271.625000000000
21
152.463064595106
31
0.0
0
LINE
5
558
100
AcDbEntity
8
0-1
6
CONTINUOUS
62
4
100
AcDbLine
10
271.000000000000
20
147.063064499739
30
0.0
11
271.000000000000
21
152.463064595106
31
0.0
0
LINE
5
559
100
AcDbEntity
8
0-1
6
CONTINUOUS
62
4
100
AcDbLine
10
270.375000000000
20
147.063064499739
30
0.0
11
270.375000000000
21
152.463064595106
31
0.0
0
LINE
5
55a
100
AcDbEntity
8
0-1
6
CONTINUOUS
62
4
100
AcDbLine
10
269.750000000000
20
147.063064499739
30
0.0
11
269.750000000000
21
152.463064595106
31
0.0
0
LINE
5
55b
100
AcDbEntity
8
0-1
6
CONTINUOUS
62
4
100
AcDbLine
10
269.125000000000
20
147.063064499739
30
0.0
11
269.125000000000
21
152.463064595106
31
0.0
0
LINE
5
55c
100
AcDbEntity
8
0-1
6
CONTINUOUS
62
4
100
AcDbLine
10
276.049999952316
20
152.463064595106
30
0.0
11
276.049999952316
21
164.463064595106
31
0.0
0
LINE
5
55d
100
AcDbEntity
8
0-1
6
CONTINUOUS
62
4
100
AcDbLine
10
270.950000047684
20
152.463064595106
30
0.0
11
270.950000047684
21
164.463064595106
31
0.0
0
LINE
5
55e
100
AcDbEntity
8
0-1
6
CONTINUOUS
62
2
100
AcDbLine
10
278.500000000000
20
147.063064499739
30
0.0
11
278.500000000000
21
152.463064595106
31
0.0
0
LINE
5
55f
100
AcDbEntity
8
0-1
6
CONTINUOUS
62
2
100
AcDbLine
10
278.500000000000
20
147.063064499739
30
0.0
11
277.900000095367
21
146.463064595106
31
0.0
0
LINE
5
560
100
AcDbEntity
8
0-1
6
CONTINUOUS
62
2
100
AcDbLine
10
269.099999904633
20
146.463064595106
30
0.0
11
277.900000095367
21
146.463064595106
31
0.0
0
LINE
5
561
100
AcDbEntity
8
0-1
6
CONTINUOUS
62
2
100
AcDbLine
10
268.500000000000
20
147.063064499739
30
0.0
11
268.500000000000
21
152.463064595106
31
0.0
0
LINE
5
562
100
AcDbEntity
8
0-1
6
CONTINUOUS
62
2
100
AcDbLine
10
269.099999904633
20
146.463064595106
30
0.0
11
268.500000000000
21
147.063064499739
31
0.0
0
LINE
5
563
100
AcDbEntity
8
0-1
6
CONTINUOUS
62
2
100
AcDbLine
10
278.500000000000
20
147.063064499739
30
0.0
11
268.500000000000
21
147.063064499739
31
0.0
0
LINE
5
564
100
AcDbEntity
8
0-1
6
CONTINUOUS
62
2
100
AcDbLine
10
276.500000000000
20
164.013064785841
30
0.0
11
276.500000000000
21
152.463064595106
31
0.0
0
LINE
5
565
100
AcDbEntity
8
0-1
6
CONTINUOUS
62
2
100
AcDbLine
10
276.500000000000
20
164.013064785841
30
0.0
11
276.049999952316
21
164.463064595106
31
0.0
0
LINE
5
566
100
AcDbEntity
8
0-1
6
CONTINUOUS
62
2
100
AcDbLine
10
270.950000047684
20
164.463064595106
30
0.0
11
276.049999952316
21
164.463064595106
31
0.0
0
LINE
5
567
100
AcDbEntity
8
0-1
6
CONTINUOUS
62
2
100
AcDbLine
10
270.500000000000
20
164.013064785841
30
0.0
11
270.500000000000
21
152.463064595106
31
0.0
0
LINE
5
568
100
AcDbEntity
8
0-1
6
CONTINUOUS
62
2
100
AcDbLine
10
270.950000047684
20
164.463064595106
30
0.0
11
270.500000000000
21
164.013064785841
31
0.0
0
LINE
5
569
100
AcDbEntity
8
0-1
6
CONTINUOUS
62
2
100
AcDbLine
10
276.500000000000
20
164.013064785841
30
0.0
11
270.500000000000
21
164.013064785841
31
0.0
0
LINE
5
56a
100
AcDbEntity
8
0-1
6
CONTINUOUS
62
7
100
AcDbLine
10
268.660068237963
20
158.519486723732
30
0.0
11
268.517397533496
21
160.150220337854
31
0.0
0
LINE
5
56b
100
AcDbEntity
8
0-1
6
CONTINUOUS
62
7
100
AcDbLine
10
267.521202835404
20
161.063064595106
30
0.0
11
267.200000000000
21
161.063064595106
31
0.0
0
LINE
5
56c
100
AcDbEntity
8
0-1
6
CONTINUOUS
62
7
100
AcDbLine
10
266.717037086855
20
161.692474117657
30
0.0
11
266.904249443799
21
162.391160145576
31
0.0
0
LINE
5
56d
100
AcDbEntity
8
0-1
6
CONTINUOUS
62
7
100
AcDbLine
10
267.137212356944
20
162.694763324917
30
0.0
11
269.503847577293
21
164.061140806459
31
0.0
0
LINE
5
56e
100
AcDbEntity
8
0-1
6
CONTINUOUS
62
7
100
AcDbLine
10
271.003847577293
20
164.463064595106
30
0.0
11
275.996152422706
21
164.463064595106
31
0.0
0
LINE
5
56f
100
AcDbEntity
8
0-1
6
CONTINUOUS
62
7
100
AcDbLine
10
277.496152422706
20
164.061140806459
30
0.0
11
279.862787643056
21
162.694763324917
31
0.0
0
LINE
5
570
100
AcDbEntity
8
0-1
6
CONTINUOUS
62
7
100
AcDbLine
10
280.095750556201
20
162.391160145576
30
0.0
11
280.282962913144
21
161.692474117657
31
0.0
0
LINE
5
571
100
AcDbEntity
8
0-1
6
CONTINUOUS
62
7
100
AcDbLine
10
279.800000000000
20
161.063064595106
30
0.0
11
279.478797164595
21
161.063064595106
31
0.0
0
LINE
5
572
100
AcDbEntity
8
0-1
6
CONTINUOUS
62
7
100
AcDbLine
10
278.482602466503
20
160.150220337854
30
0.0
11
278.339931762037
21
158.519486723732
31
0.0
0
LINE
5
573
100
AcDbEntity
8
0-1
6
CONTINUOUS
62
7
100
AcDbLine
10
277.841834412991
20
158.063064595106
30
0.0
11
269.158165587009
21
158.063064595106
31
0.0
0
ARC
5
574
100
AcDbEntity
8
0-1
6
CONTINUOUS
62
7
100
AcDbCircle
10
277.841834412991
20
158.563064595106
30
0.0
40
0.500000000000
100
AcDbArc
50
270.000000000000
51
355.000000000000
0
ARC
5
575
100
AcDbEntity
8
0-1
6
CONTINUOUS
62
7
100
AcDbCircle
10
279.478797164595
20
160.063064595106
30
0.0
40
1.000000000000
100
AcDbArc
50
90.000000000000
51
175.000000000000
0
ARC
5
576
100
AcDbEntity
8
0-1
6
CONTINUOUS
62
7
100
AcDbCircle
10
279.800000000000
20
161.563064595106
30
0.0
40
0.500000000000
100
AcDbArc
50
270.000000000000
51
318.592702342671
0
ARC
5
577
100
AcDbEntity
8
0-1
6
CONTINUOUS
62
7
100
AcDbCircle
10
279.800000000000
20
161.563064595106
30
0.0
40
0.500000000000
100
AcDbArc
50
318.592702342671
51
375.000000000000
0
ARC
5
578
100
AcDbEntity
8
0-1
6
CONTINUOUS
62
7
100
AcDbCircle
10
279.612787643056
20
162.261750623025
30
0.0
40
0.500000000000
100
AcDbArc
50
15.000000000000
51
60.000000000000
0
ARC
5
579
100
AcDbEntity
8
0-1
6
CONTINUOUS
62
7
100
AcDbCircle
10
275.996152422706
20
161.463064595106
30
0.0
40
3.000000000000
100
AcDbArc
50
60.000000000000
51
90.000000000000
0
ARC
5
57a
100
AcDbEntity
8
0-1
6
CONTINUOUS
62
7
100
AcDbCircle
10
269.158165587009
20
158.563064595106
30
0.0
40
0.500000000000
100
AcDbArc
50
185.000000000000
51
270.000000000000
0
ARC
5
57b
100
AcDbEntity
8
0-1
6
CONTINUOUS
62
7
100
AcDbCircle
10
267.521202835404
20
160.063064595106
30
0.0
40
1.000000000000
100
AcDbArc
50
5.000000000000
51
90.000000000000
0
ARC
5
57c
100
AcDbEntity
8
0-1
6
CONTINUOUS
62
7
100
AcDbCircle
10
267.200000000000
20
161.563064595106
30
0.0
40
0.500000000000
100
AcDbArc
50
221.407297657329
51
270.000000000000
0
ARC
5
57d
100
AcDbEntity
8
0-1
6
CONTINUOUS
62
7
100
AcDbCircle
10
267.200000000000
20
161.563064595106
30
0.0
40
0.500000000000
100
AcDbArc
50
165.000000000000
51
221.407297657329
0
ARC
5
57e
100
AcDbEntity
8
0-1
6
CONTINUOUS
62
7
100
AcDbCircle
10
267.387212356944
20
162.261750623025
30
0.0
40
0.500000000000
100
AcDbArc
50
120.000000000000
51
165.000000000000
0
ARC
5
57f
100
AcDbEntity
8
0-1
6
CONTINUOUS
62
7
100
AcDbCircle
10
271.003847577293
20
161.463064595106
30
0.0
40
3.000000000000
100
AcDbArc
50
90.000000000000
51
120.000000000000
0
LINE
5
580
100
AcDbEntity
8
0-1
6
CENTER
62
4
100
AcDbLine
10
273.500000000000
20
145.753112952054
30
0.0
11
273.500000000000
21
164.768953476901
31
0.0
0
LINE
5
581
100
AcDbEntity
8
F-F_J_ADD
6
HIDDEN
62
253
100
AcDbLine
10
-4.156382978724
20
103.374468085106
30
0.0
11
320.000000000000
21
103.374468085106
31
0.0
0
LINE
5
582
100
AcDbEntity
8
0-0
6
CONTINUOUS
62
7
100
AcDbLine
10
413.170348395537
20
144.840119856186
30
0.0
11
413.170348395537
21
142.840119856186
31
0.0
0
LINE
5
583
100
AcDbEntity
8
0-0
6
CONTINUOUS
62
7
100
AcDbLine
10
413.170348395537
20
104.177703452626
30
0.0
11
413.170348395537
21
78.177703452626
31
0.0
0
LINE
5
584
100
AcDbEntity
8
0-0
6
CONTINUOUS
62
7
100
AcDbLine
10
408.170348395537
20
73.177703452626
30
0.0
11
364.549975842370
21
73.177703452626
31
0.0
0
LINE
5
585
100
AcDbEntity
8
0-0
6
CONTINUOUS
62
7
100
AcDbLine
10
363.255880616856
20
73.348074321181
30
0.0
11
350.788062718999
21
76.688816058291
31
0.0
0
LINE
5
586
100
AcDbEntity
8
0-0
6
CONTINUOUS
62
7
100
AcDbLine
10
350.788062718999
20
105.666590846962
30
0.0
11
363.255880616857
21
109.007332584071
31
0.0
0
LINE
5
587
100
AcDbEntity
8
0-0
6
CONTINUOUS
62
7
100
AcDbLine
10
364.549975842370
20
109.177703452626
30
0.0
11
408.170348395537
21
109.177703452626
31
0.0
0
ARC
5
588
100
AcDbEntity
8
0-0
6
CONTINUOUS
62
7
100
AcDbCircle
10
354.670348395537
20
91.177703452626
30
0.0
40
15.000000000000
100
AcDbArc
50
105.000000000000
51
255.000000000000
0
CIRCLE
5
589
100
AcDbEntity
8
0-0
6
CONTINUOUS
62
7
100
AcDbCircle
10
354.670348395537
20
91.177703452626
30
0.0
40
3.050000000000
0
CIRCLE
5
58a
100
AcDbEntity
8
0-0
6
CONTINUOUS
62
7
100
AcDbCircle
10
395.170348395537
20
81.177703452626
30
0.0
40
3.050000000000
0
CIRCLE
5
58b
100
AcDbEntity
8
0-0
6
CONTINUOUS
62
7
100
AcDbCircle
10
395.170348395537
20
101.177703452626
30
0.0
40
3.050000000000
0
ARC
5
58c
100
AcDbEntity
8
0-0
6
CONTINUOUS
62
7
100
AcDbCircle
10
408.170348395537
20
78.177703452626
30
0.0
40
5.000000000000
100
AcDbArc
50
270.000000000000
51
360.000000000000
0
ARC
5
58d
100
AcDbEntity
8
0-0
6
CONTINUOUS
62
7
100
AcDbCircle
10
408.170348395537
20
104.177703452626
30
0.0
40
5.000000000000
100
AcDbArc
50
0.000000000000
51
90.000000000000
0
ARC
5
58e
100
AcDbEntity
8
0-0
6
CONTINUOUS
62
7
100
AcDbCircle
10
364.549975842369
20
78.177703452626
30
0.0
40
5.000000000000
100
AcDbArc
50
254.999999999994
51
270.000000000000
0
ARC
5
58f
100
AcDbEntity
8
0-0
6
CONTINUOUS
62
7
100
AcDbCircle
10
364.549975842370
20
104.177703452626
30
0.0
40
5.000000000000
100
AcDbArc
50
90.000000000000
51
104.999999999998
0
LINE
5
590
100
AcDbEntity
8
0-0
6
CONTINUOUS
62
7
100
AcDbLine
10
413.170348395537
20
142.840119856186
30
0.0
11
339.670348395537
21
142.840119856187
31
0.0
0
POLYLINE
5
591
100
AcDbEntity
8
0-0
6
CONTINUOUS
62
  7
100
AcDb2dPolyline
66
1
10
0.0
20
0.0
30
0.0
70
0
0
VERTEX
5
592
100
AcDbEntity
8
0-0
6
CONTINUOUS
62
  7
100
AcDbVertex
100
AcDb2dVertex
10
413.170348395537
20
144.840119856186
30
0.0
0
VERTEX
5
593
100
AcDbEntity
8
0-0
6
CONTINUOUS
62
  7
100
AcDbVertex
100
AcDb2dVertex
10
339.670348395537
20
144.840119856187
30
0.0
0
VERTEX
5
594
100
AcDbEntity
8
0-0
6
CONTINUOUS
62
  7
100
AcDbVertex
100
AcDb2dVertex
10
339.670348395537
20
142.840119856187
30
0.0
0
SEQEND
5
595
100
AcDbEntity
8
0-0
0
LINE
5
596
100
AcDbEntity
8
0-0
6
CONTINUOUS
62
7
100
AcDbLine
10
350.788062718999
20
37.544300995420
30
0.0
11
363.255880616857
21
40.885042732529
31
0.0
0
LINE
5
597
100
AcDbEntity
8
0-0
6
CONTINUOUS
62
7
100
AcDbLine
10
364.549975842370
20
41.055413601084
30
0.0
11
408.170348395537
21
41.055413601084
31
0.0
0
LINE
5
598
100
AcDbEntity
8
0-0
6
CONTINUOUS
62
7
100
AcDbLine
10
413.170348395537
20
36.055413601084
30
0.0
11
413.170348395537
21
10.055413601084
31
0.0
0
LINE
5
599
100
AcDbEntity
8
0-0
6
CONTINUOUS
62
7
100
AcDbLine
10
408.170348395537
20
5.055413601084
30
0.0
11
364.549975842370
21
5.055413601084
31
0.0
0
LINE
5
59a
100
AcDbEntity
8
0-0
6
CONTINUOUS
62
7
100
AcDbLine
10
363.255880616857
20
5.225784469638
30
0.0
11
350.788062718999
21
8.566526206749
31
0.0
0
LINE
5
59b
100
AcDbEntity
8
0-0
6
CONTINUOUS
62
7
100
AcDbLine
10
395.170348395537
20
10.005413601084
30
0.0
11
401.170348395537
21
10.005413601084
31
0.0
0
LINE
5
59c
100
AcDbEntity
8
0-0
6
CONTINUOUS
62
7
100
AcDbLine
10
401.170348395537
20
36.105413601085
30
0.0
11
395.170348395537
21
36.105413601085
31
0.0
0
LINE
5
59d
100
AcDbEntity
8
0-0
6
CONTINUOUS
62
7
100
AcDbLine
10
395.170348395537
20
16.105413601083
30
0.0
11
401.170348395537
21
16.105413601083
31
0.0
0
LINE
5
59e
100
AcDbEntity
8
0-0
6
CONTINUOUS
62
7
100
AcDbLine
10
401.170348395537
20
30.005413601084
30
0.0
11
395.170348395537
21
30.005413601084
31
0.0
0
ARC
5
59f
100
AcDbEntity
8
0-0
6
CONTINUOUS
62
7
100
AcDbCircle
10
408.170348395537
20
36.055413601084
30
0.0
40
5.000000000000
100
AcDbArc
50
0.000000000000
51
90.000000000000
0
ARC
5
5a0
100
AcDbEntity
8
0-0
6
CONTINUOUS
62
7
100
AcDbCircle
10
354.670348395537
20
23.055413601084
30
0.0
40
15.000000000000
100
AcDbArc
50
105.000000000000
51
255.000000000000
0
CIRCLE
5
5a1
100
AcDbEntity
8
0-0
6
CONTINUOUS
62
7
100
AcDbCircle
10
354.670348395537
20
23.055413601084
30
0.0
40
3.050000000000
0
ARC
5
5a2
100
AcDbEntity
8
0-0
6
CONTINUOUS
62
7
100
AcDbCircle
10
401.170348395537
20
13.055413601084
30
0.0
40
3.050000000000
100
AcDbArc
50
270.000000000000
51
450.000000000000
0
ARC
5
5a3
100
AcDbEntity
8
0-0
6
CONTINUOUS
62
7
100
AcDbCircle
10
395.170348395537
20
13.055413601084
30
0.0
40
3.050000000000
100
AcDbArc
50
90.000000000000
51
270.000000000000
0
ARC
5
5a4
100
AcDbEntity
8
0-0
6
CONTINUOUS
62
7
100
AcDbCircle
10
395.170348395537
20
33.055413601084
30
0.0
40
3.050000000000
100
AcDbArc
50
90.000000000000
51
270.000000000000
0
ARC
5
5a5
100
AcDbEntity
8
0-0
6
CONTINUOUS
62
7
100
AcDbCircle
10
401.170348395537
20
33.055413601084
30
0.0
40
3.050000000000
100
AcDbArc
50
270.000000000000
51
450.000000000000
0
ARC
5
5a6
100
AcDbEntity
8
0-0
6
CONTINUOUS
62
7
100
AcDbCircle
10
408.170348395537
20
10.055413601084
30
0.0
40
5.000000000000
100
AcDbArc
50
270.000000000000
51
360.000000000000
0
ARC
5
5a7
100
AcDbEntity
8
0-0
6
CONTINUOUS
62
7
100
AcDbCircle
10
364.549975842370
20
10.055413601084
30
0.0
40
5.000000000000
100
AcDbArc
50
254.999999999994
51
270.000000000000
0
ARC
5
5a8
100
AcDbEntity
8
0-0
6
CONTINUOUS
62
7
100
AcDbCircle
10
364.549975842370
20
36.055413601084
30
0.0
40
5.000000000000
100
AcDbArc
50
90.000000000000
51
104.999999999998
0
TEXT
5
5a9
100
AcDbEntity
8
0-0
62
7
370
-3
100
AcDbText
10
325.909
20
98.471
30
0.0
40
4.208
1
GS42
41
0.512
50
0.000
100
AcDbText
0
TEXT
5
5aa
100
AcDbEntity
8
0-0
62
7
370
-3
100
AcDbText
10
324.712
20
26.654
30
0.0
40
4.208
1
GS43
41
0.528
50
0.000
100
AcDbText
0
LINE
5
5ab
100
AcDbEntity
8
0-1
6
CENTER
62
4
100
AcDbLine
10
354.670348395537
20
76.177703452626
30
0.0
11
354.670348395537
21
106.177703452626
31
0.0
0
LINE
5
5ac
100
AcDbEntity
8
0-1
6
CENTER
62
4
100
AcDbLine
10
398.220348395537
20
101.177703452626
30
0.0
11
392.120348395537
21
101.177703452626
31
0.0
0
LINE
5
5ad
100
AcDbEntity
8
0-1
6
CENTER
62
4
100
AcDbLine
10
395.170348395537
20
104.227703452625
30
0.0
11
395.170348395537
21
78.127703452625
31
0.0
0
LINE
5
5ae
100
AcDbEntity
8
0-1
6
CENTER
62
4
100
AcDbLine
10
398.220348395537
20
81.177703452626
30
0.0
11
392.120348395537
21
81.177703452626
31
0.0
0
LINE
5
5af
100
AcDbEntity
8
0-1
6
CENTER
62
4
100
AcDbLine
10
413.170348395537
20
91.177703452626
30
0.0
11
339.670348395537
21
91.177703452626
31
0.0
0
LINE
5
5b0
100
AcDbEntity
8
0-1
6
CENTER
62
4
100
AcDbLine
10
354.670348395537
20
147.578278190136
30
0.0
11
354.670348395537
21
138.948061227611
31
0.0
0
LINE
5
5b1
100
AcDbEntity
8
0-1
6
CENTER
62
4
100
AcDbLine
10
354.670348395537
20
8.055413601084
30
0.0
11
354.670348395537
21
38.055413601084
31
0.0
0
LINE
5
5b2
100
AcDbEntity
8
0-1
6
CENTER
62
4
100
AcDbLine
10
339.670348395537
20
23.055413601084
30
0.0
11
413.170348395537
21
23.055413601084
31
0.0
0
LINE
5
5b3
100
AcDbEntity
8
0-1
6
CENTER
62
4
100
AcDbLine
10
404.220348395537
20
13.055413601084
30
0.0
11
392.120348395537
21
13.055413601084
31
0.0
0
LINE
5
5b4
100
AcDbEntity
8
0-1
6
CENTER
62
4
100
AcDbLine
10
401.170348395537
20
10.005413601084
30
0.0
11
401.170348395537
21
36.105413601085
31
0.0
0
LINE
5
5b5
100
AcDbEntity
8
0-1
6
CENTER
62
4
100
AcDbLine
10
395.170348395537
20
36.105413601085
30
0.0
11
395.170348395537
21
10.005413601084
31
0.0
0
LINE
5
5b6
100
AcDbEntity
8
0-1
6
CENTER
62
4
100
AcDbLine
10
392.120348395537
20
33.055413601084
30
0.0
11
404.220348395537
21
33.055413601084
31
0.0
0
LINE
5
5b7
100
AcDbEntity
8
0-1
6
CENTER
62
4
100
AcDbLine
10
395.170348395537
20
159.187475610903
30
0.0
11
395.170348395537
21
126.819532546231
31
0.0
0
LINE
5
5b8
100
AcDbEntity
8
0-1
6
CONTINUOUS
62
7
100
AcDbLine
10
387.170348395537
20
139.840119856186
30
0.0
11
387.170348395537
21
142.840119856186
31
0.0
0
LINE
5
5b9
100
AcDbEntity
8
0-1
6
CONTINUOUS
62
7
100
AcDbLine
10
403.170348395537
20
139.840119856186
30
0.0
11
387.170348395537
21
139.840119856186
31
0.0
0
LINE
5
5ba
100
AcDbEntity
8
0-1
6
CONTINUOUS
62
7
100
AcDbLine
10
403.170348395537
20
139.840119856186
30
0.0
11
403.170348395537
21
142.840119856186
31
0.0
0
LINE
5
5bb
100
AcDbEntity
8
F-F_J_ADD
6
HIDDEN
62
253
100
AcDbLine
10
395.170348395537
20
139.840119856186
30
0.0
11
394.463241614350
21
140.547226637373
31
0.0
0
LINE
5
5bc
100
AcDbEntity
8
F-F_J_ADD
6
HIDDEN
62
253
100
AcDbLine
10
395.170348395537
20
139.840119856186
30
0.0
11
395.877455176724
21
140.547226637373
31
0.0
0
LINE
5
5bd
100
AcDbEntity
8
0-1
6
CONTINUOUS
62
4
100
AcDbLine
10
393.295348395537
20
134.440119760819
30
0.0
11
393.295348395537
21
139.840119856186
31
0.0
0
LINE
5
5be
100
AcDbEntity
8
0-1
6
CONTINUOUS
62
4
100
AcDbLine
10
392.670348395537
20
134.440119760819
30
0.0
11
392.670348395537
21
139.840119856186
31
0.0
0
LINE
5
5bf
100
AcDbEntity
8
0-1
6
CONTINUOUS
62
4
100
AcDbLine
10
392.045348395537
20
134.440119760819
30
0.0
11
392.045348395537
21
139.840119856186
31
0.0
0
LINE
5
5c0
100
AcDbEntity
8
0-1
6
CONTINUOUS
62
4
100
AcDbLine
10
391.420348395537
20
134.440119760819
30
0.0
11
391.420348395537
21
139.840119856186
31
0.0
0
LINE
5
5c1
100
AcDbEntity
8
0-1
6
CONTINUOUS
62
4
100
AcDbLine
10
390.795348395537
20
134.440119760819
30
0.0
11
390.795348395537
21
139.840119856186
31
0.0
0
LINE
5
5c2
100
AcDbEntity
8
0-1
6
CONTINUOUS
62
4
100
AcDbLine
10
397.720348347853
20
139.840119856186
30
0.0
11
397.720348347853
21
151.840119856186
31
0.0
0
LINE
5
5c3
100
AcDbEntity
8
0-1
6
CONTINUOUS
62
4
100
AcDbLine
10
392.620348443221
20
139.840119856186
30
0.0
11
392.620348443221
21
151.840119856186
31
0.0
0
LINE
5
5c4
100
AcDbEntity
8
0-1
6
CONTINUOUS
62
2
100
AcDbLine
10
400.170348395537
20
134.440119760819
30
0.0
11
400.170348395537
21
139.840119856186
31
0.0
0
LINE
5
5c5
100
AcDbEntity
8
0-1
6
CONTINUOUS
62
2
100
AcDbLine
10
400.170348395537
20
134.440119760819
30
0.0
11
399.570348490904
21
133.840119856186
31
0.0
0
LINE
5
5c6
100
AcDbEntity
8
0-1
6
CONTINUOUS
62
2
100
AcDbLine
10
390.770348300169
20
133.840119856186
30
0.0
11
399.570348490904
21
133.840119856186
31
0.0
0
LINE
5
5c7
100
AcDbEntity
8
0-1
6
CONTINUOUS
62
2
100
AcDbLine
10
390.170348395537
20
134.440119760819
30
0.0
11
390.170348395537
21
139.840119856186
31
0.0
0
LINE
5
5c8
100
AcDbEntity
8
0-1
6
CONTINUOUS
62
2
100
AcDbLine
10
390.770348300169
20
133.840119856186
30
0.0
11
390.170348395537
21
134.440119760819
31
0.0
0
LINE
5
5c9
100
AcDbEntity
8
0-1
6
CONTINUOUS
62
2
100
AcDbLine
10
400.170348395537
20
134.440119760819
30
0.0
11
390.170348395537
21
134.440119760819
31
0.0
0
LINE
5
5ca
100
AcDbEntity
8
0-1
6
CONTINUOUS
62
2
100
AcDbLine
10
398.170348395537
20
151.390120046921
30
0.0
11
398.170348395537
21
139.840119856186
31
0.0
0
LINE
5
5cb
100
AcDbEntity
8
0-1
6
CONTINUOUS
62
2
100
AcDbLine
10
398.170348395537
20
151.390120046921
30
0.0
11
397.720348347853
21
151.840119856186
31
0.0
0
LINE
5
5cc
100
AcDbEntity
8
0-1
6
CONTINUOUS
62
2
100
AcDbLine
10
392.620348443221
20
151.840119856186
30
0.0
11
397.720348347853
21
151.840119856186
31
0.0
0
LINE
5
5cd
100
AcDbEntity
8
0-1
6
CONTINUOUS
62
2
100
AcDbLine
10
392.170348395537
20
151.390120046921
30
0.0
11
392.170348395537
21
139.840119856186
31
0.0
0
LINE
5
5ce
100
AcDbEntity
8
0-1
6
CONTINUOUS
62
2
100
AcDbLine
10
392.620348443221
20
151.840119856186
30
0.0
11
392.170348395537
21
151.390120046921
31
0.0
0
LINE
5
5cf
100
AcDbEntity
8
0-1
6
CONTINUOUS
62
2
100
AcDbLine
10
398.170348395537
20
151.390120046921
30
0.0
11
392.170348395537
21
151.390120046921
31
0.0
0
LINE
5
5d0
100
AcDbEntity
8
0-1
6
CONTINUOUS
62
7
100
AcDbLine
10
390.330416633499
20
145.896541984812
30
0.0
11
390.187745929033
21
147.527275598934
31
0.0
0
LINE
5
5d1
100
AcDbEntity
8
0-1
6
CONTINUOUS
62
7
100
AcDbLine
10
389.191551230941
20
148.440119856186
30
0.0
11
388.870348395537
21
148.440119856186
31
0.0
0
LINE
5
5d2
100
AcDbEntity
8
0-1
6
CONTINUOUS
62
7
100
AcDbLine
10
388.387385482392
20
149.069529378737
30
0.0
11
388.574597839336
21
149.768215406656
31
0.0
0
LINE
5
5d3
100
AcDbEntity
8
0-1
6
CONTINUOUS
62
7
100
AcDbLine
10
388.807560752480
20
150.071818585997
30
0.0
11
391.174195972830
21
151.438196067539
31
0.0
0
LINE
5
5d4
100
AcDbEntity
8
0-1
6
CONTINUOUS
62
7
100
AcDbLine
10
392.674195972830
20
151.840119856186
30
0.0
11
397.666500818243
21
151.840119856186
31
0.0
0
LINE
5
5d5
100
AcDbEntity
8
0-1
6
CONTINUOUS
62
7
100
AcDbLine
10
399.166500818243
20
151.438196067539
30
0.0
11
401.533136038593
21
150.071818585997
31
0.0
0
LINE
5
5d6
100
AcDbEntity
8
0-1
6
CONTINUOUS
62
7
100
AcDbLine
10
401.766098951737
20
149.768215406656
30
0.0
11
401.953311308681
21
149.069529378737
31
0.0
0
LINE
5
5d7
100
AcDbEntity
8
0-1
6
CONTINUOUS
62
7
100
AcDbLine
10
401.470348395537
20
148.440119856186
30
0.0
11
401.149145560132
21
148.440119856186
31
0.0
0
LINE
5
5d8
100
AcDbEntity
8
0-1
6
CONTINUOUS
62
7
100
AcDbLine
10
400.152950862040
20
147.527275598934
30
0.0
11
400.010280157574
21
145.896541984812
31
0.0
0
LINE
5
5d9
100
AcDbEntity
8
0-1
6
CONTINUOUS
62
7
100
AcDbLine
10
399.512182808528
20
145.440119856186
30
0.0
11
390.828513982545
21
145.440119856186
31
0.0
0
ARC
5
5da
100
AcDbEntity
8
0-1
6
CONTINUOUS
62
7
100
AcDbCircle
10
399.512182808528
20
145.940119856186
30
0.0
40
0.500000000000
100
AcDbArc
50
270.000000000000
51
355.000000000000
0
ARC
5
5db
100
AcDbEntity
8
0-1
6
CONTINUOUS
62
7
100
AcDbCircle
10
401.149145560132
20
147.440119856186
30
0.0
40
1.000000000000
100
AcDbArc
50
90.000000000000
51
175.000000000000
0
ARC
5
5dc
100
AcDbEntity
8
0-1
6
CONTINUOUS
62
7
100
AcDbCircle
10
401.470348395537
20
148.940119856186
30
0.0
40
0.500000000000
100
AcDbArc
50
270.000000000000
51
318.592702342671
0
ARC
5
5dd
100
AcDbEntity
8
0-1
6
CONTINUOUS
62
7
100
AcDbCircle
10
401.470348395537
20
148.940119856186
30
0.0
40
0.500000000000
100
AcDbArc
50
318.592702342671
51
375.000000000000
0
ARC
5
5de
100
AcDbEntity
8
0-1
6
CONTINUOUS
62
7
100
AcDbCircle
10
401.283136038593
20
149.638805884105
30
0.0
40
0.500000000000
100
AcDbArc
50
15.000000000000
51
60.000000000000
0
ARC
5
5df
100
AcDbEntity
8
0-1
6
CONTINUOUS
62
7
100
AcDbCircle
10
397.666500818243
20
148.840119856186
30
0.0
40
3.000000000000
100
AcDbArc
50
60.000000000000
51
90.000000000000
0
ARC
5
5e0
100
AcDbEntity
8
0-1
6
CONTINUOUS
62
7
100
AcDbCircle
10
390.828513982545
20
145.940119856186
30
0.0
40
0.500000000000
100
AcDbArc
50
185.000000000000
51
270.000000000000
0
ARC
5
5e1
100
AcDbEntity
8
0-1
6
CONTINUOUS
62
7
100
AcDbCircle
10
389.191551230941
20
147.440119856186
30
0.0
40
1.000000000000
100
AcDbArc
50
5.000000000000
51
90.000000000000
0
ARC
5
5e2
100
AcDbEntity
8
0-1
6
CONTINUOUS
62
7
100
AcDbCircle
10
388.870348395537
20
148.940119856186
30
0.0
40
0.500000000000
100
AcDbArc
50
221.407297657329
51
270.000000000000
0
ARC
5
5e3
100
AcDbEntity
8
0-1
6
CONTINUOUS
62
7
100
AcDbCircle
10
388.870348395537
20
148.940119856186
30
0.0
40
0.500000000000
100
AcDbArc
50
165.000000000000
51
221.407297657329
0
ARC
5
5e4
100
AcDbEntity
8
0-1
6
CONTINUOUS
62
7
100
AcDbCircle
10
389.057560752480
20
149.638805884105
30
0.0
40
0.500000000000
100
AcDbArc
50
120.000000000000
51
165.000000000000
0
ARC
5
5e5
100
AcDbEntity
8
0-1
6
CONTINUOUS
62
7
100
AcDbCircle
10
392.674195972830
20
148.840119856186
30
0.0
40
3.000000000000
100
AcDbArc
50
90.000000000000
51
120.000000000000
0
LINE
5
5e6
100
AcDbEntity
8
0-0
6
CONTINUOUS
62
7
100
AcDbLine
10
476.670178905748
20
63.852955658731
30
0.0
11
476.670178905748
21
14.852955658731
31
0.0
0
LINE
5
5e7
100
AcDbEntity
8
0-0
6
CONTINUOUS
62
7
100
AcDbLine
10
481.670178905748
20
9.852955658731
30
0.0
11
563.670178905748
21
9.852955658731
31
0.0
0
LINE
5
5e8
100
AcDbEntity
8
0-0
6
CONTINUOUS
62
7
100
AcDbLine
10
568.670178905748
20
14.852955658731
30
0.0
11
568.670178905748
21
63.852955658731
31
0.0
0
LINE
5
5e9
100
AcDbEntity
8
0-0
6
CONTINUOUS
62
7
100
AcDbLine
10
563.670178905748
20
68.852955658731
30
0.0
11
481.670178905748
21
68.852955658731
31
0.0
0
CIRCLE
5
5ea
100
AcDbEntity
8
0-0
6
CONTINUOUS
62
7
100
AcDbCircle
10
492.670178905748
20
60.852955658731
30
0.0
40
3.050000000000
0
CIRCLE
5
5eb
100
AcDbEntity
8
0-0
6
CONTINUOUS
62
7
100
AcDbCircle
10
522.670178905748
20
60.852955658731
30
0.0
40
3.050000000000
0
CIRCLE
5
5ec
100
AcDbEntity
8
0-0
6
CONTINUOUS
62
7
100
AcDbCircle
10
552.670178905748
20
60.852955658731
30
0.0
40
3.050000000000
0
CIRCLE
5
5ed
100
AcDbEntity
8
0-0
6
CONTINUOUS
62
7
100
AcDbCircle
10
492.670178905748
20
25.352955658730
30
0.0
40
3.050000000000
0
CIRCLE
5
5ee
100
AcDbEntity
8
0-0
6
CONTINUOUS
62
7
100
AcDbCircle
10
522.670178905748
20
30.352955658731
30
0.0
40
3.050000000000
0
CIRCLE
5
5ef
100
AcDbEntity
8
0-0
6
CONTINUOUS
62
7
100
AcDbCircle
10
552.670178905748
20
25.352955658730
30
0.0
40
3.050000000000
0
CIRCLE
5
5f0
100
AcDbEntity
8
0-0
6
CONTINUOUS
62
7
100
AcDbCircle
10
522.670178905748
20
20.352955658730
30
0.0
40
3.050000000000
0
ARC
5
5f1
100
AcDbEntity
8
0-0
6
CONTINUOUS
62
7
100
AcDbCircle
10
481.670178905748
20
63.852955658731
30
0.0
40
5.000000000000
100
AcDbArc
50
90.000000000000
51
180.000000000000
0
ARC
5
5f2
100
AcDbEntity
8
0-0
6
CONTINUOUS
62
7
100
AcDbCircle
10
563.670178905748
20
63.852955658731
30
0.0
40
5.000000000000
100
AcDbArc
50
0.000000000000
51
90.000000000000
0
ARC
5
5f3
100
AcDbEntity
8
0-0
6
CONTINUOUS
62
7
100
AcDbCircle
10
563.670178905748
20
14.852955658731
30
0.0
40
5.000000000000
100
AcDbArc
50
270.000000000000
51
360.000000000000
0
ARC
5
5f4
100
AcDbEntity
8
0-0
6
CONTINUOUS
62
7
100
AcDbCircle
10
481.670178905748
20
14.852955658731
30
0.0
40
5.000000000000
100
AcDbArc
50
180.000000000000
51
270.000000000000
0
LINE
5
5f5
100
AcDbEntity
8
0-0
6
CONTINUOUS
62
7
100
AcDbLine
10
568.670178905748
20
107.894332629492
30
0.0
11
568.670178905748
21
105.894332629492
31
0.0
0
LINE
5
5f6
100
AcDbEntity
8
0-0
6
CONTINUOUS
62
7
100
AcDbLine
10
476.670178905748
20
107.894332629493
30
0.0
11
476.670178905748
21
105.894332629493
31
0.0
0
LINE
5
5f7
100
AcDbEntity
8
0-0
6
CONTINUOUS
62
7
100
AcDbLine
10
568.670178905748
20
105.894332629492
30
0.0
11
476.670178905748
21
105.894332629493
31
0.0
0
LINE
5
5f8
100
AcDbEntity
8
0-0
6
CONTINUOUS
62
7
100
AcDbLine
10
568.670178905748
20
107.894332629492
30
0.0
11
476.670178905748
21
107.894332629493
31
0.0
0
LINE
5
5f9
100
AcDbEntity
8
0-1
6
CENTER
62
4
100
AcDbLine
10
488.199791523479
20
60.852955658731
30
0.0
11
557.811687758015
21
60.852955658731
31
0.0
0
LINE
5
5fa
100
AcDbEntity
8
0-1
6
CENTER
62
4
100
AcDbLine
10
552.670178905748
20
64.986156243937
30
0.0
11
552.670178905748
21
20.577788129282
31
0.0
0
LINE
5
5fb
100
AcDbEntity
8
0-1
6
CENTER
62
4
100
AcDbLine
10
558.188505876015
20
25.352955658730
30
0.0
11
487.219887559817
21
25.352955658730
31
0.0
0
LINE
5
5fc
100
AcDbEntity
8
0-1
6
CENTER
62
4
100
AcDbLine
10
492.670178905748
20
20.184972898749
30
0.0
11
492.670178905748
21
64.986156243937
31
0.0
0
LINE
5
5fd
100
AcDbEntity
8
0-1
6
CENTER
62
4
100
AcDbLine
10
522.670178905748
20
64.986156243937
30
0.0
11
522.670178905748
21
57.192618024175
31
0.0
0
LINE
5
5fe
100
AcDbEntity
8
0-1
6
CENTER
62
4
100
AcDbLine
10
522.670178905748
20
47.008974816379
30
0.0
11
522.670178905748
21
15.471190132360
31
0.0
0
LINE
5
5ff
100
AcDbEntity
8
0-1
6
CENTER
62
4
100
AcDbLine
10
527.417979484306
20
20.352955658730
30
0.0
11
517.335721900640
21
20.352955658730
31
0.0
0
LINE
5
600
100
AcDbEntity
8
0-1
6
CENTER
62
4
100
AcDbLine
10
517.335721900640
20
30.352955658731
30
0.0
11
527.417979484306
21
30.352955658731
31
0.0
0
LINE
5
601
100
AcDbEntity
8
0-1
6
CENTER
62
4
100
AcDbLine
10
492.670178905737
20
110.632490963442
30
0.0
11
492.670178905737
21
102.002274000917
31
0.0
0
LINE
5
602
100
AcDbEntity
8
0-1
6
CENTER
62
4
100
AcDbLine
10
522.670178905737
20
110.632490963442
30
0.0
11
522.670178905737
21
102.002274000917
31
0.0
0
LINE
5
603
100
AcDbEntity
8
0-1
6
CENTER
62
4
100
AcDbLine
10
552.670178905737
20
110.632490963442
30
0.0
11
552.670178905737
21
102.002274000917
31
0.0
0
LINE
5
604
100
AcDbEntity
8
0-0
6
CONTINUOUS
62
7
100
AcDbLine
10
598.499619005748
20
9.852955658731
30
0.0
11
598.499619005748
21
68.852955658731
31
0.0
0
LINE
5
605
100
AcDbEntity
8
0-0
6
CONTINUOUS
62
7
100
AcDbLine
10
596.499619005748
20
9.852955658731
30
0.0
11
598.499619005748
21
9.852955658731
31
0.0
0
POLYLINE
5
606
100
AcDbEntity
8
0-0
6
CONTINUOUS
62
  7
100
AcDb2dPolyline
66
1
10
0.0
20
0.0
30
0.0
70
0
0
VERTEX
5
607
100
AcDbEntity
8
0-0
6
CONTINUOUS
62
  7
100
AcDbVertex
100
AcDb2dVertex
10
596.499619005748
20
9.852955658731
30
0.0
0
VERTEX
5
608
100
AcDbEntity
8
0-0
6
CONTINUOUS
62
  7
100
AcDbVertex
100
AcDb2dVertex
10
596.499619005748
20
68.852955658731
30
0.0
0
VERTEX
5
609
100
AcDbEntity
8
0-0
6
CONTINUOUS
62
  7
100
AcDbVertex
100
AcDb2dVertex
10
598.499619005748
20
68.852955658731
30
0.0
0
SEQEND
5
60a
100
AcDbEntity
8
0-0
0
LINE
5
60b
100
AcDbEntity
8
0-1
6
CENTER
62
4
100
AcDbLine
10
589.214991834916
20
60.852955658731
30
0.0
11
605.805507887543
21
60.852955658731
31
0.0
0
LINE
5
60c
100
AcDbEntity
8
0-0
6
CONTINUOUS
62
7
100
AcDbLine
10
593.499619005748
20
68.852955658731
30
0.0
11
596.499619005748
21
68.852955658731
31
0.0
0
LINE
5
60d
100
AcDbEntity
8
0-0
6
CONTINUOUS
62
7
100
AcDbLine
10
593.499619005748
20
52.852955658731
30
0.0
11
593.499619005748
21
68.852955658731
31
0.0
0
LINE
5
60e
100
AcDbEntity
8
0-0
6
CONTINUOUS
62
7
100
AcDbLine
10
593.499619005748
20
52.852955658731
30
0.0
11
596.499619005748
21
52.852955658731
31
0.0
0
LINE
5
60f
100
AcDbEntity
8
F-F_J_ADD
6
HIDDEN
62
253
100
AcDbLine
10
593.499619005748
20
60.852955658731
30
0.0
11
594.206725786935
21
61.560062439918
31
0.0
0
LINE
5
610
100
AcDbEntity
8
F-F_J_ADD
6
HIDDEN
62
253
100
AcDbLine
10
593.499619005748
20
60.852955658731
30
0.0
11
594.206725786935
21
60.145848877545
31
0.0
0
LINE
5
611
100
AcDbEntity
8
0-0
6
CONTINUOUS
62
4
100
AcDbLine
10
588.099618910381
20
62.727955658731
30
0.0
11
593.499619005748
21
62.727955658731
31
0.0
0
LINE
5
612
100
AcDbEntity
8
0-0
6
CONTINUOUS
62
4
100
AcDbLine
10
588.099618910381
20
63.352955658731
30
0.0
11
593.499619005748
21
63.352955658731
31
0.0
0
LINE
5
613
100
AcDbEntity
8
0-0
6
CONTINUOUS
62
4
100
AcDbLine
10
588.099618910381
20
63.977955658731
30
0.0
11
593.499619005748
21
63.977955658731
31
0.0
0
LINE
5
614
100
AcDbEntity
8
0-0
6
CONTINUOUS
62
4
100
AcDbLine
10
588.099618910381
20
64.602955658731
30
0.0
11
593.499619005748
21
64.602955658731
31
0.0
0
LINE
5
615
100
AcDbEntity
8
0-0
6
CONTINUOUS
62
4
100
AcDbLine
10
588.099618910381
20
65.227955658731
30
0.0
11
593.499619005748
21
65.227955658731
31
0.0
0
LINE
5
616
100
AcDbEntity
8
0-0
6
CONTINUOUS
62
4
100
AcDbLine
10
593.499619005748
20
58.302955706415
30
0.0
11
605.499619005748
21
58.302955706415
31
0.0
0
LINE
5
617
100
AcDbEntity
8
0-0
6
CONTINUOUS
62
4
100
AcDbLine
10
593.499619005748
20
63.402955611048
30
0.0
11
605.499619005748
21
63.402955611048
31
0.0
0
LINE
5
618
100
AcDbEntity
8
0-0
6
CONTINUOUS
62
2
100
AcDbLine
10
588.099618910381
20
55.852955658731
30
0.0
11
593.499619005748
21
55.852955658731
31
0.0
0
LINE
5
619
100
AcDbEntity
8
0-0
6
CONTINUOUS
62
2
100
AcDbLine
10
588.099618910381
20
55.852955658731
30
0.0
11
587.499619005748
21
56.452955563364
31
0.0
0
LINE
5
61a
100
AcDbEntity
8
0-0
6
CONTINUOUS
62
2
100
AcDbLine
10
587.499619005748
20
65.252955754099
30
0.0
11
587.499619005748
21
56.452955563364
31
0.0
0
LINE
5
61b
100
AcDbEntity
8
0-0
6
CONTINUOUS
62
2
100
AcDbLine
10
588.099618910381
20
65.852955658731
30
0.0
11
593.499619005748
21
65.852955658731
31
0.0
0
LINE
5
61c
100
AcDbEntity
8
0-0
6
CONTINUOUS
62
2
100
AcDbLine
10
587.499619005748
20
65.252955754099
30
0.0
11
588.099618910381
21
65.852955658731
31
0.0
0
LINE
5
61d
100
AcDbEntity
8
0-0
6
CONTINUOUS
62
2
100
AcDbLine
10
588.099618910381
20
55.852955658731
30
0.0
11
588.099618910381
21
65.852955658731
31
0.0
0
LINE
5
61e
100
AcDbEntity
8
0-0
6
CONTINUOUS
62
2
100
AcDbLine
10
605.049619196483
20
57.852955658731
30
0.0
11
593.499619005748
21
57.852955658731
31
0.0
0
LINE
5
61f
100
AcDbEntity
8
0-0
6
CONTINUOUS
62
2
100
AcDbLine
10
605.049619196483
20
57.852955658731
30
0.0
11
605.499619005748
21
58.302955706415
31
0.0
0
LINE
5
620
100
AcDbEntity
8
0-0
6
CONTINUOUS
62
2
100
AcDbLine
10
605.499619005748
20
63.402955611048
30
0.0
11
605.499619005748
21
58.302955706415
31
0.0
0
LINE
5
621
100
AcDbEntity
8
0-0
6
CONTINUOUS
62
2
100
AcDbLine
10
605.049619196483
20
63.852955658731
30
0.0
11
593.499619005748
21
63.852955658731
31
0.0
0
LINE
5
622
100
AcDbEntity
8
0-0
6
CONTINUOUS
62
2
100
AcDbLine
10
605.499619005748
20
63.402955611048
30
0.0
11
605.049619196483
21
63.852955658731
31
0.0
0
LINE
5
623
100
AcDbEntity
8
0-0
6
CONTINUOUS
62
2
100
AcDbLine
10
605.049619196483
20
57.852955658731
30
0.0
11
605.049619196483
21
63.852955658731
31
0.0
0
LINE
5
624
100
AcDbEntity
8
0-0
6
CONTINUOUS
62
7
100
AcDbLine
10
599.556041134375
20
65.692887420769
30
0.0
11
601.186774748496
21
65.835558125235
31
0.0
0
LINE
5
625
100
AcDbEntity
8
0-0
6
CONTINUOUS
62
7
100
AcDbLine
10
602.099619005749
20
66.831752823327
30
0.0
11
602.099619005749
21
67.152955658731
31
0.0
0
LINE
5
626
100
AcDbEntity
8
0-0
6
CONTINUOUS
62
7
100
AcDbLine
10
602.729028528300
20
67.635918571876
30
0.0
11
603.427714556218
21
67.448706214932
31
0.0
0
LINE
5
627
100
AcDbEntity
8
0-0
6
CONTINUOUS
62
7
100
AcDbLine
10
603.731317735559
20
67.215743301788
30
0.0
11
605.097695217102
21
64.849108081438
31
0.0
0
LINE
5
628
100
AcDbEntity
8
0-0
6
CONTINUOUS
62
7
100
AcDbLine
10
605.499619005749
20
63.349108081438
30
0.0
11
605.499619005749
21
58.356803236025
31
0.0
0
LINE
5
629
100
AcDbEntity
8
0-0
6
CONTINUOUS
62
7
100
AcDbLine
10
605.097695217102
20
56.856803236025
30
0.0
11
603.731317735559
21
54.490168015675
31
0.0
0
LINE
5
62a
100
AcDbEntity
8
0-0
6
CONTINUOUS
62
7
100
AcDbLine
10
603.427714556218
20
54.257205102531
30
0.0
11
602.729028528300
21
54.069992745587
31
0.0
0
LINE
5
62b
100
AcDbEntity
8
0-0
6
CONTINUOUS
62
7
100
AcDbLine
10
602.099619005749
20
54.552955658732
30
0.0
11
602.099619005749
21
54.874158494136
31
0.0
0
LINE
5
62c
100
AcDbEntity
8
0-0
6
CONTINUOUS
62
7
100
AcDbLine
10
601.186774748496
20
55.870353192228
30
0.0
11
599.556041134375
21
56.013023896694
31
0.0
0
LINE
5
62d
100
AcDbEntity
8
0-0
6
CONTINUOUS
62
7
100
AcDbLine
10
599.099619005749
20
56.511121245740
30
0.0
11
599.099619005749
21
65.194790071723
31
0.0
0
ARC
5
62e
100
AcDbEntity
8
0-0
6
CONTINUOUS
62
7
100
AcDbCircle
10
599.599619005749
20
56.511121245740
30
0.0
40
0.500000000000
100
AcDbArc
50
180.000000000000
51
265.000000000000
0
ARC
5
62f
100
AcDbEntity
8
0-0
6
CONTINUOUS
62
7
100
AcDbCircle
10
601.099619005749
20
54.874158494136
30
0.0
40
1.000000000000
100
AcDbArc
50
0.000000000000
51
85.000000000000
0
ARC
5
630
100
AcDbEntity
8
0-0
6
CONTINUOUS
62
7
100
AcDbCircle
10
602.599619005749
20
54.552955658732
30
0.0
40
0.500000000000
100
AcDbArc
50
180.000000000000
51
228.592702342671
0
ARC
5
631
100
AcDbEntity
8
0-0
6
CONTINUOUS
62
7
100
AcDbCircle
10
602.599619005749
20
54.552955658732
30
0.0
40
0.500000000000
100
AcDbArc
50
228.592702342671
51
285.000000000000
0
ARC
5
632
100
AcDbEntity
8
0-0
6
CONTINUOUS
62
7
100
AcDbCircle
10
603.298305033667
20
54.740168015675
30
0.0
40
0.500000000000
100
AcDbArc
50
285.000000000000
51
330.000000000000
0
ARC
5
633
100
AcDbEntity
8
0-0
6
CONTINUOUS
62
7
100
AcDbCircle
10
602.499619005749
20
58.356803236025
30
0.0
40
3.000000000000
100
AcDbArc
50
330.000000000000
51
360.000000000000
0
ARC
5
634
100
AcDbEntity
8
0-0
6
CONTINUOUS
62
7
100
AcDbCircle
10
599.599619005749
20
65.194790071723
30
0.0
40
0.500000000000
100
AcDbArc
50
95.000000000000
51
180.000000000000
0
ARC
5
635
100
AcDbEntity
8
0-0
6
CONTINUOUS
62
7
100
AcDbCircle
10
601.099619005749
20
66.831752823327
30
0.0
40
1.000000000000
100
AcDbArc
50
275.000000000000
51
360.000000000000
0
ARC
5
636
100
AcDbEntity
8
0-0
6
CONTINUOUS
62
7
100
AcDbCircle
10
602.599619005749
20
67.152955658731
30
0.0
40
0.500000000000
100
AcDbArc
50
131.407297657329
51
180.000000000000
0
ARC
5
637
100
AcDbEntity
8
0-0
6
CONTINUOUS
62
7
100
AcDbCircle
10
602.599619005749
20
67.152955658731
30
0.0
40
0.500000000000
100
AcDbArc
50
75.000000000000
51
131.407297657329
0
ARC
5
638
100
AcDbEntity
8
0-0
6
CONTINUOUS
62
7
100
AcDbCircle
10
603.298305033667
20
66.965743301788
30
0.0
40
0.500000000000
100
AcDbArc
50
30.000000000000
51
75.000000000000
0
ARC
5
639
100
AcDbEntity
8
0-0
6
CONTINUOUS
62
7
100
AcDbCircle
10
602.499619005749
20
63.349108081438
30
0.0
40
3.000000000000
100
AcDbArc
50
0.000000000000
51
30.000000000000
0
LINE
5
63a
100
AcDbEntity
8
0-0
6
CENTER2
62
4
100
AcDbLine
10
598.499619005748
20
60.852955658731
30
0.0
11
605.499619005749
21
60.852955658731
31
0.0
0
LINE
5
63b
100
AcDbEntity
8
0-1
6
CENTER
62
4
100
AcDbLine
10
593.951881018918
20
30.352955658731
30
0.0
11
600.209707249295
21
30.352955658731
31
0.0
0
LINE
5
63c
100
AcDbEntity
8
0-1
6
CENTER
62
4
100
AcDbLine
10
593.951881018918
20
25.352955658731
30
0.0
11
600.209707249295
21
25.352955658731
31
0.0
0
LINE
5
63d
100
AcDbEntity
8
0-1
6
CENTER
62
4
100
AcDbLine
10
593.951881018918
20
20.352955658731
30
0.0
11
600.209707249295
21
20.352955658731
31
0.0
0
LINE
5
63e
100
AcDbEntity
8
F-F_J_ADD
6
HIDDEN
62
253
100
AcDbLine
10
60.000000000000
20
200.000000000000
30
0.0
11
60.000000000000
21
0.000000000000
31
0.0
0
LINE
5
63f
100
AcDbEntity
8
F-F_J_ADD
6
HIDDEN
62
253
100
AcDbLine
10
130.000000000000
20
200.000000000000
30
0.0
11
130.000000000000
21
0.000000000000
31
0.0
0
LINE
5
640
100
AcDbEntity
8
F-F_J_ADD
6
HIDDEN
62
253
100
AcDbLine
10
220.000000000000
20
200.000000000000
30
0.0
11
220.000000000000
21
0.000000000000
31
0.0
0
LINE
5
641
100
AcDbEntity
8
F-F_J_ADD
6
HIDDEN
62
253
100
AcDbLine
10
320.000000000000
20
200.000000000000
30
0.0
11
320.000000000000
21
0.000000000000
31
0.0
0
LINE
5
642
100
AcDbEntity
8
F-F_J_ADD
6
HIDDEN
62
253
100
AcDbLine
10
524.015144328500
20
0.000000000000
30
0.0
11
0.000000000000
21
0.000000000000
31
0.0
0
LINE
5
643
100
AcDbEntity
8
0-0
6
CONTINUOUS
62
7
100
AcDbLine
10
470.000000000000
20
200.000000000000
30
0.0
11
470.000000000000
21
0.000000000000
31
0.0
0
TEXT
5
644
100
AcDbEntity
8
0-0
62
7
370
-3
100
AcDbText
10
472.210
20
2.114
30
0.0
40
3.618
1
GS44
41
0.399
50
0.000
100
AcDbText
0
TEXT
5
645
100
AcDbEntity
8
0-0
62
7
370
-3
100
AcDbText
10
-0.119
20
99.130
30
0.0
40
3.618
1
F44G
41
0.399
50
0.000
100
AcDbText
0
TEXT
5
646
100
AcDbEntity
8
0-0
62
7
370
-3
100
AcDbText
10
59.300
20
100.246
30
0.0
40
3.618
1
BE30
41
0.396
50
0.000
100
AcDbText
0
TEXT
5
647
100
AcDbEntity
8
0-0
62
7
370
-3
100
AcDbText
10
128.767
20
99.495
30
0.0
40
3.618
1
BE30E
41
0.392
50
0.000
100
AcDbText
0
TEXT
5
648
100
AcDbEntity
8
0-0
62
7
370
-3
100
AcDbText
10
219.774
20
98.860
30
0.0
40
3.618
1
GS41
41
0.438
50
0.000
100
AcDbText
0
LINE
5
649
100
AcDbEntity
8
F-F_J_ADD
6
HIDDEN
62
253
100
AcDbLine
10
524.015144328500
20
200.000000000000
30
0.0
11
0.000000000000
21
200.000000000000
31
0.0
0
LINE
5
64a
100
AcDbEntity
8
F-F_J_ADD
6
HIDDEN
62
253
100
AcDbLine
10
0.000000000000
20
0.000000000000
30
0.0
11
0.000000000000
21
200.000000000000
31
0.0
0
TEXT
5
64b
100
AcDbEntity
8
F-F_J_ADD
62
253
370
-3
100
AcDbText
10
594.620
20
-579.040
30
0.0
40
2.525
41
0.695
50
0.000
1
Printer_Orientation = 0
72
2
11
634.750
21
-576.000
31
0.0
100
AcDbText
73
3
0
TEXT
5
64c
100
AcDbEntity
8
F-F_J_ADD
62
253
370
-3
100
AcDbText
10
594.620
20
-579.040
30
0.0
40
2.525
41
0.676
50
0.000
1
Printer_PaperSize = 0
72
2
11
631.250
21
-576.000
31
0.0
100
AcDbText
73
3
0
TEXT
5
64d
100
AcDbEntity
8
F-F_J_ADD
62
253
370
-3
100
AcDbText
10
594.620
20
-579.040
30
0.0
40
2.525
41
0.656
50
0.000
1
Printer_D2dBMP = 0
72
2
11
626.000
21
-576.000
31
0.0
100
AcDbText
73
3
0
TEXT
5
64e
100
AcDbEntity
8
F-F_J_ADD
62
253
370
-3
100
AcDbText
10
594.620
20
-579.040
30
0.0
40
2.525
41
0.662
50
0.000
1
Printer_BmpZENTAI = 0
72
2
11
631.250
21
-576.000
31
0.0
100
AcDbText
73
3
0
TEXT
5
64f
100
AcDbEntity
8
F-F_J_ADD
62
253
370
-3
100
AcDbText
10
594.620
20
-579.040
30
0.0
40
2.525
41
0.691
50
0.000
1
View_Direct2d = 1
72
2
11
624.250
21
-576.000
31
0.0
100
AcDbText
73
3
0
TEXT
5
650
100
AcDbEntity
8
F-F_J_ADD
62
253
370
-3
100
AcDbText
10
594.620
20
-579.040
30
0.0
40
2.525
41
0.652
50
0.000
1
Draw_BmpTOUKA = 1
72
2
11
624.250
21
-576.000
31
0.0
100
AcDbText
73
3
0
ENDSEC
 0
SECTION
  2
OBJECTS
 0
DICTIONARY
  5
C
100
AcDbDictionary
  3
ACAD_GROUP
350
D
  3
ACAD_MLINESTYLE
350
E
 0
DICTIONARY
  5
D
102
{ACAD_REACTORS
102
}
100
AcDbDictionary
 0
DICTIONARY
  5
E
102
{ACAD_REACTORS
102
}
100
AcDbDictionary
  3
STANDARD
350
13
0
MLINESTYLE
  5
13
102
{ACAD_REACTORS
102
}
100
AcDbMlineStyle
  2
STANDARD
 70
    0
3

62
256
51
90.0
52
90.0
71
0
0
ACDBPLACEHOLDER
  5
14
102
{ACAD_REACTORS
102
}
0
ENDSEC
0
EOF
