0
SECTION
2
HEADER
9
$ACADVER
1
AC1015
9
$ACADMAINTVER
 70
6
9
$DWGCODEPAGE
3
ANSI_932
9
$EXTMIN
10
0.000
20
0.000
30
0.0
9
$EXTMAX
10
1189.000
20
841.000
30
0.0
9
$LIMMIN
10
0.000
20
0.000
9
$LIMMAX
10
1189.000
20
841.000
9
$DIMSCALE
40
1.000000
9
$LTSCALE
40
2.000
9
$PDMODE
70
0
9
$PDSIZE
40
40.0
9
$HANDSEED
5
6213a
9
$UNITMODE
70
0
9
$VISRETAIN
70
0
9
$PLINEGEN
70
0
9
$PSLTSCALE
70
1
9
$TREEDEPTH
70
3020
9
$CMLSTYLE
2
STANDARD
9
$CMLJUST
70
0
9
$CMLSCALE
40
1.0
9
$PROXYGRAPHICS
70
1
9
$MEASUREMENT
70
0
9
$CELWEIGHT
370
-1
9
$ENDCAPS
280
0
9
$JOINSTYLE
280
0
9
$LWDISPLAY
290
0
9
$INSUNITS
70
0
9
$HYPERLINKBASE
1

9
$STYLESHEET
1

9
$XEDIT
290
1
9
$CEPSNTYPE
380
0
9
$PSTYLEMODE
290
1
9
$FINGERPRINTGUID
2
{5F082321-0195-11D3-BDFB-0060B0CD5109}
9
$VERSIONGUID
2
{12943756-294D-11D3-98C2-0060B087942D}
9
$EXTNAMES
290
1
9
$PSVPSCALE
40
0.0
9
$OLESTARTUP
290
0
0
ENDSEC
0
SECTION
  2
CLASSES
0
ENDSEC
0
SECTION
2
TABLES
0
TABLE
2
VPORT
5
190
100
AcDbSymbolTable
70
2
0
VPORT
5
191
100
AcDbSymbolTableRecord
100
AcDbViewportTableRecord
2
*ACTIVE
70
0
10
0.0
20
0.0
11
1.0
21
1.0
12
594.500
22
420.500
13
0.0
23
0.0
14
1.0
24
1.0
15
0.0
25
0.0
16
0.0
26
0.0
36
1.0
17
0.0
27
0.0
37
0.0
40
861.594
41
2.0
42
50.0
43
0.0
44
0.0
50
0.0
51
0.0
71
0
72
1000
73
1
74
1
75
0
76
0
77
0
78
0
0
ENDTAB
0
TABLE
2
LTYPE
5
1f4
100
AcDbSymbolTable
70
9
0
LTYPE
5
1f5
100
AcDbSymbolTableRecord
100
AcDbLinetypeTableRecord
2
BYBLOCK
70
 64
3

72
 65
73
  0
40
0.0
0
LTYPE
5
1f6
100
AcDbSymbolTableRecord
100
AcDbLinetypeTableRecord
2
BYLAYER
70
 64
3

72
 65
73
  0
40
0.0
0
LTYPE
5
1f7
100
AcDbSymbolTableRecord
100
AcDbLinetypeTableRecord
2
CONTINUOUS
70
64
3
SolidLine
72
65
73
0
40
0.0
0
LTYPE
5
1f8
100
AcDbSymbolTableRecord
100
AcDbLinetypeTableRecord
2
DOT
70
64
3
--  --  --  --  --  --  --  --     
72
65
73
2
40
3.000
49
1.000
74
0
49
-2.000
74
0
0
LTYPE
5
1f9
100
AcDbSymbolTableRecord
100
AcDbLinetypeTableRecord
2
DASHED
70
64
3
----    ----    ----    ----    
72
65
73
2
40
5.000
49
2.000
74
0
49
-3.000
74
0
0
LTYPE
5
1fa
100
AcDbSymbolTableRecord
100
AcDbLinetypeTableRecord
2
DASHED2
70
64
3
------  ------  ------  ------ 
72
65
73
2
40
10.000
49
4.000
74
0
49
-6.000
74
0
0
LTYPE
5
1fb
100
AcDbSymbolTableRecord
100
AcDbLinetypeTableRecord
2
CENTER
70
64
3
----- - ----- - ----- - ----- - 
72
65
73
4
40
10.000
49
6.000
74
0
49
-3.000
74
0
49
1.000
74
0
49
-3.000
74
0
0
LTYPE
5
1fc
100
AcDbSymbolTableRecord
100
AcDbLinetypeTableRecord
2
CENTER2
70
64
3
----------  --  ----------  -- 
72
65
73
4
40
17.000
49
12.000
74
0
49
-5.000
74
0
49
2.000
74
0
49
-5.000
74
0
0
LTYPE
5
1fd
100
AcDbSymbolTableRecord
100
AcDbLinetypeTableRecord
2
PHANTOM
70
64
3
--- - - --- - - --- - - --- - -
72
65
73
6
40
13.000
49
5.000
74
0
49
-3.000
74
0
49
1.000
74
0
49
-3.000
74
0
49
1.000
74
0
49
-3.000
74
0
0
LTYPE
5
1fe
100
AcDbSymbolTableRecord
100
AcDbLinetypeTableRecord
2
PHANTOM2
70
64
3
--------  -  -  --------  -  -
72
65
73
6
40
20.000
49
6.000
74
0
49
-5.000
74
0
49
2.000
74
0
49
-5.000
74
0
49
2.000
74
0
49
-5.000
74
0
0
LTYPE
5
1ff
100
AcDbSymbolTableRecord
100
AcDbLinetypeTableRecord
2
HIDDEN
70
64
3
-   -   -   -   -   -   -   -   
72
65
73
2
40
3.000
49
0.500
74
0
49
-2.500
74
0
0
ENDTAB
0
TABLE
2
STYLE
5
200
100
AcDbSymbolTable
70
1
0
STYLE
5
201
100
AcDbSymbolTableRecord
100
AcDbTextStyleTableRecord
2
STANDARD
70
0
40
0.0
41
1.0
50
0.0
71
0
42
0.0
3
txt.shx
4
extfont.shx
0
STYLE
5
202
100
AcDbSymbolTableRecord
100
AcDbTextStyleTableRecord
2
TATEGAKI
70
4
40
0.0
41
1.0
50
0.0
71
0
42
0.0
3
txt.shx
4
extfont.shx
0
STYLE
5
203
100
AcDbSymbolTableRecord
100
AcDbTextStyleTableRecord
2
DIM
70
0
40
0.0
41
0.75
50
0.0
71
0
42
0.0
3
txt.shx
4
extfont.shx
0
STYLE
5
204
100
AcDbSymbolTableRecord
100
AcDbTextStyleTableRecord
2
_Gothic_
70
0
40
1.0
41
1.0
50
0.0
71
0
42
10.0
3

4

1001
ACAD
1000
MS Gothic
1071
32817
0
STYLE
5
205
100
AcDbSymbolTableRecord
100
AcDbTextStyleTableRecord
2
_TateGothic_
70
4
40
0.0
41
1.0
50
0.0
71
0
42
0.0
3
@MS Gothic
4

0
ENDTAB
0
TABLE
2
VIEW
5
206
100
AcDbSymbolTable
70
0
0
ENDTAB
0
TABLE
2
UCS
5
207
100
AcDbSymbolTable
70
0
0
ENDTAB
0
TABLE
2
APPID
5
208
100
AcDbSymbolTable
70
1
0
APPID
5
209
100
AcDbSymbolTableRecord
100
AcDbRegAppTableRecord
2
ACAD
70
0
0
ENDTAB
0
TABLE
2
DIMSTYLE
5
403
330
0
100
AcDbSymbolTable
70
1
100
AcDbDimStyleTable
71
0
0
DIMSTYLE
105
404
330
402
100
AcDbSymbolTableRecord
100
AcDbDimStyleTableRecord
2
JAC_DIM
70
0
41
2.000
42
0.000
44
0.0
73
0
74
0
77
1
78
8
79
2
140
0.000
170
0
171
2
172
0
173
0
174
0
175
0
176
0
177
0
178
0
270
2
271
0
272
0
273
2
274
2
340
201
275
0
280
0
281
0
282
0
283
0
284
0
285
0
286
0
287
3
288
0
0
ENDTAB
0
TABLE
2
BLOCK_RECORD
5
405
100
AcDbSymbolTable
70
0
0
BLOCK_RECORD
5
406
100
AcDbSymbolTableRecord
100
AcDbBlockTableRecord
2
*MODEL_SPACE
0
BLOCK_RECORD
5
407
100
AcDbSymbolTableRecord
100
AcDbBlockTableRecord
2
*PAPER_SPACE
0
BLOCK_RECORD
5
408
100
AcDbSymbolTableRecord
100
AcDbBlockTableRecord
2
_JACCONVERT_
0
ENDTAB
0
TABLE
2
LAYER
5
409
100
AcDbSymbolTable
70
10
0
LAYER
5
40a
100
AcDbSymbolTableRecord
100
AcDbLayerTableRecord
2
0
70
0
62
7
6
CONTINUOUS
370
-3
390
14
0
LAYER
5
40b
100
AcDbSymbolTableRecord
100
AcDbLayerTableRecord
2
0-0
70
0
62
7
6
CONTINUOUS
370
-3
390
14
0
LAYER
5
40c
100
AcDbSymbolTableRecord
100
AcDbLayerTableRecord
2
0-1
70
0
62
7
6
CONTINUOUS
370
-3
390
14
0
LAYER
5
40d
100
AcDbSymbolTableRecord
100
AcDbLayerTableRecord
2
0-2
70
0
62
7
6
CONTINUOUS
370
-3
390
14
0
LAYER
5
40e
100
AcDbSymbolTableRecord
100
AcDbLayerTableRecord
2
0-3
70
0
62
7
6
CONTINUOUS
370
-3
390
14
0
LAYER
5
40f
100
AcDbSymbolTableRecord
100
AcDbLayerTableRecord
2
0-8
70
0
62
7
6
CONTINUOUS
370
-3
390
14
0
LAYER
5
410
100
AcDbSymbolTableRecord
100
AcDbLayerTableRecord
2
0-F
70
0
62
7
6
CONTINUOUS
370
-3
390
14
0
LAYER
5
411
100
AcDbSymbolTableRecord
100
AcDbLayerTableRecord
2
F-F_J_ADD
70
0
62
-7
6
CONTINUOUS
290
0
370
-3
390
14
0
ENDTAB
0
ENDSEC
0
SECTION
2
BLOCKS
0
BLOCK
5
412
100
AcDbEntity
67
1
8
0
100
AcDbBlockBegin
2
*MODEL_SPACE
70
0
10
0.0
20
0.0
30
0.0
3
*MODEL_SPACE
1

0
ENDBLK
5
413
100
AcDbEntity
8
0
100
AcDbBlockEnd
0
BLOCK
5
414
100
AcDbEntity
67
1
8
0
100
AcDbBlockBegin
2
*PAPER_SPACE
70
0
10
0.0
20
0.0
30
0.0
3
*PAPER_SPACE
1

0
ENDBLK
5
415
100
AcDbEntity
67
1
8
0
100
AcDbBlockEnd
0
BLOCK
5
416
100
AcDbEntity
8
0
100
AcDbBlockBegin
2
_JACCONVERT_
70
2
10
0.0
20
0.0
30
0.0
3
_JACCONVERT_
1
_JACCONVERT_
0
ATTDEF
5
417
100
AcDbEntity
8
0
62
0
100
AcDbText
10
0.0
20
0.0
30
0.0
40
1.0
1
User:UnSettingUp
100
AcDbAttributeDefinition
3

2
USER
70
8
0
ATTDEF
5
418
100
AcDbEntity
8
0
62
0
100
AcDbText
10
0.0
20
2.0
30
0.0
40
1.0
1
Date:23/07/14 16:41
100
AcDbAttributeDefinition
3

2
REVDATE
70
8
0
ATTDEF
5
419
100
AcDbEntity
8
0
62
0
100
AcDbText
10
0.0
20
4.0
30
0.0
40
1.0
1
File:110_LECO25_panel.dxf
100
AcDbAttributeDefinition
3

2
FNAME
70
8
0
ATTDEF
5
41a
100
AcDbEntity
8
0
62
0
100
AcDbText
10
0.0
20
6.0
30
0.0
40
1.0
1
JacConvert Version3.11 copyright (c) 2001-2016 K.Nakahara
100
AcDbAttributeDefinition
3

2
VER
70
8
0
ENDBLK
5
41b
100
AcDbEntity
67
1
8
0
100
AcDbBlockEnd
0
ENDSEC
0
SECTION
2
ENTITIES
0
LINE
5
41c
100
AcDbEntity
8
F-F_J_ADD
6
HIDDEN
62
253
100
AcDbLine
10
250.000000000000
20
363.850457379049
30
0.0
11
250.000000000000
21
0.000000000000
31
0.0
0
TEXT
5
41d
100
AcDbEntity
8
0-0
62
7
370
-3
100
AcDbText
10
243.760
20
67.407
30
0.0
40
4.208
1
PRN_M4
41
0.520
50
0.000
100
AcDbText
0
TEXT
5
41e
100
AcDbEntity
8
0-0
62
7
370
-3
100
AcDbText
10
327.598
20
67.588
30
0.0
40
4.208
1
PRN_M6
41
0.513
50
0.000
100
AcDbText
0
MTEXT
5
41f
100
AcDbEntity
8
0-0
62
7
370
-3
100
AcDbMText
10
9.072
20
185.536
30
0.0
40
3.417
41
0.000
71
7
72
1
1
\W0.723;{\W0.521;t1.5}用
7
STANDARD
11
1.00000
21
0.00000
31
0.0
0
MTEXT
5
420
100
AcDbEntity
8
0-0
62
7
370
-3
100
AcDbMText
10
66.552
20
185.536
30
0.0
40
3.417
41
0.000
71
7
72
1
1
\W0.723;{\W0.521;t3}用
7
STANDARD
11
1.00000
21
0.00000
31
0.0
0
MTEXT
5
421
100
AcDbEntity
8
0-0
62
7
370
-3
100
AcDbMText
10
121.884
20
185.536
30
0.0
40
3.417
41
0.000
71
7
72
1
1
\W0.723;{\W0.521;t5}用
7
STANDARD
11
1.00000
21
0.00000
31
0.0
0
MTEXT
5
422
100
AcDbEntity
8
0-0
62
7
370
-3
100
AcDbMText
10
10.340
20
290.880
30
0.0
40
3.417
41
0.000
71
7
72
1
1
\W0.723;{\W0.521;t1.5}用
7
STANDARD
11
1.00000
21
0.00000
31
0.0
0
MTEXT
5
423
100
AcDbEntity
8
0-0
62
7
370
-3
100
AcDbMText
10
67.819
20
290.880
30
0.0
40
3.417
41
0.000
71
7
72
1
1
\W0.723;{\W0.521;t3}用
7
STANDARD
11
1.00000
21
0.00000
31
0.0
0
MTEXT
5
424
100
AcDbEntity
8
0-0
62
7
370
-3
100
AcDbMText
10
123.152
20
290.880
30
0.0
40
3.417
41
0.000
71
7
72
1
1
\W0.723;{\W0.521;t5}用
7
STANDARD
11
1.00000
21
0.00000
31
0.0
0
LINE
5
425
100
AcDbEntity
8
0-0
6
CONTINUOUS
62
4
100
AcDbLine
10
379.890458504460
20
47.000000000000
30
0.0
11
379.890458504460
21
53.000000000000
31
0.0
0
LINE
5
426
100
AcDbEntity
8
0-0
6
CONTINUOUS
62
4
100
AcDbLine
10
292.190219907599
20
50.000000000000
30
0.0
11
292.190219907599
21
48.000000000000
31
0.0
0
LINE
5
427
100
AcDbEntity
8
0-0
6
CONTINUOUS
62
4
100
AcDbLine
10
292.190219907599
20
50.000000000000
30
0.0
11
292.190219907599
21
52.000000000000
31
0.0
0
LINE
5
428
100
AcDbEntity
8
0-1
6
CENTER
62
4
100
AcDbLine
10
334.200238596861
20
60.072740882409
30
0.0
11
334.200238596861
21
40.648944690777
31
0.0
0
LINE
5
429
100
AcDbEntity
8
0-1
6
CENTER
62
4
100
AcDbLine
10
344.809013825536
20
50.000000000000
30
0.0
11
323.898964099452
21
50.000000000000
31
0.0
0
LINE
5
42a
100
AcDbEntity
8
0-1
6
CENTER
62
4
100
AcDbLine
10
260.608775228675
20
50.000000000000
30
0.0
11
239.698725502591
21
50.000000000000
31
0.0
0
LINE
5
42b
100
AcDbEntity
8
0-1
6
CENTER
62
4
100
AcDbLine
10
250.000000000000
20
58.330236738569
30
0.0
11
250.000000000000
21
40.648944690777
31
0.0
0
LINE
5
42c
100
AcDbEntity
8
0-1
6
CENTER
62
4
100
AcDbLine
10
359.890458504460
20
50.000000000000
30
0.0
11
380.390458504460
21
50.000000000000
31
0.0
0
LINE
5
42d
100
AcDbEntity
8
0-1
6
CONTINUOUS
62
4
100
AcDbLine
10
368.390458504460
20
47.500000000000
30
0.0
11
380.390458504460
21
47.500000000000
31
0.0
0
LINE
5
42e
100
AcDbEntity
8
0-1
6
CONTINUOUS
62
4
100
AcDbLine
10
380.390458504460
20
52.500000000000
30
0.0
11
368.390458504460
21
52.500000000000
31
0.0
0
LINE
5
42f
100
AcDbEntity
8
0-1
6
CENTER
62
4
100
AcDbLine
10
274.811814741489
20
50.000000000000
30
0.0
11
294.018660584787
21
50.000000000000
31
0.0
0
LINE
5
430
100
AcDbEntity
8
0-1
6
CONTINUOUS
62
4
100
AcDbLine
10
292.690219907599
20
48.500000000000
30
0.0
11
282.690219907599
21
48.500000000000
31
0.0
0
LINE
5
431
100
AcDbEntity
8
0-1
6
CONTINUOUS
62
4
100
AcDbLine
10
292.690219907599
20
51.500000000000
30
0.0
11
282.690219907599
21
51.500000000000
31
0.0
0
CIRCLE
5
432
100
AcDbEntity
8
0-0
6
CONTINUOUS
62
7
100
AcDbCircle
10
334.200238596861
20
50.000000000000
30
0.0
40
8.000000000000
0
CIRCLE
5
433
100
AcDbEntity
8
0-0
6
CONTINUOUS
62
7
100
AcDbCircle
10
250.000000000000
20
50.000000000000
30
0.0
40
7.000000000964
0
CIRCLE
5
434
100
AcDbEntity
8
0-0
6
CONTINUOUS
62
7
100
AcDbCircle
10
250.000000000000
20
50.000000000000
30
0.0
40
6.500000000964
0
CIRCLE
5
435
100
AcDbEntity
8
0-0
6
CONTINUOUS
62
7
100
AcDbCircle
10
334.200238596861
20
50.000000000000
30
0.0
40
8.500000000000
0
ARC
5
436
100
AcDbEntity
8
0-0
6
CONTINUOUS
62
7
100
AcDbCircle
10
396.515458504460
20
50.000000000000
30
0.0
40
36.625000000000
100
AcDbArc
50
166.580326384486
51
193.419673615514
0
LINE
5
437
100
AcDbEntity
8
0-0
6
CONTINUOUS
62
7
100
AcDbLine
10
379.890458504460
20
47.000000000000
30
0.0
11
368.390458504460
21
47.000000000000
31
0.0
0
LINE
5
438
100
AcDbEntity
8
0-0
6
CONTINUOUS
62
7
100
AcDbLine
10
380.390458504460
20
47.500000000000
30
0.0
11
379.890458504460
21
47.000000000000
31
0.0
0
LINE
5
439
100
AcDbEntity
8
0-0
6
CONTINUOUS
62
7
100
AcDbLine
10
380.390458504460
20
52.500000000000
30
0.0
11
380.390458504460
21
47.500000000000
31
0.0
0
LINE
5
43a
100
AcDbEntity
8
0-0
6
CONTINUOUS
62
7
100
AcDbLine
10
379.890458504460
20
53.000000000000
30
0.0
11
380.390458504460
21
52.500000000000
31
0.0
0
LINE
5
43b
100
AcDbEntity
8
0-0
6
CONTINUOUS
62
7
100
AcDbLine
10
368.390458504460
20
53.000000000000
30
0.0
11
379.890458504460
21
53.000000000000
31
0.0
0
LINE
5
43c
100
AcDbEntity
8
0-0
6
CONTINUOUS
62
7
100
AcDbLine
10
360.890458504460
20
55.000000000000
30
0.0
11
366.890458504460
21
55.000000000000
31
0.0
0
LINE
5
43d
100
AcDbEntity
8
0-0
6
CONTINUOUS
62
7
100
AcDbLine
10
366.890458504460
20
54.000000000000
30
0.0
11
360.890458504460
21
54.000000000000
31
0.0
0
LINE
5
43e
100
AcDbEntity
8
0-0
6
CONTINUOUS
62
7
100
AcDbLine
10
360.890458504460
20
53.000000000000
30
0.0
11
366.890458504460
21
53.000000000000
31
0.0
0
LINE
5
43f
100
AcDbEntity
8
0-0
6
CONTINUOUS
62
7
100
AcDbLine
10
366.890458504460
20
52.000000000000
30
0.0
11
360.890458504460
21
52.000000000000
31
0.0
0
LINE
5
440
100
AcDbEntity
8
0-0
6
CONTINUOUS
62
7
100
AcDbLine
10
360.890458504460
20
51.000000000000
30
0.0
11
366.890458504460
21
51.000000000000
31
0.0
0
LINE
5
441
100
AcDbEntity
8
0-0
6
CONTINUOUS
62
7
100
AcDbLine
10
366.890458504460
20
50.000000000000
30
0.0
11
360.890458504460
21
50.000000000000
31
0.0
0
LINE
5
442
100
AcDbEntity
8
0-0
6
CONTINUOUS
62
7
100
AcDbLine
10
360.890458504460
20
49.000000000000
30
0.0
11
366.890458504460
21
49.000000000000
31
0.0
0
LINE
5
443
100
AcDbEntity
8
0-0
6
CONTINUOUS
62
7
100
AcDbLine
10
366.890458504460
20
48.000000000000
30
0.0
11
360.890458504460
21
48.000000000000
31
0.0
0
LINE
5
444
100
AcDbEntity
8
0-0
6
CONTINUOUS
62
7
100
AcDbLine
10
360.890458504460
20
47.000000000000
30
0.0
11
366.890458504460
21
47.000000000000
31
0.0
0
LINE
5
445
100
AcDbEntity
8
0-0
6
CONTINUOUS
62
7
100
AcDbLine
10
366.890458504460
20
46.000000000000
30
0.0
11
360.890458504460
21
46.000000000000
31
0.0
0
LINE
5
446
100
AcDbEntity
8
0-0
6
CONTINUOUS
62
7
100
AcDbLine
10
360.890458504460
20
45.000000000000
30
0.0
11
366.890458504460
21
45.000000000000
31
0.0
0
LINE
5
447
100
AcDbEntity
8
0-0
6
CONTINUOUS
62
7
100
AcDbLine
10
366.890458504460
20
44.200000000000
30
0.0
11
360.890458504460
21
44.200000000000
31
0.0
0
LINE
5
448
100
AcDbEntity
8
0-0
6
CONTINUOUS
62
7
100
AcDbLine
10
360.890458504460
20
41.900000000000
30
0.0
11
366.890458504460
21
41.900000000000
31
0.0
0
LINE
5
449
100
AcDbEntity
8
0-0
6
CONTINUOUS
62
7
100
AcDbLine
10
366.890458504460
20
42.400000000000
30
0.0
11
360.890458504460
21
42.400000000000
31
0.0
0
LINE
5
44a
100
AcDbEntity
8
0-0
6
CONTINUOUS
62
7
100
AcDbLine
10
360.890458504460
20
42.900000000000
30
0.0
11
366.890458504460
21
42.900000000000
31
0.0
0
LINE
5
44b
100
AcDbEntity
8
0-0
6
CONTINUOUS
62
7
100
AcDbLine
10
366.890458504460
20
43.500000000000
30
0.0
11
360.890458504460
21
43.500000000000
31
0.0
0
LINE
5
44c
100
AcDbEntity
8
0-0
6
CONTINUOUS
62
7
100
AcDbLine
10
368.390458504460
20
44.000000000000
30
0.0
11
366.890458504460
21
43.750000000000
31
0.0
0
LINE
5
44d
100
AcDbEntity
8
0-0
6
CONTINUOUS
62
7
100
AcDbLine
10
368.390458504460
20
56.000000000000
30
0.0
11
368.390458504460
21
44.000000000000
31
0.0
0
LINE
5
44e
100
AcDbEntity
8
0-0
6
CONTINUOUS
62
7
100
AcDbLine
10
366.890458504460
20
56.250000000000
30
0.0
11
368.390458504460
21
56.000000000000
31
0.0
0
LINE
5
44f
100
AcDbEntity
8
0-0
6
CONTINUOUS
62
7
100
AcDbLine
10
360.890458504460
20
55.800000000000
30
0.0
11
366.890458504460
21
55.800000000000
31
0.0
0
LINE
5
450
100
AcDbEntity
8
0-0
6
CONTINUOUS
62
7
100
AcDbLine
10
366.890458504460
20
56.500000000000
30
0.0
11
360.890458504460
21
56.500000000000
31
0.0
0
LINE
5
451
100
AcDbEntity
8
0-0
6
CONTINUOUS
62
7
100
AcDbLine
10
360.890458504460
20
57.100000000000
30
0.0
11
366.890458504460
21
57.100000000000
31
0.0
0
LINE
5
452
100
AcDbEntity
8
0-0
6
CONTINUOUS
62
7
100
AcDbLine
10
366.890458504460
20
57.600000000000
30
0.0
11
360.890458504460
21
57.600000000000
31
0.0
0
LINE
5
453
100
AcDbEntity
8
0-0
6
CONTINUOUS
62
7
100
AcDbLine
10
360.890458504460
20
58.100000000000
30
0.0
11
366.890458504460
21
58.100000000000
31
0.0
0
LINE
5
454
100
AcDbEntity
8
0-0
6
CONTINUOUS
62
7
100
AcDbLine
10
366.890458504460
20
58.500000000000
30
0.0
11
360.890458504460
21
58.500000000000
31
0.0
0
LINE
5
455
100
AcDbEntity
8
0-0
6
CONTINUOUS
62
7
100
AcDbLine
10
366.890458504460
20
41.500000000000
30
0.0
11
366.890458504460
21
58.500000000000
31
0.0
0
LINE
5
456
100
AcDbEntity
8
0-0
6
CONTINUOUS
62
7
100
AcDbLine
10
360.890458504460
20
41.500000000000
30
0.0
11
366.890458504460
21
41.500000000000
31
0.0
0
LINE
5
457
100
AcDbEntity
8
0-0
6
CONTINUOUS
62
7
100
AcDbLine
10
360.890458504460
20
58.500000000000
30
0.0
11
360.890458504460
21
41.500000000000
31
0.0
0
ARC
5
458
100
AcDbEntity
8
0-8
6
CONTINUOUS
62
7
100
AcDbCircle
10
297.315219913868
20
50.000000000000
30
0.0
40
21.625000006269
100
AcDbArc
50
180.000000000000
51
197.492324522555
0
LINE
5
459
100
AcDbEntity
8
0-0
6
CONTINUOUS
62
7
100
AcDbLine
10
276.690219907599
20
43.500000000000
30
0.0
11
276.690219907599
21
50.000000000000
31
0.0
0
LINE
5
45a
100
AcDbEntity
8
0-0
6
CONTINUOUS
62
7
100
AcDbLine
10
276.690219907599
20
47.000000000000
30
0.0
11
281.190219907599
21
47.000000000000
31
0.0
0
LINE
5
45b
100
AcDbEntity
8
0-0
6
CONTINUOUS
62
7
100
AcDbLine
10
281.190219907599
20
48.000000000000
30
0.0
11
276.690219907599
21
48.000000000000
31
0.0
0
LINE
5
45c
100
AcDbEntity
8
0-0
6
CONTINUOUS
62
7
100
AcDbLine
10
276.690219907599
20
49.000000000000
30
0.0
11
281.190219907599
21
49.000000000000
31
0.0
0
LINE
5
45d
100
AcDbEntity
8
0-0
6
CONTINUOUS
62
7
100
AcDbLine
10
276.690219907599
20
46.200000000000
30
0.0
11
281.190219907599
21
46.200000000000
31
0.0
0
LINE
5
45e
100
AcDbEntity
8
0-0
6
CONTINUOUS
62
7
100
AcDbLine
10
281.190219907599
20
45.500000000000
30
0.0
11
276.690219907599
21
45.500000000000
31
0.0
0
LINE
5
45f
100
AcDbEntity
8
0-0
6
CONTINUOUS
62
7
100
AcDbLine
10
276.690219907599
20
44.900000000000
30
0.0
11
281.190219907599
21
44.900000000000
31
0.0
0
LINE
5
460
100
AcDbEntity
8
0-0
6
CONTINUOUS
62
7
100
AcDbLine
10
281.190219907599
20
44.400000000000
30
0.0
11
276.690219907599
21
44.400000000000
31
0.0
0
LINE
5
461
100
AcDbEntity
8
0-0
6
CONTINUOUS
62
7
100
AcDbLine
10
276.690219907599
20
43.900000000000
30
0.0
11
281.190219907599
21
43.900000000000
31
0.0
0
LINE
5
462
100
AcDbEntity
8
0-0
6
CONTINUOUS
62
7
100
AcDbLine
10
281.190219907599
20
43.500000000000
30
0.0
11
276.690219907599
21
43.500000000000
31
0.0
0
LINE
5
463
100
AcDbEntity
8
0-0
6
CONTINUOUS
62
7
100
AcDbLine
10
281.190219907599
20
50.000000000000
30
0.0
11
276.690219907599
21
50.000000000000
31
0.0
0
LINE
5
464
100
AcDbEntity
8
0-0
6
CONTINUOUS
62
7
100
AcDbLine
10
292.690219907599
20
48.500000000000
30
0.0
11
292.690219907599
21
50.000000000000
31
0.0
0
LINE
5
465
100
AcDbEntity
8
0-0
6
CONTINUOUS
62
7
100
AcDbLine
10
292.190219907599
20
48.000000000000
30
0.0
11
292.690219907599
21
48.500000000000
31
0.0
0
LINE
5
466
100
AcDbEntity
8
0-0
6
CONTINUOUS
62
7
100
AcDbLine
10
282.690219907599
20
48.000000000000
30
0.0
11
292.190219907599
21
48.000000000000
31
0.0
0
LINE
5
467
100
AcDbEntity
8
0-0
6
CONTINUOUS
62
7
100
AcDbLine
10
281.190219907599
20
50.000000000000
30
0.0
11
281.190219907599
21
43.500000000000
31
0.0
0
LINE
5
468
100
AcDbEntity
8
0-0
6
CONTINUOUS
62
7
100
AcDbLine
10
282.690219907599
20
44.850000000000
30
0.0
11
282.690219907599
21
50.000000000000
31
0.0
0
LINE
5
469
100
AcDbEntity
8
0-0
6
CONTINUOUS
62
7
100
AcDbLine
10
281.190219907599
20
44.600000000000
30
0.0
11
282.690219907599
21
44.850000000000
31
0.0
0
ARC
5
46a
100
AcDbEntity
8
0-8
6
CONTINUOUS
62
7
100
AcDbCircle
10
297.315219913868
20
50.000000000000
30
0.0
40
21.625000006269
100
AcDbArc
50
162.507675477445
51
180.000000000000
0
LINE
5
46b
100
AcDbEntity
8
0-0
6
CONTINUOUS
62
7
100
AcDbLine
10
276.690219907599
20
56.500000000000
30
0.0
11
276.690219907599
21
50.000000000000
31
0.0
0
LINE
5
46c
100
AcDbEntity
8
0-0
6
CONTINUOUS
62
7
100
AcDbLine
10
276.690219907599
20
53.000000000000
30
0.0
11
281.190219907599
21
53.000000000000
31
0.0
0
LINE
5
46d
100
AcDbEntity
8
0-0
6
CONTINUOUS
62
7
100
AcDbLine
10
281.190219907599
20
52.000000000000
30
0.0
11
276.690219907599
21
52.000000000000
31
0.0
0
LINE
5
46e
100
AcDbEntity
8
0-0
6
CONTINUOUS
62
7
100
AcDbLine
10
276.690219907599
20
51.000000000000
30
0.0
11
281.190219907599
21
51.000000000000
31
0.0
0
LINE
5
46f
100
AcDbEntity
8
0-0
6
CONTINUOUS
62
7
100
AcDbLine
10
276.690219907599
20
53.800000000000
30
0.0
11
281.190219907599
21
53.800000000000
31
0.0
0
LINE
5
470
100
AcDbEntity
8
0-0
6
CONTINUOUS
62
7
100
AcDbLine
10
281.190219907599
20
54.500000000000
30
0.0
11
276.690219907599
21
54.500000000000
31
0.0
0
LINE
5
471
100
AcDbEntity
8
0-0
6
CONTINUOUS
62
7
100
AcDbLine
10
276.690219907599
20
55.100000000000
30
0.0
11
281.190219907599
21
55.100000000000
31
0.0
0
LINE
5
472
100
AcDbEntity
8
0-0
6
CONTINUOUS
62
7
100
AcDbLine
10
281.190219907599
20
55.600000000000
30
0.0
11
276.690219907599
21
55.600000000000
31
0.0
0
LINE
5
473
100
AcDbEntity
8
0-0
6
CONTINUOUS
62
7
100
AcDbLine
10
276.690219907599
20
56.100000000000
30
0.0
11
281.190219907599
21
56.100000000000
31
0.0
0
LINE
5
474
100
AcDbEntity
8
0-0
6
CONTINUOUS
62
7
100
AcDbLine
10
281.190219907599
20
56.500000000000
30
0.0
11
276.690219907599
21
56.500000000000
31
0.0
0
LINE
5
475
100
AcDbEntity
8
0-0
6
CONTINUOUS
62
7
100
AcDbLine
10
281.190219907599
20
50.000000000000
30
0.0
11
276.690219907599
21
50.000000000000
31
0.0
0
LINE
5
476
100
AcDbEntity
8
0-0
6
CONTINUOUS
62
7
100
AcDbLine
10
292.690219907599
20
51.500000000000
30
0.0
11
292.690219907599
21
50.000000000000
31
0.0
0
LINE
5
477
100
AcDbEntity
8
0-0
6
CONTINUOUS
62
7
100
AcDbLine
10
292.190219907599
20
52.000000000000
30
0.0
11
292.690219907599
21
51.500000000000
31
0.0
0
LINE
5
478
100
AcDbEntity
8
0-0
6
CONTINUOUS
62
7
100
AcDbLine
10
282.690219907599
20
52.000000000000
30
0.0
11
292.190219907599
21
52.000000000000
31
0.0
0
LINE
5
479
100
AcDbEntity
8
0-0
6
CONTINUOUS
62
7
100
AcDbLine
10
281.190219907599
20
50.000000000000
30
0.0
11
281.190219907599
21
56.500000000000
31
0.0
0
LINE
5
47a
100
AcDbEntity
8
0-0
6
CONTINUOUS
62
7
100
AcDbLine
10
282.690219907599
20
55.150000000000
30
0.0
11
282.690219907599
21
50.000000000000
31
0.0
0
LINE
5
47b
100
AcDbEntity
8
0-0
6
CONTINUOUS
62
7
100
AcDbLine
10
281.190219907599
20
55.400000000000
30
0.0
11
282.690219907599
21
55.150000000000
31
0.0
0
LINE
5
47c
100
AcDbEntity
8
0-1
6
PHANTOM
62
4
100
AcDbLine
10
88.334459319646
20
50.000000000000
30
0.0
11
65.334459319646
21
50.000000000000
31
0.0
0
LINE
5
47d
100
AcDbEntity
8
0-1
6
PHANTOM
62
4
100
AcDbLine
10
76.834459319646
20
31.200000000000
30
0.0
11
76.834459319646
21
50.000000000000
31
0.0
0
LINE
5
47e
100
AcDbEntity
8
0-1
6
PHANTOM
62
4
100
AcDbLine
10
67.897856779267
20
50.500000000000
30
0.0
11
70.897856779267
21
50.500000000000
31
0.0
0
ARC
5
47f
100
AcDbEntity
8
0-1
6
PHANTOM
62
4
100
AcDbCircle
10
65.334459319646
20
26.000000000000
30
0.0
40
1.000000000000
100
AcDbArc
50
180.000000000000
51
270.000000000000
0
LINE
5
480
100
AcDbEntity
8
0-1
6
PHANTOM
62
4
100
AcDbLine
10
64.334459319646
20
26.000000000000
30
0.0
11
64.334459319646
21
33.900000000000
31
0.0
0
LINE
5
481
100
AcDbEntity
8
0-1
6
PHANTOM
62
4
100
AcDbLine
10
65.334459319646
20
25.000000000000
30
0.0
11
73.234459319646
21
25.000000000000
31
0.0
0
ARC
5
482
100
AcDbEntity
8
0-1
6
PHANTOM
62
4
100
AcDbCircle
10
88.334459319646
20
26.000000000000
30
0.0
40
1.000000000000
100
AcDbArc
50
270.000000000000
51
360.000000000000
0
LINE
5
483
100
AcDbEntity
8
0-1
6
PHANTOM
62
4
100
AcDbLine
10
88.334459319646
20
25.000000000000
30
0.0
11
80.434459319646
21
25.000000000000
31
0.0
0
LINE
5
484
100
AcDbEntity
8
0-1
6
PHANTOM
62
4
100
AcDbLine
10
89.334459319646
20
26.000000000000
30
0.0
11
89.334459319646
21
33.900000000000
31
0.0
0
ARC
5
485
100
AcDbEntity
8
0-1
6
PHANTOM
62
4
100
AcDbCircle
10
88.334459319646
20
49.000000000000
30
0.0
40
1.000000000000
100
AcDbArc
50
0.000000000000
51
90.000000000000
0
LINE
5
486
100
AcDbEntity
8
0-1
6
PHANTOM
62
4
100
AcDbLine
10
89.334459319646
20
49.000000000000
30
0.0
11
89.334459319646
21
41.100000000000
31
0.0
0
LINE
5
487
100
AcDbEntity
8
0-1
6
PHANTOM
62
4
100
AcDbLine
10
64.334459319646
20
49.000000000000
30
0.0
11
64.334459319646
21
41.100000000000
31
0.0
0
LINE
5
488
100
AcDbEntity
8
0-1
6
PHANTOM
62
4
100
AcDbLine
10
70.534459319646
20
32.700000000000
30
0.0
11
70.534459319646
21
42.300000000000
31
0.0
0
LINE
5
489
100
AcDbEntity
8
0-1
6
PHANTOM
62
4
100
AcDbLine
10
69.334459319646
20
43.500000000000
30
0.0
11
70.534459319646
21
42.300000000000
31
0.0
0
LINE
5
48a
100
AcDbEntity
8
0-1
6
PHANTOM
62
4
100
AcDbLine
10
69.334459319646
20
43.500000000000
30
0.0
11
66.134459319646
21
43.500000000000
31
0.0
0
LINE
5
48b
100
AcDbEntity
8
0-1
6
PHANTOM
62
4
100
AcDbLine
10
66.134459319646
20
41.100000000000
30
0.0
11
66.134459319646
21
43.500000000000
31
0.0
0
LINE
5
48c
100
AcDbEntity
8
0-1
6
PHANTOM
62
4
100
AcDbLine
10
66.134459319646
20
41.100000000000
30
0.0
11
64.334459319646
21
41.100000000000
31
0.0
0
LINE
5
48d
100
AcDbEntity
8
0-1
6
PHANTOM
62
4
100
AcDbLine
10
73.234459319646
20
48.200000000000
30
0.0
11
73.234459319646
21
50.000000000000
31
0.0
0
LINE
5
48e
100
AcDbEntity
8
0-1
6
PHANTOM
62
4
100
AcDbLine
10
70.834459319646
20
48.200000000000
30
0.0
11
73.234459319646
21
48.200000000000
31
0.0
0
LINE
5
48f
100
AcDbEntity
8
0-1
6
PHANTOM
62
4
100
AcDbLine
10
70.834459319646
20
45.000000000000
30
0.0
11
70.834459319646
21
48.200000000000
31
0.0
0
LINE
5
490
100
AcDbEntity
8
0-1
6
PHANTOM
62
4
100
AcDbLine
10
72.034459319646
20
43.800000000000
30
0.0
11
70.834459319646
21
45.000000000000
31
0.0
0
LINE
5
491
100
AcDbEntity
8
0-1
6
PHANTOM
62
4
100
AcDbLine
10
81.634459319646
20
43.800000000000
30
0.0
11
72.034459319646
21
43.800000000000
31
0.0
0
LINE
5
492
100
AcDbEntity
8
0-1
6
PHANTOM
62
4
100
AcDbLine
10
82.834459319646
20
45.000000000001
30
0.0
11
81.634459319646
21
43.800000000000
31
0.0
0
LINE
5
493
100
AcDbEntity
8
0-1
6
PHANTOM
62
4
100
AcDbLine
10
82.834459319646
20
48.200000000000
30
0.0
11
82.834459319646
21
45.000000000001
31
0.0
0
LINE
5
494
100
AcDbEntity
8
0-1
6
PHANTOM
62
4
100
AcDbLine
10
80.434459319646
20
48.200000000000
30
0.0
11
82.834459319646
21
48.200000000000
31
0.0
0
LINE
5
495
100
AcDbEntity
8
0-1
6
PHANTOM
62
4
100
AcDbLine
10
80.434459319646
20
48.200000000000
30
0.0
11
80.434459319646
21
50.000000000000
31
0.0
0
LINE
5
496
100
AcDbEntity
8
0-1
6
PHANTOM
62
4
100
AcDbLine
10
89.334459319646
20
41.100000000000
30
0.0
11
87.534459319646
21
41.100000000000
31
0.0
0
LINE
5
497
100
AcDbEntity
8
0-1
6
PHANTOM
62
4
100
AcDbLine
10
87.534459319646
20
43.500000000000
30
0.0
11
87.534459319646
21
41.100000000000
31
0.0
0
LINE
5
498
100
AcDbEntity
8
0-1
6
PHANTOM
62
4
100
AcDbLine
10
84.334459319646
20
43.500000000000
30
0.0
11
87.534459319646
21
43.500000000000
31
0.0
0
LINE
5
499
100
AcDbEntity
8
0-1
6
PHANTOM
62
4
100
AcDbLine
10
83.134459319646
20
42.300000000000
30
0.0
11
84.334459319646
21
43.500000000000
31
0.0
0
LINE
5
49a
100
AcDbEntity
8
0-1
6
PHANTOM
62
4
100
AcDbLine
10
83.134459319646
20
32.700000000000
30
0.0
11
83.134459319646
21
42.300000000000
31
0.0
0
LINE
5
49b
100
AcDbEntity
8
0-1
6
PHANTOM
62
4
100
AcDbLine
10
83.134459319646
20
32.700000000000
30
0.0
11
84.334459319646
21
31.500000000000
31
0.0
0
LINE
5
49c
100
AcDbEntity
8
0-1
6
PHANTOM
62
4
100
AcDbLine
10
87.534459319646
20
31.500000000000
30
0.0
11
84.334459319646
21
31.500000000000
31
0.0
0
LINE
5
49d
100
AcDbEntity
8
0-1
6
PHANTOM
62
4
100
AcDbLine
10
87.534459319646
20
33.900000000000
30
0.0
11
87.534459319646
21
31.500000000000
31
0.0
0
LINE
5
49e
100
AcDbEntity
8
0-1
6
PHANTOM
62
4
100
AcDbLine
10
87.534459319646
20
33.900000000000
30
0.0
11
89.334459319646
21
33.900000000000
31
0.0
0
LINE
5
49f
100
AcDbEntity
8
0-1
6
PHANTOM
62
4
100
AcDbLine
10
80.434459319646
20
26.800000000000
30
0.0
11
80.434459319646
21
25.000000000000
31
0.0
0
LINE
5
4a0
100
AcDbEntity
8
0-1
6
PHANTOM
62
4
100
AcDbLine
10
80.434459319646
20
26.800000000000
30
0.0
11
82.834459319646
21
26.800000000000
31
0.0
0
LINE
5
4a1
100
AcDbEntity
8
0-1
6
PHANTOM
62
4
100
AcDbLine
10
82.834459319646
20
30.000000000000
30
0.0
11
82.834459319646
21
26.800000000000
31
0.0
0
LINE
5
4a2
100
AcDbEntity
8
0-1
6
PHANTOM
62
4
100
AcDbLine
10
81.634459319646
20
31.200000000000
30
0.0
11
82.834459319646
21
30.000000000000
31
0.0
0
LINE
5
4a3
100
AcDbEntity
8
0-1
6
PHANTOM
62
4
100
AcDbLine
10
72.034459319646
20
31.200000000000
30
0.0
11
81.634459319646
21
31.200000000000
31
0.0
0
LINE
5
4a4
100
AcDbEntity
8
0-1
6
PHANTOM
62
4
100
AcDbLine
10
72.034459319646
20
31.200000000000
30
0.0
11
70.834459319646
21
30.000000000000
31
0.0
0
LINE
5
4a5
100
AcDbEntity
8
0-1
6
PHANTOM
62
4
100
AcDbLine
10
70.834459319646
20
26.800000000000
30
0.0
11
70.834459319646
21
30.000000000000
31
0.0
0
LINE
5
4a6
100
AcDbEntity
8
0-1
6
PHANTOM
62
4
100
AcDbLine
10
69.334459319646
20
31.500000000000
30
0.0
11
70.534459319646
21
32.700000000000
31
0.0
0
LINE
5
4a7
100
AcDbEntity
8
0-1
6
PHANTOM
62
4
100
AcDbLine
10
66.134459319646
20
33.900000000000
30
0.0
11
66.134459319646
21
31.500000000000
31
0.0
0
LINE
5
4a8
100
AcDbEntity
8
0-1
6
PHANTOM
62
4
100
AcDbLine
10
64.334459319646
20
33.900000000000
30
0.0
11
66.134459319646
21
33.900000000000
31
0.0
0
LINE
5
4a9
100
AcDbEntity
8
0-1
6
PHANTOM
62
4
100
AcDbLine
10
73.234459319646
20
26.800000000000
30
0.0
11
70.834459319646
21
26.800000000000
31
0.0
0
LINE
5
4aa
100
AcDbEntity
8
0-1
6
PHANTOM
62
4
100
AcDbLine
10
73.234459319646
20
26.800000000000
30
0.0
11
73.234459319646
21
25.000000000000
31
0.0
0
LINE
5
4ab
100
AcDbEntity
8
0-1
6
PHANTOM
62
4
100
AcDbLine
10
66.134459319646
20
31.500000000000
30
0.0
11
69.334459319646
21
31.500000000000
31
0.0
0
ARC
5
4ac
100
AcDbEntity
8
0-1
6
PHANTOM
62
4
100
AcDbCircle
10
65.334459319646
20
49.000000000000
30
0.0
40
1.000000000000
100
AcDbArc
50
90.000000000000
51
180.000000000000
0
LINE
5
4ad
100
AcDbEntity
8
0-1
6
PHANTOM
62
4
100
AcDbLine
10
110.528962120819
20
37.500000000000
30
0.0
11
45.272287949096
21
37.500000000000
31
0.0
0
LINE
5
4ae
100
AcDbEntity
8
0-1
6
PHANTOM
62
4
100
AcDbLine
10
110.528962120819
20
25.000000000000
30
0.0
11
45.272287949096
21
25.000000000000
31
0.0
0
LINE
5
4af
100
AcDbEntity
8
0-3
6
CENTER
62
4
100
AcDbLine
10
47.946262922823
20
60.000000000000
30
0.0
11
78.885658049873
21
60.000000000000
31
0.0
0
LINE
5
4b0
100
AcDbEntity
8
0-3
6
CENTER
62
4
100
AcDbLine
10
53.565597509631
20
65.709957004048
30
0.0
11
53.565597509631
21
54.405178015318
31
0.0
0
ARC
5
4b1
100
AcDbEntity
8
0-3
6
CONTINUOUS
62
2
100
AcDbCircle
10
52.305597519168
20
61.259999990463
30
0.0
40
0.839999973774
100
AcDbArc
50
270.000000000000
51
360.000000000000
0
ARC
5
4b2
100
AcDbEntity
8
0-3
6
CONTINUOUS
62
2
100
AcDbCircle
10
52.305597519168
20
58.740000009537
30
0.0
40
0.839999973774
100
AcDbArc
50
0.000000000000
51
90.000000000000
0
ARC
5
4b3
100
AcDbEntity
8
0-3
6
CONTINUOUS
62
2
100
AcDbCircle
10
54.825597500095
20
58.740000009537
30
0.0
40
0.839999973774
100
AcDbArc
50
90.000000000000
51
180.000000000000
0
ARC
5
4b4
100
AcDbEntity
8
0-3
6
CONTINUOUS
62
2
100
AcDbCircle
10
54.825597500095
20
61.259999990463
30
0.0
40
0.839999973774
100
AcDbArc
50
180.000000000000
51
270.000000000000
0
CIRCLE
5
4b5
100
AcDbEntity
8
0-3
6
CONTINUOUS
62
2
100
AcDbCircle
10
53.565597509631
20
60.000000000000
30
0.0
40
4.699999809265
0
LINE
5
4b6
100
AcDbEntity
8
0-3
6
CONTINUOUS
62
2
100
AcDbLine
10
53.145597522744
20
61.259999990463
30
0.0
11
53.145597522744
21
62.099999904633
31
0.0
0
LINE
5
4b7
100
AcDbEntity
8
0-3
6
CONTINUOUS
62
2
100
AcDbLine
10
52.305597519168
20
60.419999986887
30
0.0
11
51.465597604999
21
60.419999986887
31
0.0
0
LINE
5
4b8
100
AcDbEntity
8
0-3
6
CONTINUOUS
62
2
100
AcDbLine
10
52.305597519168
20
59.580000013113
30
0.0
11
51.465597604999
21
59.580000013113
31
0.0
0
LINE
5
4b9
100
AcDbEntity
8
0-3
6
CONTINUOUS
62
2
100
AcDbLine
10
53.145597522744
20
58.740000009537
30
0.0
11
53.145597522744
21
57.900000095367
31
0.0
0
LINE
5
4ba
100
AcDbEntity
8
0-3
6
CONTINUOUS
62
2
100
AcDbLine
10
53.985597496518
20
58.740000009537
30
0.0
11
53.985597496518
21
57.900000095367
31
0.0
0
LINE
5
4bb
100
AcDbEntity
8
0-3
6
CONTINUOUS
62
2
100
AcDbLine
10
54.825597500095
20
59.580000013113
30
0.0
11
55.665597414264
21
59.580000013113
31
0.0
0
LINE
5
4bc
100
AcDbEntity
8
0-3
6
CONTINUOUS
62
2
100
AcDbLine
10
54.825597500095
20
60.419999986887
30
0.0
11
55.665597414264
21
60.419999986887
31
0.0
0
LINE
5
4bd
100
AcDbEntity
8
0-3
6
CONTINUOUS
62
2
100
AcDbLine
10
53.985597496518
20
61.259999990463
30
0.0
11
53.985597496518
21
62.099999904633
31
0.0
0
LINE
5
4be
100
AcDbEntity
8
0-3
6
CONTINUOUS
62
2
100
AcDbLine
10
53.145597522744
20
57.900000095367
30
0.0
11
53.985597496518
21
57.900000095367
31
0.0
0
LINE
5
4bf
100
AcDbEntity
8
0-3
6
CONTINUOUS
62
2
100
AcDbLine
10
51.465597604999
20
59.580000013113
30
0.0
11
51.465597604999
21
60.419999986887
31
0.0
0
LINE
5
4c0
100
AcDbEntity
8
0-3
6
CONTINUOUS
62
2
100
AcDbLine
10
53.145597522744
20
62.099999904633
30
0.0
11
53.985597496518
21
62.099999904633
31
0.0
0
LINE
5
4c1
100
AcDbEntity
8
0-3
6
CONTINUOUS
62
2
100
AcDbLine
10
55.665597414264
20
59.580000013113
30
0.0
11
55.665597414264
21
60.419999986887
31
0.0
0
LINE
5
4c2
100
AcDbEntity
8
0-2
6
PHANTOM
62
4
100
AcDbLine
10
67.897856779267
20
50.500000000000
30
0.0
11
67.897856779267
21
76.002554602727
31
0.0
0
LINE
5
4c3
100
AcDbEntity
8
0-2
6
PHANTOM
62
4
100
AcDbLine
10
70.897856779267
20
50.500000000000
30
0.0
11
70.897856779267
21
76.002554602727
31
0.0
0
LINE
5
4c4
100
AcDbEntity
8
0-3
6
CONTINUOUS
62
2
100
AcDbLine
10
67.897856779231
20
55.300000190735
30
0.0
11
67.897856779231
21
64.699999809265
31
0.0
0
ARC
5
4c5
100
AcDbEntity
8
0-3
6
CONTINUOUS
62
2
100
AcDbCircle
10
71.497856683900
20
60.000000000000
30
0.0
40
6.099999904633
100
AcDbArc
50
129.601913452148
51
230.398071289062
0
LINE
5
4c6
100
AcDbEntity
8
0-3
6
CONTINUOUS
62
2
100
AcDbLine
10
67.897856779267
20
58.000000000000
30
0.0
11
77.597856588533
21
58.000000000000
31
0.0
0
LINE
5
4c7
100
AcDbEntity
8
0-3
6
CONTINUOUS
62
2
100
AcDbLine
10
77.897856779267
20
58.299999952316
30
0.0
11
77.597856588533
21
58.000000000000
31
0.0
0
POLYLINE
5
4c8
100
AcDbEntity
8
0-3
6
CONTINUOUS
62
  2
100
AcDb2dPolyline
66
1
10
0.0
20
0.0
30
0.0
70
0
0
VERTEX
5
4c9
100
AcDbEntity
8
0-3
6
CONTINUOUS
62
  2
100
AcDbVertex
100
AcDb2dVertex
10
77.897856779267
20
58.299999952316
30
0.0
0
VERTEX
5
4ca
100
AcDbEntity
8
0-3
6
CONTINUOUS
62
  2
100
AcDbVertex
100
AcDb2dVertex
10
77.897856779267
20
61.700000047684
30
0.0
0
VERTEX
5
4cb
100
AcDbEntity
8
0-3
6
CONTINUOUS
62
  2
100
AcDbVertex
100
AcDb2dVertex
10
77.597856588533
20
62.000000000000
30
0.0
0
SEQEND
5
4cc
100
AcDbEntity
8
0-3
0
LINE
5
4cd
100
AcDbEntity
8
0-3
6
CONTINUOUS
62
2
100
AcDbLine
10
67.897856779267
20
62.000000000000
30
0.0
11
77.597856588533
21
62.000000000000
31
0.0
0
LINE
5
4ce
100
AcDbEntity
8
0-3
6
CONTINUOUS
62
2
100
AcDbLine
10
67.609412349631
20
64.699999809265
30
0.0
11
67.897856779267
21
64.699999809265
31
0.0
0
LINE
5
4cf
100
AcDbEntity
8
0-3
6
CONTINUOUS
62
2
100
AcDbLine
10
67.609412349631
20
55.300000190735
30
0.0
11
67.897856779267
21
55.300000190735
31
0.0
0
LINE
5
4d0
100
AcDbEntity
8
F-F_J_ADD
6
HIDDEN
62
253
100
AcDbLine
10
67.897856779267
20
60.000000000000
30
0.0
11
68.604963560454
21
59.292893218813
31
0.0
0
LINE
5
4d1
100
AcDbEntity
8
F-F_J_ADD
6
HIDDEN
62
253
100
AcDbLine
10
67.897856779267
20
60.000000000000
30
0.0
11
68.604963560454
21
60.707106781187
31
0.0
0
LINE
5
4d2
100
AcDbEntity
8
0-3
6
CONTINUOUS
62
4
100
AcDbLine
10
77.597856588533
20
58.000000000000
30
0.0
11
77.597856588533
21
62.000000000000
31
0.0
0
LINE
5
4d3
100
AcDbEntity
8
0-3
6
CONTINUOUS
62
4
100
AcDbLine
10
67.897856779267
20
61.700000047684
30
0.0
11
77.897856779267
21
61.700000047684
31
0.0
0
LINE
5
4d4
100
AcDbEntity
8
0-3
6
CONTINUOUS
62
4
100
AcDbLine
10
67.897856779267
20
58.299999952316
30
0.0
11
77.897856779267
21
58.299999952316
31
0.0
0
LINE
5
4d5
100
AcDbEntity
8
0-3
6
CONTINUOUS
62
4
100
AcDbLine
10
67.609412349631
20
55.300000190735
30
0.0
11
67.609412349631
21
64.699999809265
31
0.0
0
LINE
5
4d6
100
AcDbEntity
8
0-2
6
PHANTOM
62
4
100
AcDbLine
10
28.603356427936
20
25.000000000000
30
0.0
11
-20.955526769467
21
25.000000000000
31
0.0
0
LINE
5
4d7
100
AcDbEntity
8
0-2
6
PHANTOM
62
4
100
AcDbLine
10
21.904626617158
20
50.000000000000
30
0.0
11
-27.654256580245
21
50.000000000000
31
0.0
0
LINE
5
4d8
100
AcDbEntity
8
0-2
6
PHANTOM
62
4
100
AcDbLine
10
21.347707934659
20
52.078448818771
30
0.0
11
29.399791027862
21
22.027665608172
31
0.0
0
LINE
5
4d9
100
AcDbEntity
8
0-2
6
PHANTOM
62
4
100
AcDbLine
10
-28.396280621209
20
52.769271421314
30
0.0
11
-20.159092169541
21
22.027665608172
31
0.0
0
LINE
5
4da
100
AcDbEntity
8
0-1
6
CENTER
62
4
100
AcDbLine
10
77.897856779267
20
50.280420253400
30
0.0
11
77.897856779267
21
43.818070067997
31
0.0
0
CIRCLE
5
4db
100
AcDbEntity
8
0-1
6
CONTINUOUS
62
4
100
AcDbCircle
10
0.000000000000
20
60.000000000000
30
0.0
40
2.000000000000
0
LINE
5
4dc
100
AcDbEntity
8
0-1
6
CENTER
62
4
100
AcDbLine
10
0.000000000000
20
45.000000000000
30
0.0
11
0.000000000000
21
66.000000000000
31
0.0
0
LINE
5
4dd
100
AcDbEntity
8
0-1
6
CONTINUOUS
62
4
100
AcDbLine
10
1.984313483299
20
60.250000000000
30
0.0
11
10.000000000000
21
60.250000000000
31
0.0
0
LINE
5
4de
100
AcDbEntity
8
0-1
6
CONTINUOUS
62
4
100
AcDbLine
10
10.000000000000
20
59.750000000000
30
0.0
11
1.984313483299
21
59.750000000000
31
0.0
0
LINE
5
4df
100
AcDbEntity
8
0-1
6
CENTER
62
4
100
AcDbLine
10
-10.000000000000
20
60.000000000000
30
0.0
11
10.000000000000
21
60.000000000000
31
0.0
0
LINE
5
4e0
100
AcDbEntity
8
0-1
6
CONTINUOUS
62
4
100
AcDbLine
10
-1.984313483299
20
59.750000000000
30
0.0
11
-10.000000000000
21
59.750000000000
31
0.0
0
LINE
5
4e1
100
AcDbEntity
8
0-1
6
CONTINUOUS
62
4
100
AcDbLine
10
-10.000000000000
20
60.250000000000
30
0.0
11
-1.984313483299
21
60.250000000000
31
0.0
0
ARC
5
4e2
100
AcDbEntity
8
0-0
6
CONTINUOUS
62
7
100
AcDbCircle
10
76.197856779267
20
49.100000000000
30
0.0
40
0.300000000000
100
AcDbArc
50
180.000000000000
51
270.000000000000
0
ARC
5
4e3
100
AcDbEntity
8
0-0
6
CONTINUOUS
62
7
100
AcDbCircle
10
79.978241536996
20
48.500000000000
30
0.0
40
0.300000000000
100
AcDbArc
50
30.000000000000
51
90.000000000000
0
ARC
5
4e4
100
AcDbEntity
8
0-0
6
CONTINUOUS
62
7
100
AcDbCircle
10
80.671061860024
20
48.500000000000
30
0.0
40
0.300000000000
100
AcDbArc
50
210.000000000000
51
270.000000000000
0
ARC
5
4e5
100
AcDbEntity
8
0-0
6
CONTINUOUS
62
7
100
AcDbCircle
10
81.397856779267
20
47.900000000000
30
0.0
40
0.300000000000
100
AcDbArc
50
0.000000000000
51
90.000000000000
0
ARC
5
4e6
100
AcDbEntity
8
0-0
6
CONTINUOUS
62
7
100
AcDbCircle
10
81.397856779267
20
47.124264068712
30
0.0
40
0.300000000000
100
AcDbArc
50
315.000000000000
51
360.000000000000
0
ARC
5
4e7
100
AcDbEntity
8
0-0
6
CONTINUOUS
62
7
100
AcDbCircle
10
79.573592710555
20
45.300000000000
30
0.0
40
0.300000000000
100
AcDbArc
50
270.000000000000
51
315.000000000000
0
ARC
5
4e8
100
AcDbEntity
8
0-0
6
CONTINUOUS
62
7
100
AcDbCircle
10
74.222120847979
20
45.300000000000
30
0.0
40
0.300000000000
100
AcDbArc
50
225.000000000000
51
270.000000000000
0
ARC
5
4e9
100
AcDbEntity
8
0-0
6
CONTINUOUS
62
7
100
AcDbCircle
10
72.397856779267
20
47.124264068712
30
0.0
40
0.300000000000
100
AcDbArc
50
180.000000000000
51
225.000000000000
0
ARC
5
4ea
100
AcDbEntity
8
0-0
6
CONTINUOUS
62
7
100
AcDbCircle
10
72.397856779267
20
47.900000000000
30
0.0
40
0.300000000000
100
AcDbArc
50
90.000000000000
51
180.000000000000
0
ARC
5
4eb
100
AcDbEntity
8
0-0
6
CONTINUOUS
62
7
100
AcDbCircle
10
72.997856779267
20
48.500000000000
30
0.0
40
0.300000000000
100
AcDbArc
50
270.000000000000
51
360.000000000000
0
ARC
5
4ec
100
AcDbEntity
8
0-0
6
CONTINUOUS
62
7
100
AcDbCircle
10
72.997856779267
20
49.869801903606
30
0.0
40
0.300000000000
100
AcDbArc
50
0.000000000000
51
75.000000000000
0
ARC
5
4ed
100
AcDbEntity
8
0-0
6
CONTINUOUS
62
7
100
AcDbCircle
10
71.197856779267
20
50.973276158228
30
0.0
40
0.300000000000
100
AcDbArc
50
180.000000000000
51
255.000000000000
0
ARC
5
4ee
100
AcDbEntity
8
0-0
6
CONTINUOUS
62
7
100
AcDbCircle
10
75.597856779267
20
65.700000000000
30
0.0
40
0.300000000000
100
AcDbArc
50
0.000000000000
51
90.000000000000
0
ARC
5
4ef
100
AcDbEntity
8
0-0
6
CONTINUOUS
62
7
100
AcDbCircle
10
71.197856779267
20
65.700000000000
30
0.0
40
0.300000000000
100
AcDbArc
50
90.000000000000
51
180.000000000000
0
LINE
5
4f0
100
AcDbEntity
8
0-0
6
CONTINUOUS
62
7
100
AcDbLine
10
80.671061860024
20
48.200000000000
30
0.0
11
81.397856779267
21
48.200000000000
31
0.0
0
LINE
5
4f1
100
AcDbEntity
8
0-0
6
CONTINUOUS
62
7
100
AcDbLine
10
80.238049158132
20
48.650000000000
30
0.0
11
80.497856779267
21
48.200000000000
31
0.0
0
LINE
5
4f2
100
AcDbEntity
8
0-0
6
CONTINUOUS
62
7
100
AcDbLine
10
76.197856779267
20
48.800000000000
30
0.0
11
79.978241536996
21
48.800000000000
31
0.0
0
LINE
5
4f3
100
AcDbEntity
8
0-0
6
CONTINUOUS
62
7
100
AcDbLine
10
75.897856779267
20
65.700000000000
30
0.0
11
75.897856779267
21
49.100000000000
31
0.0
0
LINE
5
4f4
100
AcDbEntity
8
0-0
6
CONTINUOUS
62
7
100
AcDbLine
10
71.197856779267
20
66.000000000000
30
0.0
11
75.597856779267
21
66.000000000000
31
0.0
0
LINE
5
4f5
100
AcDbEntity
8
0-0
6
CONTINUOUS
62
7
100
AcDbLine
10
70.897856779267
20
60.250000000000
30
0.0
11
70.897856779267
21
65.700000000000
31
0.0
0
LINE
5
4f6
100
AcDbEntity
8
0-0
6
CONTINUOUS
62
7
100
AcDbLine
10
71.147856779267
20
60.000000000000
30
0.0
11
70.897856779267
21
60.250000000000
31
0.0
0
LINE
5
4f7
100
AcDbEntity
8
0-0
6
CONTINUOUS
62
7
100
AcDbLine
10
70.897856779267
20
59.750000000000
30
0.0
11
71.147856779267
21
60.000000000000
31
0.0
0
LINE
5
4f8
100
AcDbEntity
8
0-0
6
CONTINUOUS
62
7
100
AcDbLine
10
70.897856779267
20
50.973276158228
30
0.0
11
70.897856779267
21
59.750000000000
31
0.0
0
LINE
5
4f9
100
AcDbEntity
8
0-0
6
CONTINUOUS
62
7
100
AcDbLine
10
73.297856779267
20
50.100000000000
30
0.0
11
71.120211065736
21
50.683498410342
31
0.0
0
LINE
5
4fa
100
AcDbEntity
8
0-0
6
CONTINUOUS
62
7
100
AcDbLine
10
73.297856779267
20
48.500000000000
30
0.0
11
73.297856779267
21
49.869801903606
31
0.0
0
LINE
5
4fb
100
AcDbEntity
8
0-0
6
CONTINUOUS
62
7
100
AcDbLine
10
72.397856779267
20
48.200000000000
30
0.0
11
72.997856779267
21
48.200000000000
31
0.0
0
LINE
5
4fc
100
AcDbEntity
8
0-0
6
CONTINUOUS
62
7
100
AcDbLine
10
72.097856779267
20
47.124264068712
30
0.0
11
72.097856779267
21
47.900000000000
31
0.0
0
LINE
5
4fd
100
AcDbEntity
8
0-0
6
CONTINUOUS
62
7
100
AcDbLine
10
74.009988813623
20
45.087867965644
30
0.0
11
72.097856779267
21
47.000000000000
31
0.0
0
LINE
5
4fe
100
AcDbEntity
8
0-0
6
CONTINUOUS
62
7
100
AcDbLine
10
77.647856779267
20
45.000000000000
30
0.0
11
74.222120847979
21
45.000000000000
31
0.0
0
LINE
5
4ff
100
AcDbEntity
8
0-0
6
CONTINUOUS
62
7
100
AcDbLine
10
77.897856779267
20
45.250000000000
30
0.0
11
77.647856779267
21
45.000000000000
31
0.0
0
LINE
5
500
100
AcDbEntity
8
0-0
6
CONTINUOUS
62
7
100
AcDbLine
10
78.147856779267
20
45.000000000000
30
0.0
11
77.897856779267
21
45.250000000000
31
0.0
0
LINE
5
501
100
AcDbEntity
8
0-0
6
CONTINUOUS
62
7
100
AcDbLine
10
79.573592710555
20
45.000000000000
30
0.0
11
78.147856779267
21
45.000000000000
31
0.0
0
LINE
5
502
100
AcDbEntity
8
0-0
6
CONTINUOUS
62
7
100
AcDbLine
10
81.609988813623
20
46.912132034356
30
0.0
11
79.785724744911
21
45.087867965644
31
0.0
0
LINE
5
503
100
AcDbEntity
8
0-0
6
CONTINUOUS
62
7
100
AcDbLine
10
81.697856779267
20
47.900000000000
30
0.0
11
81.697856779267
21
47.124264068712
31
0.0
0
CIRCLE
5
504
100
AcDbEntity
8
0-0
6
CONTINUOUS
62
7
100
AcDbCircle
10
0.000000000000
20
60.000000000000
30
0.0
40
1.700000047684
0
LINE
5
505
100
AcDbEntity
8
0-0
6
CONTINUOUS
62
7
100
AcDbLine
10
-10.000000000000
20
50.743078061800
30
0.0
11
10.000000000000
21
50.743078061800
31
0.0
0
LINE
5
506
100
AcDbEntity
8
0-0
6
CONTINUOUS
62
7
100
AcDbLine
10
10.000000000000
20
50.100000000000
30
0.0
11
-10.000000000000
21
50.100000000000
31
0.0
0
LINE
5
507
100
AcDbEntity
8
0-0
6
CONTINUOUS
62
7
100
AcDbLine
10
-10.000000000000
20
45.000000000000
30
0.0
11
10.000000000000
21
45.000000000000
31
0.0
0
LINE
5
508
100
AcDbEntity
8
0-0
6
CONTINUOUS
62
7
100
AcDbLine
10
-10.000000000000
20
66.000000000000
30
0.0
11
-10.000000000000
21
45.000000000000
31
0.0
0
LINE
5
509
100
AcDbEntity
8
0-0
6
CONTINUOUS
62
7
100
AcDbLine
10
10.000000000000
20
66.000000000000
30
0.0
11
-10.000000000000
21
66.000000000000
31
0.0
0
LINE
5
50a
100
AcDbEntity
8
0-0
6
CONTINUOUS
62
7
100
AcDbLine
10
10.000000000000
20
45.000000000000
30
0.0
11
10.000000000000
21
66.000000000000
31
0.0
0
LINE
5
50b
100
AcDbEntity
8
0-0
6
CONTINUOUS
62
7
100
AcDbLine
10
-10.000000000000
20
47.000000000000
30
0.0
11
10.000000000000
21
47.000000000000
31
0.0
0
LINE
5
50c
100
AcDbEntity
8
0-0
6
CONTINUOUS
62
7
100
AcDbLine
10
10.000000000000
20
48.200000000000
30
0.0
11
-10.000000000000
21
48.200000000000
31
0.0
0
LINE
5
50d
100
AcDbEntity
8
0-1
6
PHANTOM
62
4
100
AcDbLine
10
119.050286226705
20
274.999999999999
30
0.0
11
142.050286226705
21
274.999999999999
31
0.0
0
LINE
5
50e
100
AcDbEntity
8
0-1
6
PHANTOM
62
4
100
AcDbLine
10
130.550286226705
20
256.199999999999
30
0.0
11
130.550286226705
21
274.999999999999
31
0.0
0
LINE
5
50f
100
AcDbEntity
8
0-1
6
PHANTOM
62
4
100
AcDbLine
10
61.122264732560
20
274.999999999999
30
0.0
11
84.122264732560
21
274.999999999999
31
0.0
0
LINE
5
510
100
AcDbEntity
8
0-1
6
PHANTOM
62
4
100
AcDbLine
10
72.622264732560
20
256.199999999999
30
0.0
11
72.622264732560
21
274.999999999999
31
0.0
0
LINE
5
511
100
AcDbEntity
8
0-1
6
PHANTOM
62
4
100
AcDbLine
10
1.000000000000
20
275.000000000000
30
0.0
11
24.000000000000
21
275.000000000000
31
0.0
0
LINE
5
512
100
AcDbEntity
8
0-1
6
PHANTOM
62
4
100
AcDbLine
10
12.500000000000
20
256.200000000000
30
0.0
11
12.500000000000
21
275.000000000000
31
0.0
0
LINE
5
513
100
AcDbEntity
8
0-1
6
PHANTOM
62
4
100
AcDbLine
10
7.824264068712
20
256.200000000000
30
0.0
11
17.175735931288
21
256.200000000000
31
0.0
0
LINE
5
514
100
AcDbEntity
8
0-1
6
PHANTOM
62
4
100
AcDbLine
10
395.700000000000
20
156.200000000000
30
0.0
11
405.300000000000
21
156.200000000000
31
0.0
0
LINE
5
515
100
AcDbEntity
8
0-1
6
PHANTOM
62
4
100
AcDbLine
10
400.500000000000
20
175.000000000000
30
0.0
11
400.500000000000
21
156.200000000000
31
0.0
0
LINE
5
516
100
AcDbEntity
8
0-1
6
PHANTOM
62
4
100
AcDbLine
10
413.000000000000
20
175.000000000000
30
0.0
11
388.000000000000
21
175.000000000000
31
0.0
0
LINE
5
517
100
AcDbEntity
8
0-1
6
PHANTOM
62
4
100
AcDbLine
10
326.700000000000
20
156.200000000000
30
0.0
11
336.300000000000
21
156.200000000000
31
0.0
0
LINE
5
518
100
AcDbEntity
8
0-1
6
PHANTOM
62
4
100
AcDbLine
10
331.500000000000
20
175.000000000000
30
0.0
11
331.500000000000
21
156.200000000000
31
0.0
0
LINE
5
519
100
AcDbEntity
8
0-1
6
PHANTOM
62
4
100
AcDbLine
10
257.700000000000
20
156.200000000000
30
0.0
11
267.300000000000
21
156.200000000000
31
0.0
0
LINE
5
51a
100
AcDbEntity
8
0-1
6
PHANTOM
62
4
100
AcDbLine
10
262.400000000000
20
175.000000000000
30
0.0
11
262.400000000000
21
156.200000000000
31
0.0
0
LINE
5
51b
100
AcDbEntity
8
0-1
6
PHANTOM
62
4
100
AcDbLine
10
344.000000000000
20
175.000000000000
30
0.0
11
319.000000000000
21
175.000000000000
31
0.0
0
LINE
5
51c
100
AcDbEntity
8
0-1
6
PHANTOM
62
4
100
AcDbLine
10
275.000000000000
20
175.000000000000
30
0.0
11
250.000000000000
21
175.000000000000
31
0.0
0
LINE
5
51d
100
AcDbEntity
8
0-8
6
DASHED
62
4
100
AcDbLine
10
125.312431148747
20
171.100000000000
30
0.0
11
125.312431148747
21
162.500000000000
31
0.0
0
LINE
5
51e
100
AcDbEntity
8
0-8
6
DASHED
62
4
100
AcDbLine
10
113.812431148747
20
171.100000000000
30
0.0
11
136.812431148747
21
171.100000000000
31
0.0
0
LINE
5
51f
100
AcDbEntity
8
0-8
6
DASHED
62
4
100
AcDbLine
10
69.504722778176
20
171.137500000000
30
0.0
11
69.504722778176
21
162.500000000000
31
0.0
0
LINE
5
520
100
AcDbEntity
8
0-8
6
DASHED
62
4
100
AcDbLine
10
58.479722778236
20
171.100000000000
30
0.0
11
81.479722778236
21
171.100000000000
31
0.0
0
LINE
5
521
100
AcDbEntity
8
0-8
6
DASHED
62
4
100
AcDbLine
10
12.149999999880
20
171.175000000000
30
0.0
11
12.149999999880
21
162.500000000000
31
0.0
0
LINE
5
522
100
AcDbEntity
8
0-8
6
DASHED
62
4
100
AcDbLine
10
1.000000000000
20
171.100000000000
30
0.0
11
24.000000000000
21
171.100000000000
31
0.0
0
ARC
5
523
100
AcDbEntity
8
0-8
6
DASHED
62
4
100
AcDbCircle
10
129.212431148747
20
170.800000000000
30
0.0
40
0.300000000000
100
AcDbArc
50
90.000000000000
51
180.000000000000
0
LINE
5
524
100
AcDbEntity
8
0-8
6
DASHED
62
4
100
AcDbLine
10
137.812431148747
20
170.100000000000
30
0.0
11
137.812431148747
21
162.500000000000
31
0.0
0
ARC
5
525
100
AcDbEntity
8
0-8
6
DASHED
62
4
100
AcDbCircle
10
136.812431148747
20
170.100000000000
30
0.0
40
1.000000000000
100
AcDbArc
50
0.000000000000
51
90.000000000000
0
ARC
5
526
100
AcDbEntity
8
0-8
6
DASHED
62
4
100
AcDbCircle
10
121.412431148747
20
170.800000000000
30
0.0
40
0.300000000000
100
AcDbArc
50
0.000000000000
51
90.000000000000
0
ARC
5
527
100
AcDbEntity
8
0-8
6
DASHED
62
4
100
AcDbCircle
10
129.988167080035
20
165.200000000000
30
0.0
40
0.300000000000
100
AcDbArc
50
270.000000000000
51
315.000000000000
0
ARC
5
528
100
AcDbEntity
8
0-8
6
DASHED
62
4
100
AcDbCircle
10
129.212431148747
20
169.600000000000
30
0.0
40
0.300000000000
100
AcDbArc
50
180.000000000000
51
270.000000000000
0
ARC
5
529
100
AcDbEntity
8
0-8
6
DASHED
62
4
100
AcDbCircle
10
131.012431148747
20
169.000000000000
30
0.0
40
0.300000000000
100
AcDbArc
50
0.000000000000
51
90.000000000000
0
ARC
5
52a
100
AcDbEntity
8
0-8
6
DASHED
62
4
100
AcDbCircle
10
131.012431148747
20
166.224264068712
30
0.0
40
0.300000000000
100
AcDbArc
50
315.000000000000
51
360.000000000000
0
ARC
5
52b
100
AcDbEntity
8
0-8
6
DASHED
62
4
100
AcDbCircle
10
120.636695217459
20
165.200000000000
30
0.0
40
0.300000000000
100
AcDbArc
50
225.000000000000
51
270.000000000000
0
ARC
5
52c
100
AcDbEntity
8
0-8
6
DASHED
62
4
100
AcDbCircle
10
119.612431148747
20
166.224264068712
30
0.0
40
0.300000000000
100
AcDbArc
50
180.000000000000
51
225.000000000000
0
ARC
5
52d
100
AcDbEntity
8
0-8
6
DASHED
62
4
100
AcDbCircle
10
119.612431148747
20
169.000000000000
30
0.0
40
0.300000000000
100
AcDbArc
50
90.000000000000
51
180.000000000000
0
ARC
5
52e
100
AcDbEntity
8
0-8
6
DASHED
62
4
100
AcDbCircle
10
121.412431148747
20
169.600000000000
30
0.0
40
0.300000000000
100
AcDbArc
50
270.000000000000
51
360.000000000000
0
LINE
5
52f
100
AcDbEntity
8
0-8
6
DASHED
62
4
100
AcDbLine
10
128.912431148747
20
169.600000000000
30
0.0
11
128.912431148747
21
170.800000000000
31
0.0
0
LINE
5
530
100
AcDbEntity
8
0-8
6
DASHED
62
4
100
AcDbLine
10
131.012431148747
20
169.300000000000
30
0.0
11
129.212431148747
21
169.300000000000
31
0.0
0
LINE
5
531
100
AcDbEntity
8
0-8
6
DASHED
62
4
100
AcDbLine
10
131.312431148747
20
166.224264068712
30
0.0
11
131.312431148747
21
169.000000000000
31
0.0
0
LINE
5
532
100
AcDbEntity
8
0-8
6
DASHED
62
4
100
AcDbLine
10
130.200299114391
20
164.987867965644
30
0.0
11
131.224563183103
21
166.012132034356
31
0.0
0
LINE
5
533
100
AcDbEntity
8
0-8
6
DASHED
62
4
100
AcDbLine
10
125.512431148747
20
164.900000000000
30
0.0
11
129.988167080035
21
164.900000000000
31
0.0
0
LINE
5
534
100
AcDbEntity
8
0-8
6
DASHED
62
4
100
AcDbLine
10
120.636695217459
20
164.900000000000
30
0.0
11
125.112431148747
21
164.900000000000
31
0.0
0
LINE
5
535
100
AcDbEntity
8
0-8
6
DASHED
62
4
100
AcDbLine
10
119.400299114391
20
166.012132034356
30
0.0
11
120.424563183103
21
164.987867965644
31
0.0
0
LINE
5
536
100
AcDbEntity
8
0-8
6
DASHED
62
4
100
AcDbLine
10
119.312431148747
20
169.000000000000
30
0.0
11
119.312431148747
21
166.224264068712
31
0.0
0
LINE
5
537
100
AcDbEntity
8
0-8
6
DASHED
62
4
100
AcDbLine
10
121.412431148747
20
169.300000000000
30
0.0
11
119.612431148747
21
169.300000000000
31
0.0
0
LINE
5
538
100
AcDbEntity
8
0-8
6
DASHED
62
4
100
AcDbLine
10
121.712431148747
20
170.800000000000
30
0.0
11
121.712431148747
21
169.600000000000
31
0.0
0
ARC
5
539
100
AcDbEntity
8
0-8
6
DASHED
62
4
100
AcDbCircle
10
113.812431148747
20
170.100000000000
30
0.0
40
1.000000000000
100
AcDbArc
50
90.000000000000
51
180.000000000000
0
LINE
5
53a
100
AcDbEntity
8
0-8
6
DASHED
62
4
100
AcDbLine
10
112.812431148747
20
162.500000000000
30
0.0
11
112.812431148747
21
170.100000000000
31
0.0
0
ARC
5
53b
100
AcDbEntity
8
0-8
6
DASHED
62
4
100
AcDbCircle
10
73.879722778236
20
170.800000000000
30
0.0
40
0.300000000000
100
AcDbArc
50
90.000000000000
51
180.000000000000
0
LINE
5
53c
100
AcDbEntity
8
0-8
6
DASHED
62
4
100
AcDbLine
10
82.479722778236
20
170.100000000000
30
0.0
11
82.479722778236
21
162.500000000000
31
0.0
0
ARC
5
53d
100
AcDbEntity
8
0-8
6
DASHED
62
4
100
AcDbCircle
10
81.479722778236
20
170.100000000000
30
0.0
40
1.000000000000
100
AcDbArc
50
0.000000000000
51
90.000000000000
0
ARC
5
53e
100
AcDbEntity
8
0-8
6
DASHED
62
4
100
AcDbCircle
10
66.079722778236
20
170.800000000000
30
0.0
40
0.300000000000
100
AcDbArc
50
0.000000000000
51
90.000000000000
0
ARC
5
53f
100
AcDbEntity
8
0-8
6
DASHED
62
4
100
AcDbCircle
10
74.655458709524
20
165.200000000000
30
0.0
40
0.300000000000
100
AcDbArc
50
270.000000000000
51
315.000000000000
0
ARC
5
540
100
AcDbEntity
8
0-8
6
DASHED
62
4
100
AcDbCircle
10
73.879722778236
20
169.600000000000
30
0.0
40
0.300000000000
100
AcDbArc
50
180.000000000000
51
270.000000000000
0
ARC
5
541
100
AcDbEntity
8
0-8
6
DASHED
62
4
100
AcDbCircle
10
75.679722778236
20
169.000000000000
30
0.0
40
0.300000000000
100
AcDbArc
50
0.000000000000
51
90.000000000000
0
ARC
5
542
100
AcDbEntity
8
0-8
6
DASHED
62
4
100
AcDbCircle
10
75.679722778236
20
166.224264068712
30
0.0
40
0.300000000000
100
AcDbArc
50
315.000000000000
51
360.000000000000
0
ARC
5
543
100
AcDbEntity
8
0-8
6
DASHED
62
4
100
AcDbCircle
10
65.303986846948
20
165.200000000000
30
0.0
40
0.300000000000
100
AcDbArc
50
225.000000000000
51
270.000000000000
0
ARC
5
544
100
AcDbEntity
8
0-8
6
DASHED
62
4
100
AcDbCircle
10
64.279722778236
20
166.224264068712
30
0.0
40
0.300000000000
100
AcDbArc
50
180.000000000000
51
225.000000000000
0
ARC
5
545
100
AcDbEntity
8
0-8
6
DASHED
62
4
100
AcDbCircle
10
64.279722778236
20
169.000000000000
30
0.0
40
0.300000000000
100
AcDbArc
50
90.000000000000
51
180.000000000000
0
ARC
5
546
100
AcDbEntity
8
0-8
6
DASHED
62
4
100
AcDbCircle
10
66.079722778236
20
169.600000000000
30
0.0
40
0.300000000000
100
AcDbArc
50
270.000000000000
51
360.000000000000
0
LINE
5
547
100
AcDbEntity
8
0-8
6
DASHED
62
4
100
AcDbLine
10
73.579722778236
20
169.600000000000
30
0.0
11
73.579722778236
21
170.800000000000
31
0.0
0
LINE
5
548
100
AcDbEntity
8
0-8
6
DASHED
62
4
100
AcDbLine
10
75.679722778236
20
169.300000000000
30
0.0
11
73.879722778236
21
169.300000000000
31
0.0
0
LINE
5
549
100
AcDbEntity
8
0-8
6
DASHED
62
4
100
AcDbLine
10
75.979722778236
20
166.224264068712
30
0.0
11
75.979722778236
21
169.000000000000
31
0.0
0
LINE
5
54a
100
AcDbEntity
8
0-8
6
DASHED
62
4
100
AcDbLine
10
74.867590743880
20
164.987867965644
30
0.0
11
75.891854812592
21
166.012132034356
31
0.0
0
LINE
5
54b
100
AcDbEntity
8
0-8
6
DASHED
62
4
100
AcDbLine
10
70.179722778236
20
164.900000000000
30
0.0
11
74.655458709524
21
164.900000000000
31
0.0
0
LINE
5
54c
100
AcDbEntity
8
0-8
6
DASHED
62
4
100
AcDbLine
10
65.303986846948
20
164.900000000000
30
0.0
11
69.779722778236
21
164.900000000000
31
0.0
0
LINE
5
54d
100
AcDbEntity
8
0-8
6
DASHED
62
4
100
AcDbLine
10
64.067590743880
20
166.012132034356
30
0.0
11
65.091854812592
21
164.987867965644
31
0.0
0
LINE
5
54e
100
AcDbEntity
8
0-8
6
DASHED
62
4
100
AcDbLine
10
63.979722778236
20
169.000000000000
30
0.0
11
63.979722778236
21
166.224264068712
31
0.0
0
LINE
5
54f
100
AcDbEntity
8
0-8
6
DASHED
62
4
100
AcDbLine
10
66.079722778236
20
169.300000000000
30
0.0
11
64.279722778236
21
169.300000000000
31
0.0
0
LINE
5
550
100
AcDbEntity
8
0-8
6
DASHED
62
4
100
AcDbLine
10
66.379722778236
20
170.800000000000
30
0.0
11
66.379722778236
21
169.600000000000
31
0.0
0
ARC
5
551
100
AcDbEntity
8
0-8
6
DASHED
62
4
100
AcDbCircle
10
58.479722778236
20
170.100000000000
30
0.0
40
1.000000000000
100
AcDbArc
50
90.000000000000
51
180.000000000000
0
LINE
5
552
100
AcDbEntity
8
0-8
6
DASHED
62
4
100
AcDbLine
10
57.479722778236
20
162.500000000000
30
0.0
11
57.479722778236
21
170.100000000000
31
0.0
0
LINE
5
553
100
AcDbEntity
8
0-8
6
CONTINUOUS
62
7
100
AcDbLine
10
128.912431148747
20
171.100000000000
30
0.0
11
130.604738841147
21
171.100000000000
31
0.0
0
LINE
5
554
100
AcDbEntity
8
0-8
6
CONTINUOUS
62
7
100
AcDbLine
10
73.579722778236
20
171.100000000000
30
0.0
11
75.272030470636
21
171.100000000000
31
0.0
0
ARC
5
555
100
AcDbEntity
8
0-8
6
DASHED
62
4
100
AcDbCircle
10
16.400000000000
20
170.800000000000
30
0.0
40
0.300000000000
100
AcDbArc
50
90.000000000000
51
180.000000000000
0
LINE
5
556
100
AcDbEntity
8
0-8
6
CONTINUOUS
62
7
100
AcDbLine
10
17.792307692400
20
171.100000000000
30
0.0
11
16.100000000000
21
171.100000000000
31
0.0
0
LINE
5
557
100
AcDbEntity
8
0-8
6
DASHED
62
4
100
AcDbLine
10
25.000000000000
20
170.100000000000
30
0.0
11
25.000000000000
21
162.500000000000
31
0.0
0
ARC
5
558
100
AcDbEntity
8
0-8
6
DASHED
62
4
100
AcDbCircle
10
24.000000000000
20
170.100000000000
30
0.0
40
1.000000000000
100
AcDbArc
50
0.000000000000
51
90.000000000000
0
ARC
5
559
100
AcDbEntity
8
0-8
6
DASHED
62
4
100
AcDbCircle
10
8.600000000000
20
170.800000000000
30
0.0
40
0.300000000000
100
AcDbArc
50
0.000000000000
51
90.000000000000
0
ARC
5
55a
100
AcDbEntity
8
0-8
6
DASHED
62
4
100
AcDbCircle
10
17.175735931288
20
165.200000000000
30
0.0
40
0.300000000000
100
AcDbArc
50
270.000000000000
51
315.000000000000
0
ARC
5
55b
100
AcDbEntity
8
0-8
6
DASHED
62
4
100
AcDbCircle
10
16.400000000000
20
169.600000000000
30
0.0
40
0.300000000000
100
AcDbArc
50
180.000000000000
51
270.000000000000
0
ARC
5
55c
100
AcDbEntity
8
0-8
6
DASHED
62
4
100
AcDbCircle
10
18.200000000000
20
169.000000000000
30
0.0
40
0.300000000000
100
AcDbArc
50
0.000000000000
51
90.000000000000
0
ARC
5
55d
100
AcDbEntity
8
0-8
6
DASHED
62
4
100
AcDbCircle
10
18.200000000000
20
166.224264068712
30
0.0
40
0.300000000000
100
AcDbArc
50
315.000000000000
51
360.000000000000
0
ARC
5
55e
100
AcDbEntity
8
0-8
6
DASHED
62
4
100
AcDbCircle
10
7.824264068712
20
165.200000000000
30
0.0
40
0.300000000000
100
AcDbArc
50
225.000000000000
51
270.000000000000
0
ARC
5
55f
100
AcDbEntity
8
0-8
6
DASHED
62
4
100
AcDbCircle
10
6.800000000000
20
166.224264068712
30
0.0
40
0.300000000000
100
AcDbArc
50
180.000000000000
51
225.000000000000
0
ARC
5
560
100
AcDbEntity
8
0-8
6
DASHED
62
4
100
AcDbCircle
10
6.800000000000
20
169.000000000000
30
0.0
40
0.300000000000
100
AcDbArc
50
90.000000000000
51
180.000000000000
0
ARC
5
561
100
AcDbEntity
8
0-8
6
DASHED
62
4
100
AcDbCircle
10
8.600000000000
20
169.600000000000
30
0.0
40
0.300000000000
100
AcDbArc
50
270.000000000000
51
360.000000000000
0
LINE
5
562
100
AcDbEntity
8
0-8
6
DASHED
62
4
100
AcDbLine
10
16.100000000000
20
169.600000000000
30
0.0
11
16.100000000000
21
170.800000000000
31
0.0
0
LINE
5
563
100
AcDbEntity
8
0-8
6
DASHED
62
4
100
AcDbLine
10
18.200000000000
20
169.300000000000
30
0.0
11
16.400000000000
21
169.300000000000
31
0.0
0
LINE
5
564
100
AcDbEntity
8
0-8
6
DASHED
62
4
100
AcDbLine
10
18.500000000000
20
166.224264068712
30
0.0
11
18.500000000000
21
169.000000000000
31
0.0
0
LINE
5
565
100
AcDbEntity
8
0-8
6
DASHED
62
4
100
AcDbLine
10
17.387867965644
20
164.987867965644
30
0.0
11
18.412132034356
21
166.012132034356
31
0.0
0
LINE
5
566
100
AcDbEntity
8
0-8
6
DASHED
62
4
100
AcDbLine
10
12.700000000000
20
164.900000000000
30
0.0
11
17.175735931288
21
164.900000000000
31
0.0
0
LINE
5
567
100
AcDbEntity
8
0-8
6
DASHED
62
4
100
AcDbLine
10
7.824264068712
20
164.900000000000
30
0.0
11
12.300000000000
21
164.900000000000
31
0.0
0
LINE
5
568
100
AcDbEntity
8
0-8
6
DASHED
62
4
100
AcDbLine
10
6.587867965644
20
166.012132034356
30
0.0
11
7.612132034356
21
164.987867965644
31
0.0
0
LINE
5
569
100
AcDbEntity
8
0-8
6
DASHED
62
4
100
AcDbLine
10
6.500000000000
20
169.000000000000
30
0.0
11
6.500000000000
21
166.224264068712
31
0.0
0
LINE
5
56a
100
AcDbEntity
8
0-8
6
DASHED
62
4
100
AcDbLine
10
8.600000000000
20
169.300000000000
30
0.0
11
6.800000000000
21
169.300000000000
31
0.0
0
LINE
5
56b
100
AcDbEntity
8
0-8
6
DASHED
62
4
100
AcDbLine
10
8.900000000000
20
170.800000000000
30
0.0
11
8.900000000000
21
169.600000000000
31
0.0
0
ARC
5
56c
100
AcDbEntity
8
0-8
6
DASHED
62
4
100
AcDbCircle
10
1.000000000000
20
170.100000000000
30
0.0
40
1.000000000000
100
AcDbArc
50
90.000000000000
51
180.000000000000
0
LINE
5
56d
100
AcDbEntity
8
0-8
6
DASHED
62
4
100
AcDbLine
10
0.000000000000
20
162.500000000000
30
0.0
11
0.000000000000
21
170.100000000000
31
0.0
0
LINE
5
56e
100
AcDbEntity
8
0-1
6
CONTINUOUS
62
5
100
AcDbLine
10
126.712431148747
20
177.754922490614
30
0.0
11
126.712431148747
21
165.600000000000
31
0.0
0
POLYLINE
5
56f
100
AcDbEntity
8
0-1
6
CONTINUOUS
62
  5
100
AcDb2dPolyline
66
1
10
0.0
20
0.0
30
0.0
70
0
0
VERTEX
5
570
100
AcDbEntity
8
0-1
6
CONTINUOUS
62
  5
100
AcDbVertex
100
AcDb2dVertex
10
121.712431148747
20
177.754922490614
30
0.0
0
VERTEX
5
571
100
AcDbEntity
8
0-1
6
CONTINUOUS
62
  5
100
AcDbVertex
100
AcDb2dVertex
10
121.712431148747
20
165.600000000000
30
0.0
0
VERTEX
5
572
100
AcDbEntity
8
0-1
6
CONTINUOUS
62
  5
100
AcDbVertex
100
AcDb2dVertex
10
126.712431148747
20
165.600000000000
30
0.0
0
SEQEND
5
573
100
AcDbEntity
8
0-1
0
LINE
5
574
100
AcDbEntity
8
0-8
6
CONTINUOUS
62
7
100
AcDbLine
10
130.604738841147
20
171.563092993773
30
0.0
11
130.604738841147
21
171.100000000000
31
0.0
0
LINE
5
575
100
AcDbEntity
8
0-8
6
CONTINUOUS
62
7
100
AcDbLine
10
128.912431148747
20
171.100000000000
30
0.0
11
128.912431148747
21
169.300000000000
31
0.0
0
ELLIPSE
  5
576
100
AcDbEntity
8
0-8
6
CONTINUOUS
62
7
100
AcDbEllipse
10
124.553707369038
20
170.380792357867
30
0.0
11
0.000000000000
21
4.000000000000
31
0.0
210
0.0
220
0.0
230
1.0
40
0.846153846200
41
3.833237306827
42
4.438790212760
0
ELLIPSE
  5
577
100
AcDbEntity
8
0-8
6
CONTINUOUS
62
7
100
AcDbEllipse
10
126.966277302487
20
170.613200901755
30
0.0
11
0.000000000000
21
1.000000000000
31
0.0
210
0.0
220
0.0
230
1.0
40
0.846153846200
41
4.712388980385
42
5.916011473361
0
LINE
5
578
100
AcDbEntity
8
0-8
6
CONTINUOUS
62
7
100
AcDbLine
10
127.812431148687
20
170.613200901755
30
0.0
11
127.812431148687
21
169.800000000000
31
0.0
0
ELLIPSE
  5
579
100
AcDbEntity
8
0-8
6
CONTINUOUS
62
7
100
AcDbEllipse
10
129.758584994947
20
171.563092993773
30
0.0
11
0.000000000000
21
1.000000000000
31
0.0
210
0.0
220
0.0
230
1.0
40
0.846153846200
41
4.712388980385
42
6.218060143845
0
LINE
5
57a
100
AcDbEntity
8
0-8
6
CONTINUOUS
62
7
100
AcDbLine
10
129.813651957319
20
172.560973099739
30
0.0
11
126.712431148627
21
172.800000000000
31
0.0
0
ELLIPSE
  5
57b
100
AcDbEntity
8
0-8
6
CONTINUOUS
62
7
100
AcDbEllipse
10
124.523782504494
20
171.213832216980
30
0.0
11
0.000000000000
21
6.000000000000
31
0.0
210
0.0
220
0.0
230
1.0
40
0.846153846200
41
3.587301362299
42
4.387744311240
0
LINE
5
57c
100
AcDbEntity
8
0-8
6
CONTINUOUS
62
7
100
AcDbLine
10
126.712431148627
20
170.300000000000
30
0.0
11
127.812431148687
21
169.800000000000
31
0.0
0
LINE
5
57d
100
AcDbEntity
8
0-8
6
CONTINUOUS
62
7
100
AcDbLine
10
128.912431148747
20
169.300000000000
30
0.0
11
129.335508071847
21
169.300000000000
31
0.0
0
POLYLINE
5
57e
100
AcDbEntity
8
0-8
6
CONTINUOUS
62
  7
100
AcDb2dPolyline
66
1
10
0.0
20
0.0
30
0.0
70
0
0
VERTEX
5
57f
100
AcDbEntity
8
0-8
6
CONTINUOUS
62
  7
100
AcDbVertex
100
AcDb2dVertex
10
126.712431148627
20
170.300000000000
30
0.0
0
VERTEX
5
580
100
AcDbEntity
8
0-8
6
CONTINUOUS
62
  7
100
AcDbVertex
100
AcDb2dVertex
10
126.712431148627
20
169.800000000000
30
0.0
0
VERTEX
5
581
100
AcDbEntity
8
0-8
6
CONTINUOUS
62
  7
100
AcDbVertex
100
AcDb2dVertex
10
127.812431148687
20
169.300000000000
30
0.0
0
SEQEND
5
582
100
AcDbEntity
8
0-8
0
LINE
5
583
100
AcDbEntity
8
0-8
6
CONTINUOUS
62
7
100
AcDbLine
10
127.270028831150
20
171.546546507958
30
0.0
11
126.712431148627
21
171.800000000000
31
0.0
0
LINE
5
584
100
AcDbEntity
8
0-1
6
CONTINUOUS
62
5
100
AcDbLine
10
66.379722778236
20
177.754922490614
30
0.0
11
66.379722778236
21
165.600000000000
31
0.0
0
LINE
5
585
100
AcDbEntity
8
0-1
6
CONTINUOUS
62
5
100
AcDbLine
10
69.379722778236
20
177.754922490614
30
0.0
11
69.379722778236
21
165.600000000000
31
0.0
0
LINE
5
586
100
AcDbEntity
8
0-1
6
CONTINUOUS
62
5
100
AcDbLine
10
66.379722778236
20
165.600000000000
30
0.0
11
69.379722778236
21
165.600000000000
31
0.0
0
LINE
5
587
100
AcDbEntity
8
0-8
6
CONTINUOUS
62
7
100
AcDbLine
10
75.272030470636
20
171.563092993773
30
0.0
11
75.272030470636
21
171.100000000000
31
0.0
0
LINE
5
588
100
AcDbEntity
8
0-8
6
CONTINUOUS
62
7
100
AcDbLine
10
73.579722778236
20
171.100000000000
30
0.0
11
73.579722778236
21
169.300000000000
31
0.0
0
ARC
5
589
100
AcDbEntity
8
0-8
6
CONTINUOUS
62
7
100
AcDbCircle
10
69.629722778116
20
170.925000000000
30
0.0
40
0.250000000000
100
AcDbArc
50
90.000000000000
51
270.000000000000
0
ARC
5
58a
100
AcDbEntity
8
0-8
6
CONTINUOUS
62
7
100
AcDbCircle
10
69.629722778116
20
169.300000000000
30
0.0
40
0.250000000000
100
AcDbArc
50
90.000000000000
51
270.000000000000
0
ARC
5
58b
100
AcDbEntity
8
0-8
6
CONTINUOUS
62
7
100
AcDbCircle
10
69.629722778116
20
167.675000000000
30
0.0
40
0.250000000000
100
AcDbArc
50
90.000000000000
51
270.000000000000
0
LINE
5
58c
100
AcDbEntity
8
0-8
6
CONTINUOUS
62
7
100
AcDbLine
10
69.629722778116
20
166.300000000000
30
0.0
11
69.629722778116
21
167.425000000000
31
0.0
0
LINE
5
58d
100
AcDbEntity
8
0-8
6
CONTINUOUS
62
7
100
AcDbLine
10
69.629722778116
20
167.925000000000
30
0.0
11
69.629722778116
21
169.050000000000
31
0.0
0
LINE
5
58e
100
AcDbEntity
8
0-8
6
CONTINUOUS
62
7
100
AcDbLine
10
69.629722778116
20
169.550000000000
30
0.0
11
69.629722778116
21
170.675000000000
31
0.0
0
LINE
5
58f
100
AcDbEntity
8
0-8
6
CONTINUOUS
62
7
100
AcDbLine
10
69.629722778116
20
171.175000000000
30
0.0
11
69.629722778116
21
172.300000000000
31
0.0
0
ARC
5
590
100
AcDbEntity
8
0-8
6
CONTINUOUS
62
7
100
AcDbCircle
10
69.629722778116
20
172.550000000000
30
0.0
40
0.250000000000
100
AcDbArc
50
90.000000000000
51
270.000000000000
0
LINE
5
591
100
AcDbEntity
8
0-8
6
CONTINUOUS
62
7
100
AcDbLine
10
71.379722778116
20
172.800000000000
30
0.0
11
69.629722778116
21
172.800000000000
31
0.0
0
ARC
5
592
100
AcDbEntity
8
0-8
6
CONTINUOUS
62
7
100
AcDbCircle
10
69.629722778116
20
166.050000000000
30
0.0
40
0.250000000000
100
AcDbArc
50
90.000000000000
51
270.000000000000
0
LINE
5
593
100
AcDbEntity
8
0-8
6
CONTINUOUS
62
7
100
AcDbLine
10
69.629722778116
20
165.800000000000
30
0.0
11
71.379722778116
21
165.800000000000
31
0.0
0
ELLIPSE
  5
594
100
AcDbEntity
8
0-8
6
CONTINUOUS
62
7
100
AcDbEllipse
10
69.220998998527
20
170.380792357866
30
0.0
11
0.000000000000
21
4.000000000000
31
0.0
210
0.0
220
0.0
230
1.0
40
0.846153846200
41
3.833237306827
42
4.438790212760
0
ELLIPSE
  5
595
100
AcDbEntity
8
0-8
6
CONTINUOUS
62
7
100
AcDbEllipse
10
71.633568931976
20
170.613200901755
30
0.0
11
0.000000000000
21
1.000000000000
31
0.0
210
0.0
220
0.0
230
1.0
40
0.846153846200
41
4.712388980385
42
5.916011473361
0
LINE
5
596
100
AcDbEntity
8
0-8
6
CONTINUOUS
62
7
100
AcDbLine
10
72.479722778176
20
170.613200901755
30
0.0
11
72.479722778176
21
169.800000000000
31
0.0
0
LINE
5
597
100
AcDbEntity
8
0-8
6
CONTINUOUS
62
7
100
AcDbLine
10
71.937320460639
20
171.546546507958
30
0.0
11
71.379722778116
21
171.800000000000
31
0.0
0
ELLIPSE
  5
598
100
AcDbEntity
8
0-8
6
CONTINUOUS
62
7
100
AcDbEllipse
10
74.425876624436
20
171.563092993773
30
0.0
11
0.000000000000
21
1.000000000000
31
0.0
210
0.0
220
0.0
230
1.0
40
0.846153846200
41
4.712388980385
42
6.218060143845
0
LINE
5
599
100
AcDbEntity
8
0-8
6
CONTINUOUS
62
7
100
AcDbLine
10
74.480943586809
20
172.560973099738
30
0.0
11
71.379722778116
21
172.800000000000
31
0.0
0
ELLIPSE
  5
59a
100
AcDbEntity
8
0-8
6
CONTINUOUS
62
7
100
AcDbEllipse
10
69.191074133984
20
171.213832216980
30
0.0
11
0.000000000000
21
6.000000000000
31
0.0
210
0.0
220
0.0
230
1.0
40
0.846153846200
41
3.587301362299
42
4.387744311240
0
LINE
5
59b
100
AcDbEntity
8
0-8
6
CONTINUOUS
62
7
100
AcDbLine
10
71.379722778116
20
170.300000000000
30
0.0
11
72.479722778176
21
169.800000000000
31
0.0
0
LINE
5
59c
100
AcDbEntity
8
0-8
6
CONTINUOUS
62
7
100
AcDbLine
10
73.579722778236
20
169.300000000000
30
0.0
11
74.002799701336
21
169.300000000000
31
0.0
0
LINE
5
59d
100
AcDbEntity
8
0-8
6
CONTINUOUS
62
7
100
AcDbLine
10
71.379722778116
20
172.800000000000
30
0.0
11
71.379722778116
21
165.800000000000
31
0.0
0
LINE
5
59e
100
AcDbEntity
8
0-8
6
CONTINUOUS
62
7
100
AcDbLine
10
71.379722778116
20
170.300000000000
30
0.0
11
71.379722778116
21
169.800000000000
31
0.0
0
LINE
5
59f
100
AcDbEntity
8
0-8
6
CONTINUOUS
62
7
100
AcDbLine
10
71.379722778116
20
165.800000000000
30
0.0
11
71.464338162736
21
167.383333333333
31
0.0
0
LINE
5
5a0
100
AcDbEntity
8
0-8
6
CONTINUOUS
62
7
100
AcDbLine
10
71.379722778116
20
172.800000000000
30
0.0
11
71.464338162736
21
171.758578643763
31
0.0
0
LINE
5
5a1
100
AcDbEntity
8
0-8
6
CONTINUOUS
62
7
100
AcDbLine
10
71.379722778116
20
169.800000000000
30
0.0
11
72.479722778176
21
169.300000000000
31
0.0
0
LINE
5
5a2
100
AcDbEntity
8
0-1
6
CONTINUOUS
62
5
100
AcDbLine
10
69.329722778236
20
172.550000000000
30
0.0
11
69.019844150380
21
172.550000000000
31
0.0
0
LINE
5
5a3
100
AcDbEntity
8
0-1
6
CONTINUOUS
62
5
100
AcDbLine
10
10.400000000000
20
177.754922490614
30
0.0
11
10.400000000000
21
165.600000000000
31
0.0
0
POLYLINE
5
5a4
100
AcDbEntity
8
0-1
6
CONTINUOUS
62
  5
100
AcDb2dPolyline
66
1
10
0.0
20
0.0
30
0.0
70
0
0
VERTEX
5
5a5
100
AcDbEntity
8
0-1
6
CONTINUOUS
62
  5
100
AcDbVertex
100
AcDb2dVertex
10
8.900000000000
20
177.754922490614
30
0.0
0
VERTEX
5
5a6
100
AcDbEntity
8
0-1
6
CONTINUOUS
62
  5
100
AcDbVertex
100
AcDb2dVertex
10
8.900000000000
20
165.600000000000
30
0.0
0
VERTEX
5
5a7
100
AcDbEntity
8
0-1
6
CONTINUOUS
62
  5
100
AcDbVertex
100
AcDb2dVertex
10
10.400000000000
20
165.600000000000
30
0.0
0
SEQEND
5
5a8
100
AcDbEntity
8
0-1
0
LINE
5
5a9
100
AcDbEntity
8
0-8
6
CONTINUOUS
62
7
100
AcDbLine
10
16.100000000000
20
171.100000000000
30
0.0
11
16.100000000000
21
169.300000000000
31
0.0
0
ARC
5
5aa
100
AcDbEntity
8
0-8
6
CONTINUOUS
62
7
100
AcDbCircle
10
12.149999999880
20
166.050000000000
30
0.0
40
0.250000000000
100
AcDbArc
50
90.000000000000
51
270.000000000000
0
ARC
5
5ab
100
AcDbEntity
8
0-8
6
CONTINUOUS
62
7
100
AcDbCircle
10
12.149999999880
20
172.550000000000
30
0.0
40
0.250000000000
100
AcDbArc
50
90.000000000000
51
270.000000000000
0
LINE
5
5ac
100
AcDbEntity
8
0-8
6
CONTINUOUS
62
7
100
AcDbLine
10
12.149999999880
20
171.175000000000
30
0.0
11
12.149999999880
21
172.300000000000
31
0.0
0
LINE
5
5ad
100
AcDbEntity
8
0-8
6
CONTINUOUS
62
7
100
AcDbLine
10
12.149999999880
20
169.550000000000
30
0.0
11
12.149999999880
21
170.675000000000
31
0.0
0
LINE
5
5ae
100
AcDbEntity
8
0-8
6
CONTINUOUS
62
7
100
AcDbLine
10
12.149999999880
20
167.925000000000
30
0.0
11
12.149999999880
21
169.050000000000
31
0.0
0
LINE
5
5af
100
AcDbEntity
8
0-8
6
CONTINUOUS
62
7
100
AcDbLine
10
12.149999999880
20
166.300000000000
30
0.0
11
12.149999999880
21
167.425000000000
31
0.0
0
ARC
5
5b0
100
AcDbEntity
8
0-8
6
CONTINUOUS
62
7
100
AcDbCircle
10
12.149999999880
20
167.675000000000
30
0.0
40
0.250000000000
100
AcDbArc
50
90.000000000000
51
270.000000000000
0
ARC
5
5b1
100
AcDbEntity
8
0-8
6
CONTINUOUS
62
7
100
AcDbCircle
10
12.149999999880
20
169.300000000000
30
0.0
40
0.250000000000
100
AcDbArc
50
90.000000000000
51
270.000000000000
0
ARC
5
5b2
100
AcDbEntity
8
0-8
6
CONTINUOUS
62
7
100
AcDbCircle
10
12.149999999880
20
170.925000000000
30
0.0
40
0.250000000000
100
AcDbArc
50
90.000000000000
51
270.000000000000
0
ARC
5
5b3
100
AcDbEntity
8
0-8
6
CONTINUOUS
62
7
100
AcDbCircle
10
10.649999999880
20
166.050000000000
30
0.0
40
0.250000000000
100
AcDbArc
50
90.000000000000
51
270.000000000000
0
LINE
5
5b4
100
AcDbEntity
8
0-8
6
CONTINUOUS
62
7
100
AcDbLine
10
10.649999999880
20
165.800000000000
30
0.0
11
13.899999999880
21
165.800000000000
31
0.0
0
ARC
5
5b5
100
AcDbEntity
8
0-8
6
CONTINUOUS
62
7
100
AcDbCircle
10
10.649999999880
20
172.550000000000
30
0.0
40
0.250000000000
100
AcDbArc
50
90.000000000000
51
270.000000000000
0
LINE
5
5b6
100
AcDbEntity
8
0-8
6
CONTINUOUS
62
7
100
AcDbLine
10
10.649999999880
20
171.175000000000
30
0.0
11
10.649999999880
21
172.300000000000
31
0.0
0
LINE
5
5b7
100
AcDbEntity
8
0-8
6
CONTINUOUS
62
7
100
AcDbLine
10
10.649999999880
20
169.550000000000
30
0.0
11
10.649999999880
21
170.675000000000
31
0.0
0
LINE
5
5b8
100
AcDbEntity
8
0-8
6
CONTINUOUS
62
7
100
AcDbLine
10
10.649999999880
20
167.925000000000
30
0.0
11
10.649999999880
21
169.050000000000
31
0.0
0
LINE
5
5b9
100
AcDbEntity
8
0-8
6
CONTINUOUS
62
7
100
AcDbLine
10
10.649999999880
20
166.300000000000
30
0.0
11
10.649999999880
21
167.425000000000
31
0.0
0
ARC
5
5ba
100
AcDbEntity
8
0-8
6
CONTINUOUS
62
7
100
AcDbCircle
10
10.649999999880
20
167.675000000000
30
0.0
40
0.250000000000
100
AcDbArc
50
90.000000000000
51
270.000000000000
0
ARC
5
5bb
100
AcDbEntity
8
0-8
6
CONTINUOUS
62
7
100
AcDbCircle
10
10.649999999880
20
169.300000000000
30
0.0
40
0.250000000000
100
AcDbArc
50
90.000000000000
51
270.000000000000
0
ARC
5
5bc
100
AcDbEntity
8
0-8
6
CONTINUOUS
62
7
100
AcDbCircle
10
10.649999999880
20
170.925000000000
30
0.0
40
0.250000000000
100
AcDbArc
50
90.000000000000
51
270.000000000000
0
LINE
5
5bd
100
AcDbEntity
8
0-8
6
CONTINUOUS
62
7
100
AcDbLine
10
11.899999999880
20
172.800000000000
30
0.0
11
11.899999999880
21
165.800000000000
31
0.0
0
ELLIPSE
  5
5be
100
AcDbEntity
8
0-8
6
CONTINUOUS
62
7
100
AcDbEllipse
10
11.741276220291
20
170.380792357867
30
0.0
11
0.000000000000
21
4.000000000000
31
0.0
210
0.0
220
0.0
230
1.0
40
0.846153846200
41
3.833237306827
42
4.438790212760
0
ELLIPSE
  5
5bf
100
AcDbEntity
8
0-8
6
CONTINUOUS
62
7
100
AcDbEllipse
10
14.153846153740
20
170.613200901755
30
0.0
11
0.000000000000
21
1.000000000000
31
0.0
210
0.0
220
0.0
230
1.0
40
0.846153846200
41
4.712388980385
42
5.916011473361
0
LINE
5
5c0
100
AcDbEntity
8
0-8
6
CONTINUOUS
62
7
100
AcDbLine
10
14.999999999940
20
170.613200901755
30
0.0
11
14.999999999940
21
169.800000000000
31
0.0
0
ELLIPSE
  5
5c1
100
AcDbEntity
8
0-8
6
CONTINUOUS
62
7
100
AcDbEllipse
10
16.946153846200
20
171.563092993773
30
0.0
11
0.000000000000
21
1.000000000000
31
0.0
210
0.0
220
0.0
230
1.0
40
0.846153846200
41
4.712388980385
42
6.218060143845
0
ELLIPSE
  5
5c2
100
AcDbEntity
8
0-8
6
CONTINUOUS
62
7
100
AcDbEllipse
10
11.711351355747
20
171.213832216980
30
0.0
11
0.000000000000
21
6.000000000000
31
0.0
210
0.0
220
0.0
230
1.0
40
0.846153846200
41
3.587301362299
42
4.387744311240
0
LINE
5
5c3
100
AcDbEntity
8
0-8
6
CONTINUOUS
62
7
100
AcDbLine
10
13.899999999880
20
170.300000000000
30
0.0
11
14.999999999940
21
169.800000000000
31
0.0
0
LINE
5
5c4
100
AcDbEntity
8
0-8
6
CONTINUOUS
62
7
100
AcDbLine
10
16.100000000000
20
169.300000000000
30
0.0
11
16.523076923100
21
169.300000000000
31
0.0
0
LINE
5
5c5
100
AcDbEntity
8
0-8
6
CONTINUOUS
62
7
100
AcDbLine
10
13.899999999880
20
170.300000000000
30
0.0
11
13.899999999880
21
169.800000000000
31
0.0
0
LINE
5
5c6
100
AcDbEntity
8
0-8
6
CONTINUOUS
62
7
100
AcDbLine
10
13.899999999880
20
165.800000000000
30
0.0
11
13.984615384500
21
167.383333333334
31
0.0
0
LINE
5
5c7
100
AcDbEntity
8
0-8
6
CONTINUOUS
62
7
100
AcDbLine
10
13.899999999880
20
169.800000000000
30
0.0
11
14.999999999940
21
169.300000000000
31
0.0
0
LINE
5
5c8
100
AcDbEntity
8
0-0
6
CONTINUOUS
62
7
100
AcDbLine
10
12.500000000000
20
164.700000000000
30
0.0
11
12.700000000000
21
164.900000000000
31
0.0
0
LINE
5
5c9
100
AcDbEntity
8
0-0
6
CONTINUOUS
62
7
100
AcDbLine
10
12.300000000000
20
164.900000000000
30
0.0
11
12.500000000000
21
164.700000000000
31
0.0
0
MTEXT
5
5ca
100
AcDbEntity
8
0-1
62
7
370
-3
100
AcDbMText
10
383.221
20
184.601
30
0.0
40
3.974
41
0.000
71
7
72
1
1
\W0.972;{\W0.700;t4}用
7
STANDARD
11
1.00000
21
0.00000
31
0.0
0
MTEXT
5
5cb
100
AcDbEntity
8
0-1
62
7
370
-3
100
AcDbMText
10
315.286
20
183.798
30
0.0
40
3.974
41
0.000
71
7
72
1
1
\W0.972;{\W0.700;t3}用
7
STANDARD
11
1.00000
21
0.00000
31
0.0
0
MTEXT
5
5cc
100
AcDbEntity
8
0-1
62
7
370
-3
100
AcDbMText
10
240.298
20
183.729
30
0.0
40
3.974
41
0.000
71
7
72
1
1
\W0.972;{\W0.700;t1.5}用
7
STANDARD
11
1.00000
21
0.00000
31
0.0
0
LINE
5
5cd
100
AcDbEntity
8
0-1
6
PHANTOM
62
4
100
AcDbLine
10
394.200000000000
20
157.700000000000
30
0.0
11
394.200000000000
21
167.300000000000
31
0.0
0
LINE
5
5ce
100
AcDbEntity
8
0-1
6
PHANTOM
62
4
100
AcDbLine
10
393.000000000000
20
168.500000000000
30
0.0
11
394.200000000000
21
167.300000000000
31
0.0
0
LINE
5
5cf
100
AcDbEntity
8
0-1
6
PHANTOM
62
4
100
AcDbLine
10
393.000000000000
20
168.500000000000
30
0.0
11
389.800000000000
21
168.500000000000
31
0.0
0
LINE
5
5d0
100
AcDbEntity
8
0-1
6
PHANTOM
62
4
100
AcDbLine
10
389.800000000000
20
166.100000000000
30
0.0
11
389.800000000000
21
168.500000000000
31
0.0
0
LINE
5
5d1
100
AcDbEntity
8
0-1
6
PHANTOM
62
4
100
AcDbLine
10
389.800000000000
20
166.100000000000
30
0.0
11
388.000000000000
21
166.100000000000
31
0.0
0
LINE
5
5d2
100
AcDbEntity
8
0-1
6
PHANTOM
62
4
100
AcDbLine
10
388.000000000000
20
175.000000000000
30
0.0
11
388.000000000000
21
166.100000000000
31
0.0
0
LINE
5
5d3
100
AcDbEntity
8
0-1
6
PHANTOM
62
4
100
AcDbLine
10
396.900000000000
20
173.200000000000
30
0.0
11
396.900000000000
21
175.000000000000
31
0.0
0
LINE
5
5d4
100
AcDbEntity
8
0-1
6
PHANTOM
62
4
100
AcDbLine
10
394.500000000000
20
173.200000000000
30
0.0
11
396.900000000000
21
173.200000000000
31
0.0
0
LINE
5
5d5
100
AcDbEntity
8
0-1
6
PHANTOM
62
4
100
AcDbLine
10
394.500000000000
20
170.000000000000
30
0.0
11
394.500000000000
21
173.200000000000
31
0.0
0
LINE
5
5d6
100
AcDbEntity
8
0-1
6
PHANTOM
62
4
100
AcDbLine
10
395.700000000000
20
168.800000000000
30
0.0
11
394.500000000000
21
170.000000000000
31
0.0
0
LINE
5
5d7
100
AcDbEntity
8
0-1
6
PHANTOM
62
4
100
AcDbLine
10
405.300000000000
20
168.800000000000
30
0.0
11
395.700000000000
21
168.800000000000
31
0.0
0
LINE
5
5d8
100
AcDbEntity
8
0-1
6
PHANTOM
62
4
100
AcDbLine
10
406.500000000000
20
170.000000000001
30
0.0
11
405.300000000000
21
168.800000000000
31
0.0
0
LINE
5
5d9
100
AcDbEntity
8
0-1
6
PHANTOM
62
4
100
AcDbLine
10
406.500000000000
20
173.200000000000
30
0.0
11
406.500000000000
21
170.000000000001
31
0.0
0
LINE
5
5da
100
AcDbEntity
8
0-1
6
PHANTOM
62
4
100
AcDbLine
10
404.100000000000
20
173.200000000000
30
0.0
11
406.500000000000
21
173.200000000000
31
0.0
0
LINE
5
5db
100
AcDbEntity
8
0-1
6
PHANTOM
62
4
100
AcDbLine
10
404.100000000000
20
173.200000000000
30
0.0
11
404.100000000000
21
175.000000000000
31
0.0
0
LINE
5
5dc
100
AcDbEntity
8
0-1
6
PHANTOM
62
4
100
AcDbLine
10
413.000000000000
20
166.100000000000
30
0.0
11
413.000000000000
21
175.000000000000
31
0.0
0
LINE
5
5dd
100
AcDbEntity
8
0-1
6
PHANTOM
62
4
100
AcDbLine
10
413.000000000000
20
166.100000000000
30
0.0
11
411.200000000000
21
166.100000000000
31
0.0
0
LINE
5
5de
100
AcDbEntity
8
0-1
6
PHANTOM
62
4
100
AcDbLine
10
411.200000000000
20
168.500000000000
30
0.0
11
411.200000000000
21
166.100000000000
31
0.0
0
LINE
5
5df
100
AcDbEntity
8
0-1
6
PHANTOM
62
4
100
AcDbLine
10
408.000000000000
20
168.500000000000
30
0.0
11
411.200000000000
21
168.500000000000
31
0.0
0
LINE
5
5e0
100
AcDbEntity
8
0-1
6
PHANTOM
62
4
100
AcDbLine
10
406.800000000000
20
167.300000000000
30
0.0
11
408.000000000000
21
168.500000000000
31
0.0
0
LINE
5
5e1
100
AcDbEntity
8
0-1
6
PHANTOM
62
4
100
AcDbLine
10
406.800000000000
20
157.700000000000
30
0.0
11
406.800000000000
21
167.300000000000
31
0.0
0
LINE
5
5e2
100
AcDbEntity
8
0-1
6
PHANTOM
62
4
100
AcDbLine
10
406.800000000000
20
157.700000000000
30
0.0
11
408.000000000000
21
156.500000000000
31
0.0
0
LINE
5
5e3
100
AcDbEntity
8
0-1
6
PHANTOM
62
4
100
AcDbLine
10
411.200000000000
20
156.500000000000
30
0.0
11
408.000000000000
21
156.500000000000
31
0.0
0
LINE
5
5e4
100
AcDbEntity
8
0-1
6
PHANTOM
62
4
100
AcDbLine
10
411.200000000000
20
158.900000000000
30
0.0
11
411.200000000000
21
156.500000000000
31
0.0
0
LINE
5
5e5
100
AcDbEntity
8
0-1
6
PHANTOM
62
4
100
AcDbLine
10
411.200000000000
20
158.900000000000
30
0.0
11
413.000000000000
21
158.900000000000
31
0.0
0
LINE
5
5e6
100
AcDbEntity
8
0-1
6
PHANTOM
62
4
100
AcDbLine
10
413.000000000000
20
150.000000000000
30
0.0
11
413.000000000000
21
158.900000000000
31
0.0
0
LINE
5
5e7
100
AcDbEntity
8
0-1
6
PHANTOM
62
4
100
AcDbLine
10
404.100000000000
20
150.000000000000
30
0.0
11
413.000000000000
21
150.000000000000
31
0.0
0
LINE
5
5e8
100
AcDbEntity
8
0-1
6
PHANTOM
62
4
100
AcDbLine
10
404.100000000000
20
151.800000000000
30
0.0
11
404.100000000000
21
150.000000000000
31
0.0
0
LINE
5
5e9
100
AcDbEntity
8
0-1
6
PHANTOM
62
4
100
AcDbLine
10
404.100000000000
20
151.800000000000
30
0.0
11
406.500000000000
21
151.800000000000
31
0.0
0
LINE
5
5ea
100
AcDbEntity
8
0-1
6
PHANTOM
62
4
100
AcDbLine
10
406.500000000000
20
155.000000000000
30
0.0
11
406.500000000000
21
151.800000000000
31
0.0
0
LINE
5
5eb
100
AcDbEntity
8
0-1
6
PHANTOM
62
4
100
AcDbLine
10
405.300000000000
20
156.200000000000
30
0.0
11
406.500000000000
21
155.000000000000
31
0.0
0
LINE
5
5ec
100
AcDbEntity
8
0-1
6
PHANTOM
62
4
100
AcDbLine
10
395.700000000000
20
156.200000000000
30
0.0
11
394.500000000000
21
155.000000000000
31
0.0
0
LINE
5
5ed
100
AcDbEntity
8
0-1
6
PHANTOM
62
4
100
AcDbLine
10
394.500000000000
20
151.800000000000
30
0.0
11
394.500000000000
21
155.000000000000
31
0.0
0
LINE
5
5ee
100
AcDbEntity
8
0-1
6
PHANTOM
62
4
100
AcDbLine
10
393.000000000000
20
156.500000000000
30
0.0
11
394.200000000000
21
157.700000000000
31
0.0
0
LINE
5
5ef
100
AcDbEntity
8
0-1
6
PHANTOM
62
4
100
AcDbLine
10
389.800000000000
20
158.900000000000
30
0.0
11
389.800000000000
21
156.500000000000
31
0.0
0
LINE
5
5f0
100
AcDbEntity
8
0-1
6
PHANTOM
62
4
100
AcDbLine
10
388.000000000000
20
158.900000000000
30
0.0
11
389.800000000000
21
158.900000000000
31
0.0
0
LINE
5
5f1
100
AcDbEntity
8
0-1
6
PHANTOM
62
4
100
AcDbLine
10
388.000000000000
20
150.000000000000
30
0.0
11
388.000000000000
21
158.900000000000
31
0.0
0
LINE
5
5f2
100
AcDbEntity
8
0-1
6
PHANTOM
62
4
100
AcDbLine
10
396.900000000000
20
150.000000000000
30
0.0
11
388.000000000000
21
150.000000000000
31
0.0
0
LINE
5
5f3
100
AcDbEntity
8
0-1
6
PHANTOM
62
4
100
AcDbLine
10
396.900000000000
20
151.800000000000
30
0.0
11
394.500000000000
21
151.800000000000
31
0.0
0
LINE
5
5f4
100
AcDbEntity
8
0-1
6
PHANTOM
62
4
100
AcDbLine
10
396.900000000000
20
151.800000000000
30
0.0
11
396.900000000000
21
150.000000000000
31
0.0
0
LINE
5
5f5
100
AcDbEntity
8
0-1
6
PHANTOM
62
4
100
AcDbLine
10
389.800000000000
20
156.500000000000
30
0.0
11
393.000000000000
21
156.500000000000
31
0.0
0
LINE
5
5f6
100
AcDbEntity
8
0-1
6
PHANTOM
62
4
100
AcDbLine
10
325.200000000000
20
157.700000000000
30
0.0
11
325.200000000000
21
167.300000000000
31
0.0
0
LINE
5
5f7
100
AcDbEntity
8
0-1
6
PHANTOM
62
4
100
AcDbLine
10
324.000000000000
20
168.500000000000
30
0.0
11
325.200000000000
21
167.300000000000
31
0.0
0
LINE
5
5f8
100
AcDbEntity
8
0-1
6
PHANTOM
62
4
100
AcDbLine
10
324.000000000000
20
168.500000000000
30
0.0
11
320.800000000000
21
168.500000000000
31
0.0
0
LINE
5
5f9
100
AcDbEntity
8
0-1
6
PHANTOM
62
4
100
AcDbLine
10
320.800000000000
20
166.100000000000
30
0.0
11
320.800000000000
21
168.500000000000
31
0.0
0
LINE
5
5fa
100
AcDbEntity
8
0-1
6
PHANTOM
62
4
100
AcDbLine
10
320.800000000000
20
166.100000000000
30
0.0
11
319.000000000000
21
166.100000000000
31
0.0
0
LINE
5
5fb
100
AcDbEntity
8
0-1
6
PHANTOM
62
4
100
AcDbLine
10
319.000000000000
20
175.000000000000
30
0.0
11
319.000000000000
21
166.100000000000
31
0.0
0
LINE
5
5fc
100
AcDbEntity
8
0-1
6
PHANTOM
62
4
100
AcDbLine
10
327.900000000000
20
173.200000000000
30
0.0
11
327.900000000000
21
175.000000000000
31
0.0
0
LINE
5
5fd
100
AcDbEntity
8
0-1
6
PHANTOM
62
4
100
AcDbLine
10
325.500000000000
20
173.200000000000
30
0.0
11
327.900000000000
21
173.200000000000
31
0.0
0
LINE
5
5fe
100
AcDbEntity
8
0-1
6
PHANTOM
62
4
100
AcDbLine
10
325.500000000000
20
170.000000000000
30
0.0
11
325.500000000000
21
173.200000000000
31
0.0
0
LINE
5
5ff
100
AcDbEntity
8
0-1
6
PHANTOM
62
4
100
AcDbLine
10
326.700000000000
20
168.800000000000
30
0.0
11
325.500000000000
21
170.000000000000
31
0.0
0
LINE
5
600
100
AcDbEntity
8
0-1
6
PHANTOM
62
4
100
AcDbLine
10
336.300000000000
20
168.800000000000
30
0.0
11
326.700000000000
21
168.800000000000
31
0.0
0
LINE
5
601
100
AcDbEntity
8
0-1
6
PHANTOM
62
4
100
AcDbLine
10
337.500000000000
20
170.000000000000
30
0.0
11
336.300000000000
21
168.800000000000
31
0.0
0
LINE
5
602
100
AcDbEntity
8
0-1
6
PHANTOM
62
4
100
AcDbLine
10
337.500000000000
20
173.200000000000
30
0.0
11
337.500000000000
21
170.000000000000
31
0.0
0
LINE
5
603
100
AcDbEntity
8
0-1
6
PHANTOM
62
4
100
AcDbLine
10
335.100000000000
20
173.200000000000
30
0.0
11
337.500000000000
21
173.200000000000
31
0.0
0
LINE
5
604
100
AcDbEntity
8
0-1
6
PHANTOM
62
4
100
AcDbLine
10
335.100000000000
20
173.200000000000
30
0.0
11
335.100000000000
21
175.000000000000
31
0.0
0
LINE
5
605
100
AcDbEntity
8
0-1
6
PHANTOM
62
4
100
AcDbLine
10
344.000000000000
20
166.100000000000
30
0.0
11
344.000000000000
21
175.000000000000
31
0.0
0
LINE
5
606
100
AcDbEntity
8
0-1
6
PHANTOM
62
4
100
AcDbLine
10
344.000000000000
20
166.100000000000
30
0.0
11
342.200000000000
21
166.100000000000
31
0.0
0
LINE
5
607
100
AcDbEntity
8
0-1
6
PHANTOM
62
4
100
AcDbLine
10
342.200000000000
20
168.500000000000
30
0.0
11
342.200000000000
21
166.100000000000
31
0.0
0
LINE
5
608
100
AcDbEntity
8
0-1
6
PHANTOM
62
4
100
AcDbLine
10
339.000000000000
20
168.500000000000
30
0.0
11
342.200000000000
21
168.500000000000
31
0.0
0
LINE
5
609
100
AcDbEntity
8
0-1
6
PHANTOM
62
4
100
AcDbLine
10
337.800000000000
20
167.300000000000
30
0.0
11
339.000000000000
21
168.500000000000
31
0.0
0
LINE
5
60a
100
AcDbEntity
8
0-1
6
PHANTOM
62
4
100
AcDbLine
10
337.800000000000
20
157.700000000000
30
0.0
11
337.800000000000
21
167.300000000000
31
0.0
0
LINE
5
60b
100
AcDbEntity
8
0-1
6
PHANTOM
62
4
100
AcDbLine
10
337.800000000000
20
157.700000000000
30
0.0
11
339.000000000000
21
156.500000000000
31
0.0
0
LINE
5
60c
100
AcDbEntity
8
0-1
6
PHANTOM
62
4
100
AcDbLine
10
342.200000000000
20
156.500000000000
30
0.0
11
339.000000000000
21
156.500000000000
31
0.0
0
LINE
5
60d
100
AcDbEntity
8
0-1
6
PHANTOM
62
4
100
AcDbLine
10
342.200000000000
20
158.900000000000
30
0.0
11
342.200000000000
21
156.500000000000
31
0.0
0
LINE
5
60e
100
AcDbEntity
8
0-1
6
PHANTOM
62
4
100
AcDbLine
10
342.200000000000
20
158.900000000000
30
0.0
11
344.000000000000
21
158.900000000000
31
0.0
0
LINE
5
60f
100
AcDbEntity
8
0-1
6
PHANTOM
62
4
100
AcDbLine
10
344.000000000000
20
150.000000000000
30
0.0
11
344.000000000000
21
158.900000000000
31
0.0
0
LINE
5
610
100
AcDbEntity
8
0-1
6
PHANTOM
62
4
100
AcDbLine
10
335.100000000000
20
150.000000000000
30
0.0
11
344.000000000000
21
150.000000000000
31
0.0
0
LINE
5
611
100
AcDbEntity
8
0-1
6
PHANTOM
62
4
100
AcDbLine
10
335.100000000000
20
151.800000000000
30
0.0
11
335.100000000000
21
150.000000000000
31
0.0
0
LINE
5
612
100
AcDbEntity
8
0-1
6
PHANTOM
62
4
100
AcDbLine
10
335.100000000000
20
151.800000000000
30
0.0
11
337.500000000000
21
151.800000000000
31
0.0
0
LINE
5
613
100
AcDbEntity
8
0-1
6
PHANTOM
62
4
100
AcDbLine
10
337.500000000000
20
154.999999999999
30
0.0
11
337.500000000000
21
151.800000000000
31
0.0
0
LINE
5
614
100
AcDbEntity
8
0-1
6
PHANTOM
62
4
100
AcDbLine
10
336.300000000000
20
156.200000000000
30
0.0
11
337.500000000000
21
154.999999999999
31
0.0
0
LINE
5
615
100
AcDbEntity
8
0-1
6
PHANTOM
62
4
100
AcDbLine
10
326.700000000000
20
156.200000000000
30
0.0
11
325.500000000000
21
155.000000000000
31
0.0
0
LINE
5
616
100
AcDbEntity
8
0-1
6
PHANTOM
62
4
100
AcDbLine
10
325.500000000000
20
151.800000000000
30
0.0
11
325.500000000000
21
155.000000000000
31
0.0
0
LINE
5
617
100
AcDbEntity
8
0-1
6
PHANTOM
62
4
100
AcDbLine
10
324.000000000000
20
156.500000000000
30
0.0
11
325.200000000000
21
157.700000000000
31
0.0
0
LINE
5
618
100
AcDbEntity
8
0-1
6
PHANTOM
62
4
100
AcDbLine
10
320.800000000000
20
158.900000000000
30
0.0
11
320.800000000000
21
156.500000000000
31
0.0
0
LINE
5
619
100
AcDbEntity
8
0-1
6
PHANTOM
62
4
100
AcDbLine
10
319.000000000000
20
158.900000000000
30
0.0
11
320.800000000000
21
158.900000000000
31
0.0
0
LINE
5
61a
100
AcDbEntity
8
0-1
6
PHANTOM
62
4
100
AcDbLine
10
319.000000000000
20
150.000000000000
30
0.0
11
319.000000000000
21
158.900000000000
31
0.0
0
LINE
5
61b
100
AcDbEntity
8
0-1
6
PHANTOM
62
4
100
AcDbLine
10
327.900000000000
20
150.000000000000
30
0.0
11
319.000000000000
21
150.000000000000
31
0.0
0
LINE
5
61c
100
AcDbEntity
8
0-1
6
PHANTOM
62
4
100
AcDbLine
10
327.900000000000
20
151.800000000000
30
0.0
11
325.500000000000
21
151.800000000000
31
0.0
0
LINE
5
61d
100
AcDbEntity
8
0-1
6
PHANTOM
62
4
100
AcDbLine
10
327.900000000000
20
151.800000000000
30
0.0
11
327.900000000000
21
150.000000000000
31
0.0
0
LINE
5
61e
100
AcDbEntity
8
0-1
6
PHANTOM
62
4
100
AcDbLine
10
320.800000000000
20
156.500000000000
30
0.0
11
324.000000000000
21
156.500000000000
31
0.0
0
LINE
5
61f
100
AcDbEntity
8
0-1
6
PHANTOM
62
4
100
AcDbLine
10
256.200000000000
20
157.700000000000
30
0.0
11
256.200000000000
21
167.300000000000
31
0.0
0
LINE
5
620
100
AcDbEntity
8
0-1
6
PHANTOM
62
4
100
AcDbLine
10
255.000000000000
20
168.500000000000
30
0.0
11
256.200000000000
21
167.300000000000
31
0.0
0
LINE
5
621
100
AcDbEntity
8
0-1
6
PHANTOM
62
4
100
AcDbLine
10
255.000000000000
20
168.500000000000
30
0.0
11
251.800000000000
21
168.500000000000
31
0.0
0
LINE
5
622
100
AcDbEntity
8
0-1
6
PHANTOM
62
4
100
AcDbLine
10
251.800000000000
20
166.100000000000
30
0.0
11
251.800000000000
21
168.500000000000
31
0.0
0
LINE
5
623
100
AcDbEntity
8
0-1
6
PHANTOM
62
4
100
AcDbLine
10
251.800000000000
20
166.100000000000
30
0.0
11
250.000000000000
21
166.100000000000
31
0.0
0
LINE
5
624
100
AcDbEntity
8
0-1
6
PHANTOM
62
4
100
AcDbLine
10
250.000000000000
20
175.000000000000
30
0.0
11
250.000000000000
21
166.100000000000
31
0.0
0
LINE
5
625
100
AcDbEntity
8
0-1
6
PHANTOM
62
4
100
AcDbLine
10
258.900000000000
20
173.200000000000
30
0.0
11
258.900000000000
21
175.000000000000
31
0.0
0
LINE
5
626
100
AcDbEntity
8
0-1
6
PHANTOM
62
4
100
AcDbLine
10
256.500000000000
20
173.200000000000
30
0.0
11
258.900000000000
21
173.200000000000
31
0.0
0
LINE
5
627
100
AcDbEntity
8
0-1
6
PHANTOM
62
4
100
AcDbLine
10
256.500000000000
20
170.000000000000
30
0.0
11
256.500000000000
21
173.200000000000
31
0.0
0
LINE
5
628
100
AcDbEntity
8
0-1
6
PHANTOM
62
4
100
AcDbLine
10
257.700000000000
20
168.800000000000
30
0.0
11
256.500000000000
21
170.000000000000
31
0.0
0
LINE
5
629
100
AcDbEntity
8
0-1
6
PHANTOM
62
4
100
AcDbLine
10
267.300000000000
20
168.800000000000
30
0.0
11
257.700000000000
21
168.800000000000
31
0.0
0
LINE
5
62a
100
AcDbEntity
8
0-1
6
PHANTOM
62
4
100
AcDbLine
10
268.500000000000
20
170.000000000001
30
0.0
11
267.300000000000
21
168.800000000000
31
0.0
0
LINE
5
62b
100
AcDbEntity
8
0-1
6
PHANTOM
62
4
100
AcDbLine
10
268.500000000000
20
173.200000000000
30
0.0
11
268.500000000000
21
170.000000000001
31
0.0
0
LINE
5
62c
100
AcDbEntity
8
0-1
6
PHANTOM
62
4
100
AcDbLine
10
266.100000000000
20
173.200000000000
30
0.0
11
268.500000000000
21
173.200000000000
31
0.0
0
LINE
5
62d
100
AcDbEntity
8
0-1
6
PHANTOM
62
4
100
AcDbLine
10
266.100000000000
20
173.200000000000
30
0.0
11
266.100000000000
21
175.000000000000
31
0.0
0
LINE
5
62e
100
AcDbEntity
8
0-1
6
PHANTOM
62
4
100
AcDbLine
10
275.000000000000
20
166.100000000000
30
0.0
11
275.000000000000
21
175.000000000000
31
0.0
0
LINE
5
62f
100
AcDbEntity
8
0-1
6
PHANTOM
62
4
100
AcDbLine
10
275.000000000000
20
166.100000000000
30
0.0
11
273.200000000000
21
166.100000000000
31
0.0
0
LINE
5
630
100
AcDbEntity
8
0-1
6
PHANTOM
62
4
100
AcDbLine
10
273.200000000000
20
168.500000000000
30
0.0
11
273.200000000000
21
166.100000000000
31
0.0
0
LINE
5
631
100
AcDbEntity
8
0-1
6
PHANTOM
62
4
100
AcDbLine
10
270.000000000000
20
168.500000000000
30
0.0
11
273.200000000000
21
168.500000000000
31
0.0
0
LINE
5
632
100
AcDbEntity
8
0-1
6
PHANTOM
62
4
100
AcDbLine
10
268.800000000000
20
167.300000000000
30
0.0
11
270.000000000000
21
168.500000000000
31
0.0
0
LINE
5
633
100
AcDbEntity
8
0-1
6
PHANTOM
62
4
100
AcDbLine
10
268.800000000000
20
157.700000000000
30
0.0
11
268.800000000000
21
167.300000000000
31
0.0
0
LINE
5
634
100
AcDbEntity
8
0-1
6
PHANTOM
62
4
100
AcDbLine
10
268.800000000000
20
157.700000000000
30
0.0
11
270.000000000000
21
156.500000000000
31
0.0
0
LINE
5
635
100
AcDbEntity
8
0-1
6
PHANTOM
62
4
100
AcDbLine
10
273.200000000000
20
156.500000000000
30
0.0
11
270.000000000000
21
156.500000000000
31
0.0
0
LINE
5
636
100
AcDbEntity
8
0-1
6
PHANTOM
62
4
100
AcDbLine
10
273.200000000000
20
158.900000000000
30
0.0
11
273.200000000000
21
156.500000000000
31
0.0
0
LINE
5
637
100
AcDbEntity
8
0-1
6
PHANTOM
62
4
100
AcDbLine
10
273.200000000000
20
158.900000000000
30
0.0
11
275.000000000000
21
158.900000000000
31
0.0
0
LINE
5
638
100
AcDbEntity
8
0-1
6
PHANTOM
62
4
100
AcDbLine
10
275.000000000000
20
150.000000000000
30
0.0
11
275.000000000000
21
158.900000000000
31
0.0
0
LINE
5
639
100
AcDbEntity
8
0-1
6
PHANTOM
62
4
100
AcDbLine
10
266.100000000000
20
150.000000000000
30
0.0
11
275.000000000000
21
150.000000000000
31
0.0
0
LINE
5
63a
100
AcDbEntity
8
0-1
6
PHANTOM
62
4
100
AcDbLine
10
266.100000000000
20
151.800000000000
30
0.0
11
266.100000000000
21
150.000000000000
31
0.0
0
LINE
5
63b
100
AcDbEntity
8
0-1
6
PHANTOM
62
4
100
AcDbLine
10
266.100000000000
20
151.800000000000
30
0.0
11
268.500000000000
21
151.800000000000
31
0.0
0
LINE
5
63c
100
AcDbEntity
8
0-1
6
PHANTOM
62
4
100
AcDbLine
10
268.500000000000
20
155.000000000000
30
0.0
11
268.500000000000
21
151.800000000000
31
0.0
0
LINE
5
63d
100
AcDbEntity
8
0-1
6
PHANTOM
62
4
100
AcDbLine
10
267.300000000000
20
156.200000000000
30
0.0
11
268.500000000000
21
155.000000000000
31
0.0
0
LINE
5
63e
100
AcDbEntity
8
0-1
6
PHANTOM
62
4
100
AcDbLine
10
257.700000000000
20
156.200000000000
30
0.0
11
256.500000000000
21
155.000000000000
31
0.0
0
LINE
5
63f
100
AcDbEntity
8
0-1
6
PHANTOM
62
4
100
AcDbLine
10
256.500000000000
20
151.800000000000
30
0.0
11
256.500000000000
21
155.000000000000
31
0.0
0
LINE
5
640
100
AcDbEntity
8
0-1
6
PHANTOM
62
4
100
AcDbLine
10
255.000000000000
20
156.500000000000
30
0.0
11
256.200000000000
21
157.700000000000
31
0.0
0
LINE
5
641
100
AcDbEntity
8
0-1
6
PHANTOM
62
4
100
AcDbLine
10
251.800000000000
20
158.900000000000
30
0.0
11
251.800000000000
21
156.500000000000
31
0.0
0
LINE
5
642
100
AcDbEntity
8
0-1
6
PHANTOM
62
4
100
AcDbLine
10
250.000000000000
20
158.900000000000
30
0.0
11
251.800000000000
21
158.900000000000
31
0.0
0
LINE
5
643
100
AcDbEntity
8
0-1
6
PHANTOM
62
4
100
AcDbLine
10
250.000000000000
20
150.000000000000
30
0.0
11
250.000000000000
21
158.900000000000
31
0.0
0
LINE
5
644
100
AcDbEntity
8
0-1
6
PHANTOM
62
4
100
AcDbLine
10
258.900000000000
20
150.000000000000
30
0.0
11
250.000000000000
21
150.000000000000
31
0.0
0
LINE
5
645
100
AcDbEntity
8
0-1
6
PHANTOM
62
4
100
AcDbLine
10
258.900000000000
20
151.800000000000
30
0.0
11
256.500000000000
21
151.800000000000
31
0.0
0
LINE
5
646
100
AcDbEntity
8
0-1
6
PHANTOM
62
4
100
AcDbLine
10
258.900000000000
20
151.800000000000
30
0.0
11
258.900000000000
21
150.000000000000
31
0.0
0
LINE
5
647
100
AcDbEntity
8
0-1
6
PHANTOM
62
4
100
AcDbLine
10
251.800000000000
20
156.500000000000
30
0.0
11
255.000000000000
21
156.500000000000
31
0.0
0
ARC
5
648
100
AcDbEntity
8
0-0
6
CONTINUOUS
62
7
100
AcDbCircle
10
399.016600609361
20
175.196736498676
30
0.0
40
6.000000000000
100
AcDbArc
50
288.294414442901
51
338.523305014706
0
ARC
5
649
100
AcDbEntity
8
0-0
6
CONTINUOUS
62
7
100
AcDbCircle
10
397.816820276498
20
175.431310803891
30
0.0
40
5.398380557917
100
AcDbArc
50
309.541934649401
51
332.379745266503
0
ARC
5
64a
100
AcDbEntity
8
0-0
6
CONTINUOUS
62
7
100
AcDbCircle
10
401.600000000000
20
174.425366578706
30
0.0
40
1.000000000000
100
AcDbArc
50
0.000000000000
51
81.119340849467
0
ARC
5
64b
100
AcDbEntity
8
0-0
6
CONTINUOUS
62
7
100
AcDbCircle
10
405.100000000000
20
175.253058956079
30
0.0
40
1.000000000000
100
AcDbArc
50
0.000000000000
51
86.877869537884
0
LINE
5
64c
100
AcDbEntity
8
0-0
6
CONTINUOUS
62
7
100
AcDbLine
10
401.253660391014
20
171.268301955072
30
0.0
11
400.900000000000
21
169.500000000000
31
0.0
0
LINE
5
64d
100
AcDbEntity
8
0-0
6
CONTINUOUS
62
7
100
AcDbLine
10
400.900000000000
20
173.414285714286
30
0.0
11
402.600000000000
21
172.928571428571
31
0.0
0
LINE
5
64e
100
AcDbEntity
8
0-0
6
CONTINUOUS
62
7
100
AcDbLine
10
400.900000000000
20
173.940000000000
30
0.0
11
400.900000000000
21
173.414285714286
31
0.0
0
LINE
5
64f
100
AcDbEntity
8
0-0
6
CONTINUOUS
62
7
100
AcDbLine
10
402.600000000000
20
173.600000000000
30
0.0
11
400.900000000000
21
173.940000000000
31
0.0
0
LINE
5
650
100
AcDbEntity
8
0-0
6
CONTINUOUS
62
7
100
AcDbLine
10
402.600000000000
20
174.425366578706
30
0.0
11
402.600000000000
21
173.600000000000
31
0.0
0
LINE
5
651
100
AcDbEntity
8
0-0
6
CONTINUOUS
62
7
100
AcDbLine
10
401.200000000000
20
175.500000000000
30
0.0
11
401.754376880274
21
175.413378612457
31
0.0
0
LINE
5
652
100
AcDbEntity
8
0-0
6
CONTINUOUS
62
7
100
AcDbLine
10
400.904990757856
20
176.483364140481
30
0.0
11
401.200000000000
21
175.500000000000
31
0.0
0
LINE
5
653
100
AcDbEntity
8
0-0
6
CONTINUOUS
62
7
100
AcDbLine
10
405.154464493160
20
176.251574664009
30
0.0
11
400.904990757856
21
176.483364140481
31
0.0
0
LINE
5
654
100
AcDbEntity
8
0-0
6
CONTINUOUS
62
7
100
AcDbLine
10
406.100000000000
20
175.000000000000
30
0.0
11
406.100000000000
21
175.253058956079
31
0.0
0
LINE
5
655
100
AcDbEntity
8
0-0
6
CONTINUOUS
62
7
100
AcDbLine
10
404.100000000000
20
175.000000000000
30
0.0
11
406.100000000000
21
175.000000000000
31
0.0
0
LINE
5
656
100
AcDbEntity
8
0-0
6
CONTINUOUS
62
7
100
AcDbLine
10
404.100000000000
20
173.000000000000
30
0.0
11
404.100000000000
21
175.000000000000
31
0.0
0
LINE
5
657
100
AcDbEntity
8
0-0
6
CONTINUOUS
62
7
100
AcDbLine
10
404.600000000000
20
173.000000000000
30
0.0
11
404.100000000000
21
173.000000000000
31
0.0
0
LINE
5
658
100
AcDbEntity
8
0-0
6
CONTINUOUS
62
7
100
AcDbLine
10
396.900000000000
20
169.000000000000
30
0.0
11
396.900000000000
21
188.940454460701
31
0.0
0
LINE
5
659
100
AcDbEntity
8
0-0
6
CONTINUOUS
62
7
100
AcDbLine
10
400.900000000000
20
169.000000000000
30
0.0
11
396.900000000000
21
169.000000000000
31
0.0
0
LINE
5
65a
100
AcDbEntity
8
0-0
6
CONTINUOUS
62
7
100
AcDbLine
10
400.900000000000
20
188.940454460701
30
0.0
11
400.900000000000
21
169.000000000000
31
0.0
0
ARC
5
65b
100
AcDbEntity
8
0-0
6
CONTINUOUS
62
7
100
AcDbCircle
10
330.016600609361
20
175.196736498676
30
0.0
40
6.000000000000
100
AcDbArc
50
288.294414442901
51
338.523305014706
0
ARC
5
65c
100
AcDbEntity
8
0-0
6
CONTINUOUS
62
7
100
AcDbCircle
10
328.816820276498
20
175.431310803891
30
0.0
40
5.398380557917
100
AcDbArc
50
309.541934649401
51
332.379745266503
0
ARC
5
65d
100
AcDbEntity
8
0-0
6
CONTINUOUS
62
7
100
AcDbCircle
10
332.600000000000
20
174.425366578706
30
0.0
40
1.000000000000
100
AcDbArc
50
0.000000000000
51
81.119340849467
0
ARC
5
65e
100
AcDbEntity
8
0-0
6
CONTINUOUS
62
7
100
AcDbCircle
10
331.200000000000
20
174.608575212475
30
0.0
40
0.300000000000
100
AcDbArc
50
109.471220634489
51
250.528779365511
0
ARC
5
65f
100
AcDbEntity
8
0-0
6
CONTINUOUS
62
7
100
AcDbCircle
10
331.200000000000
20
172.999997712475
30
0.0
40
0.300000000000
100
AcDbArc
50
109.471220634489
51
250.528779365511
0
ARC
5
660
100
AcDbEntity
8
0-0
6
CONTINUOUS
62
7
100
AcDbCircle
10
331.200000000000
20
171.391420212475
30
0.0
40
0.300000000000
100
AcDbArc
50
109.471220634489
51
250.528779365511
0
ARC
5
661
100
AcDbEntity
8
0-0
6
CONTINUOUS
62
7
100
AcDbCircle
10
331.200000000000
20
169.782842712475
30
0.0
40
0.300000000000
100
AcDbArc
50
109.471220634489
51
250.528779365511
0
ARC
5
662
100
AcDbEntity
8
0-0
6
CONTINUOUS
62
7
100
AcDbCircle
10
331.200000000000
20
176.217157287525
30
0.0
40
0.300000000000
100
AcDbArc
50
109.471220634489
51
250.528779365511
0
ARC
5
663
100
AcDbEntity
8
0-0
6
CONTINUOUS
62
7
100
AcDbCircle
10
336.100000000000
20
175.253058956079
30
0.0
40
1.000000000000
100
AcDbArc
50
0.000000000000
51
86.877869537884
0
LINE
5
664
100
AcDbEntity
8
0-0
6
CONTINUOUS
62
7
100
AcDbLine
10
332.253660391014
20
171.268301955071
30
0.0
11
331.900000000000
21
169.500000000000
31
0.0
0
LINE
5
665
100
AcDbEntity
8
0-0
6
CONTINUOUS
62
7
100
AcDbLine
10
331.900000000000
20
173.414285714286
30
0.0
11
333.600000000000
21
172.928571428571
31
0.0
0
LINE
5
666
100
AcDbEntity
8
0-0
6
CONTINUOUS
62
7
100
AcDbLine
10
333.600000000000
20
173.600000000000
30
0.0
11
331.900000000000
21
173.940000000000
31
0.0
0
LINE
5
667
100
AcDbEntity
8
0-0
6
CONTINUOUS
62
7
100
AcDbLine
10
333.600000000000
20
174.425366578706
30
0.0
11
333.600000000000
21
173.600000000000
31
0.0
0
LINE
5
668
100
AcDbEntity
8
0-0
6
CONTINUOUS
62
7
100
AcDbLine
10
332.200000000000
20
175.500000000000
30
0.0
11
332.754376880274
21
175.413378612457
31
0.0
0
LINE
5
669
100
AcDbEntity
8
0-0
6
CONTINUOUS
62
7
100
AcDbLine
10
331.900000000000
20
176.500000000000
30
0.0
11
332.200000000000
21
175.500000000000
31
0.0
0
LINE
5
66a
100
AcDbEntity
8
0-0
6
CONTINUOUS
62
7
100
AcDbLine
10
331.100000000000
20
176.500000000000
30
0.0
11
331.900000000000
21
176.500000000000
31
0.0
0
LINE
5
66b
100
AcDbEntity
8
0-0
6
CONTINUOUS
62
7
100
AcDbLine
10
331.100000000000
20
174.891417924949
30
0.0
11
331.100000000000
21
175.934314575051
31
0.0
0
LINE
5
66c
100
AcDbEntity
8
0-0
6
CONTINUOUS
62
7
100
AcDbLine
10
331.100000000000
20
173.282840424949
30
0.0
11
331.100000000000
21
174.325732500000
31
0.0
0
LINE
5
66d
100
AcDbEntity
8
0-0
6
CONTINUOUS
62
7
100
AcDbLine
10
331.100000000000
20
171.674262924949
30
0.0
11
331.100000000000
21
172.717155000000
31
0.0
0
LINE
5
66e
100
AcDbEntity
8
0-0
6
CONTINUOUS
62
7
100
AcDbLine
10
331.100000000000
20
170.065685424949
30
0.0
11
331.100000000000
21
171.108577500000
31
0.0
0
LINE
5
66f
100
AcDbEntity
8
0-0
6
CONTINUOUS
62
7
100
AcDbLine
10
331.900000000000
20
169.500000000000
30
0.0
11
331.100000000000
21
169.500000000000
31
0.0
0
LINE
5
670
100
AcDbEntity
8
0-0
6
CONTINUOUS
62
7
100
AcDbLine
10
331.900000000000
20
176.500000000000
30
0.0
11
331.900000000000
21
169.500000000000
31
0.0
0
LINE
5
671
100
AcDbEntity
8
0-0
6
CONTINUOUS
62
7
100
AcDbLine
10
336.154464493160
20
176.251574664009
30
0.0
11
331.600000000000
21
176.500000000000
31
0.0
0
LINE
5
672
100
AcDbEntity
8
0-0
6
CONTINUOUS
62
7
100
AcDbLine
10
337.100000000000
20
175.000000000000
30
0.0
11
337.100000000000
21
175.253058956079
31
0.0
0
LINE
5
673
100
AcDbEntity
8
0-0
6
CONTINUOUS
62
7
100
AcDbLine
10
335.100000000000
20
175.000000000000
30
0.0
11
337.100000000000
21
175.000000000000
31
0.0
0
LINE
5
674
100
AcDbEntity
8
0-0
6
CONTINUOUS
62
7
100
AcDbLine
10
335.100000000000
20
173.000000000000
30
0.0
11
335.100000000000
21
175.000000000000
31
0.0
0
LINE
5
675
100
AcDbEntity
8
0-0
6
CONTINUOUS
62
7
100
AcDbLine
10
335.600000000000
20
173.000000000000
30
0.0
11
335.100000000000
21
173.000000000000
31
0.0
0
LINE
5
676
100
AcDbEntity
8
0-0
6
CONTINUOUS
62
7
100
AcDbLine
10
327.900000000000
20
169.000000000000
30
0.0
11
327.900000000000
21
188.940454460701
31
0.0
0
LINE
5
677
100
AcDbEntity
8
0-0
6
CONTINUOUS
62
7
100
AcDbLine
10
330.900000000000
20
169.000000000000
30
0.0
11
327.900000000000
21
169.000000000000
31
0.0
0
LINE
5
678
100
AcDbEntity
8
0-0
6
CONTINUOUS
62
7
100
AcDbLine
10
330.900000000000
20
188.940454460701
30
0.0
11
330.900000000000
21
169.000000000000
31
0.0
0
ARC
5
679
100
AcDbEntity
8
0-0
6
CONTINUOUS
62
7
100
AcDbCircle
10
261.016600609361
20
175.196736498676
30
0.0
40
6.000000000000
100
AcDbArc
50
288.294414442901
51
338.523305014706
0
ARC
5
67a
100
AcDbEntity
8
0-0
6
CONTINUOUS
62
7
100
AcDbCircle
10
259.816820276498
20
175.431310803891
30
0.0
40
5.398380557917
100
AcDbArc
50
309.541934649401
51
332.379745266503
0
ARC
5
67b
100
AcDbEntity
8
0-0
6
CONTINUOUS
62
7
100
AcDbCircle
10
263.600000000000
20
174.425366578706
30
0.0
40
1.000000000000
100
AcDbArc
50
0.000000000000
51
81.119340849467
0
ARC
5
67c
100
AcDbEntity
8
0-0
6
CONTINUOUS
62
7
100
AcDbCircle
10
260.699999999999
20
174.608575212475
30
0.0
40
0.300000000000
100
AcDbArc
50
109.471220634489
51
250.528779365511
0
ARC
5
67d
100
AcDbEntity
8
0-0
6
CONTINUOUS
62
7
100
AcDbCircle
10
260.699999999999
20
172.999997712475
30
0.0
40
0.300000000000
100
AcDbArc
50
109.471220634489
51
250.528779365511
0
ARC
5
67e
100
AcDbEntity
8
0-0
6
CONTINUOUS
62
7
100
AcDbCircle
10
260.699999999999
20
171.391420212475
30
0.0
40
0.300000000000
100
AcDbArc
50
109.471220634489
51
250.528779365511
0
ARC
5
67f
100
AcDbEntity
8
0-0
6
CONTINUOUS
62
7
100
AcDbCircle
10
260.699999999999
20
169.782842712475
30
0.0
40
0.300000000000
100
AcDbArc
50
109.471220634489
51
250.528779365511
0
ARC
5
680
100
AcDbEntity
8
0-0
6
CONTINUOUS
62
7
100
AcDbCircle
10
260.699999999999
20
176.217157287525
30
0.0
40
0.300000000000
100
AcDbArc
50
109.471220634489
51
250.528779365511
0
ARC
5
681
100
AcDbEntity
8
0-0
6
CONTINUOUS
62
7
100
AcDbCircle
10
262.199999999999
20
174.608575212475
30
0.0
40
0.300000000000
100
AcDbArc
50
109.471220634489
51
250.528779365511
0
ARC
5
682
100
AcDbEntity
8
0-0
6
CONTINUOUS
62
7
100
AcDbCircle
10
262.199999999999
20
172.999997712475
30
0.0
40
0.300000000000
100
AcDbArc
50
109.471220634489
51
250.528779365511
0
ARC
5
683
100
AcDbEntity
8
0-0
6
CONTINUOUS
62
7
100
AcDbCircle
10
262.199999999999
20
171.391420212475
30
0.0
40
0.300000000000
100
AcDbArc
50
109.471220634489
51
250.528779365511
0
ARC
5
684
100
AcDbEntity
8
0-0
6
CONTINUOUS
62
7
100
AcDbCircle
10
262.199999999999
20
169.782842712475
30
0.0
40
0.300000000000
100
AcDbArc
50
109.471220634489
51
250.528779365511
0
ARC
5
685
100
AcDbEntity
8
0-0
6
CONTINUOUS
62
7
100
AcDbCircle
10
262.199999999999
20
176.217157287525
30
0.0
40
0.300000000000
100
AcDbArc
50
109.471220634489
51
250.528779365511
0
ARC
5
686
100
AcDbEntity
8
0-0
6
CONTINUOUS
62
7
100
AcDbCircle
10
267.100000000000
20
175.253058956079
30
0.0
40
1.000000000000
100
AcDbArc
50
0.000000000000
51
86.877869537884
0
LINE
5
687
100
AcDbEntity
8
0-0
6
CONTINUOUS
62
7
100
AcDbLine
10
263.253660391014
20
171.268301955072
30
0.0
11
262.900000000000
21
169.500000000000
31
0.0
0
LINE
5
688
100
AcDbEntity
8
0-0
6
CONTINUOUS
62
7
100
AcDbLine
10
262.900000000000
20
173.414285714286
30
0.0
11
264.600000000000
21
172.928571428571
31
0.0
0
LINE
5
689
100
AcDbEntity
8
0-0
6
CONTINUOUS
62
7
100
AcDbLine
10
264.600000000000
20
173.600000000000
30
0.0
11
262.900000000000
21
173.940000000000
31
0.0
0
LINE
5
68a
100
AcDbEntity
8
0-0
6
CONTINUOUS
62
7
100
AcDbLine
10
264.600000000000
20
174.425366578706
30
0.0
11
264.600000000000
21
173.600000000000
31
0.0
0
LINE
5
68b
100
AcDbEntity
8
0-0
6
CONTINUOUS
62
7
100
AcDbLine
10
263.199999999999
20
175.500000000000
30
0.0
11
263.754376880274
21
175.413378612457
31
0.0
0
LINE
5
68c
100
AcDbEntity
8
0-0
6
CONTINUOUS
62
7
100
AcDbLine
10
262.900000000000
20
176.500000000000
30
0.0
11
263.199999999999
21
175.500000000000
31
0.0
0
LINE
5
68d
100
AcDbEntity
8
0-0
6
CONTINUOUS
62
7
100
AcDbLine
10
262.100000000000
20
176.500000000000
30
0.0
11
262.900000000000
21
176.500000000000
31
0.0
0
LINE
5
68e
100
AcDbEntity
8
0-0
6
CONTINUOUS
62
7
100
AcDbLine
10
262.100000000000
20
174.891417924949
30
0.0
11
262.100000000000
21
175.934314575051
31
0.0
0
LINE
5
68f
100
AcDbEntity
8
0-0
6
CONTINUOUS
62
7
100
AcDbLine
10
262.100000000000
20
173.282840424949
30
0.0
11
262.100000000000
21
174.325732500000
31
0.0
0
LINE
5
690
100
AcDbEntity
8
0-0
6
CONTINUOUS
62
7
100
AcDbLine
10
262.100000000000
20
171.674262924949
30
0.0
11
262.100000000000
21
172.717155000000
31
0.0
0
LINE
5
691
100
AcDbEntity
8
0-0
6
CONTINUOUS
62
7
100
AcDbLine
10
262.100000000000
20
170.065685424949
30
0.0
11
262.100000000000
21
171.108577500000
31
0.0
0
LINE
5
692
100
AcDbEntity
8
0-0
6
CONTINUOUS
62
7
100
AcDbLine
10
260.600000000000
20
169.500000000000
30
0.0
11
261.900000000000
21
169.500000000000
31
0.0
0
LINE
5
693
100
AcDbEntity
8
0-0
6
CONTINUOUS
62
7
100
AcDbLine
10
260.600000000000
20
171.108577500000
30
0.0
11
260.600000000000
21
170.065685424949
31
0.0
0
LINE
5
694
100
AcDbEntity
8
0-0
6
CONTINUOUS
62
7
100
AcDbLine
10
260.600000000000
20
172.717155000000
30
0.0
11
260.600000000000
21
171.674262924949
31
0.0
0
LINE
5
695
100
AcDbEntity
8
0-0
6
CONTINUOUS
62
7
100
AcDbLine
10
260.600000000000
20
174.325732500000
30
0.0
11
260.600000000000
21
173.282840424949
31
0.0
0
LINE
5
696
100
AcDbEntity
8
0-0
6
CONTINUOUS
62
7
100
AcDbLine
10
260.600000000000
20
175.934314575051
30
0.0
11
260.600000000000
21
174.891417924949
31
0.0
0
LINE
5
697
100
AcDbEntity
8
0-0
6
CONTINUOUS
62
7
100
AcDbLine
10
261.900000000000
20
176.500000000000
30
0.0
11
260.600000000000
21
176.500000000000
31
0.0
0
LINE
5
698
100
AcDbEntity
8
0-0
6
CONTINUOUS
62
7
100
AcDbLine
10
261.900000000000
20
169.500000000000
30
0.0
11
261.900000000000
21
176.500000000000
31
0.0
0
LINE
5
699
100
AcDbEntity
8
0-0
6
CONTINUOUS
62
7
100
AcDbLine
10
262.900000000000
20
169.500000000000
30
0.0
11
262.100000000000
21
169.500000000000
31
0.0
0
LINE
5
69a
100
AcDbEntity
8
0-0
6
CONTINUOUS
62
7
100
AcDbLine
10
262.900000000000
20
176.500000000000
30
0.0
11
262.900000000000
21
169.500000000000
31
0.0
0
LINE
5
69b
100
AcDbEntity
8
0-0
6
CONTINUOUS
62
7
100
AcDbLine
10
267.154464493160
20
176.251574664009
30
0.0
11
262.600000000000
21
176.500000000000
31
0.0
0
LINE
5
69c
100
AcDbEntity
8
0-0
6
CONTINUOUS
62
7
100
AcDbLine
10
268.100000000000
20
175.000000000000
30
0.0
11
268.100000000000
21
175.253058956079
31
0.0
0
LINE
5
69d
100
AcDbEntity
8
0-0
6
CONTINUOUS
62
7
100
AcDbLine
10
266.100000000000
20
175.000000000000
30
0.0
11
268.100000000000
21
175.000000000000
31
0.0
0
LINE
5
69e
100
AcDbEntity
8
0-0
6
CONTINUOUS
62
7
100
AcDbLine
10
266.100000000000
20
173.000000000000
30
0.0
11
266.100000000000
21
175.000000000000
31
0.0
0
LINE
5
69f
100
AcDbEntity
8
0-0
6
CONTINUOUS
62
7
100
AcDbLine
10
266.600000000000
20
173.000000000000
30
0.0
11
266.100000000000
21
173.000000000000
31
0.0
0
LINE
5
6a0
100
AcDbEntity
8
0-0
6
CONTINUOUS
62
7
100
AcDbLine
10
258.900000000000
20
169.000000000000
30
0.0
11
258.900000000000
21
188.940454460701
31
0.0
0
LINE
5
6a1
100
AcDbEntity
8
0-0
6
CONTINUOUS
62
7
100
AcDbLine
10
260.400000000000
20
169.000000000000
30
0.0
11
258.900000000000
21
169.000000000000
31
0.0
0
LINE
5
6a2
100
AcDbEntity
8
0-0
6
CONTINUOUS
62
7
100
AcDbLine
10
260.400000000000
20
188.940454460701
30
0.0
11
260.400000000000
21
169.000000000000
31
0.0
0
TEXT
5
6a3
100
AcDbEntity
8
0-1
62
7
370
-3
100
AcDbText
10
324.911
20
253.105
30
0.0
40
4.208
1
t3.0
41
0.651
50
0.000
100
AcDbText
0
TEXT
5
6a4
100
AcDbEntity
8
0-1
62
7
370
-3
100
AcDbText
10
394.343
20
252.448
30
0.0
40
4.208
1
t5.0
41
0.645
50
0.000
100
AcDbText
0
TEXT
5
6a5
100
AcDbEntity
8
0-1
62
7
370
-3
100
AcDbText
10
254.353
20
253.105
30
0.0
40
4.208
1
t1.5
41
0.694
50
0.000
100
AcDbText
0
LINE
5
6a6
100
AcDbEntity
8
0-1
6
PHANTOM
62
4
100
AcDbLine
10
399.299999475479
20
304.136643522979
30
0.0
11
399.299999475479
21
281.000000000000
31
0.0
0
LINE
5
6a7
100
AcDbEntity
8
0-1
6
PHANTOM
62
4
100
AcDbLine
10
398.157071232483
20
304.442890222697
30
0.0
11
405.619033052303
21
302.443463579124
31
0.0
0
LINE
5
6a8
100
AcDbEntity
8
0-1
6
PHANTOM
62
4
100
AcDbLine
10
404.299999475479
20
281.000000000000
30
0.0
11
399.299999475479
21
281.000000000000
31
0.0
0
LINE
5
6a9
100
AcDbEntity
8
0-1
6
PHANTOM
62
4
100
AcDbLine
10
334.299999475479
20
281.000000000000
30
0.0
11
331.299999475479
21
281.000000000000
31
0.0
0
LINE
5
6aa
100
AcDbEntity
8
0-1
6
PHANTOM
62
4
100
AcDbLine
10
331.299999475479
20
303.600745138117
30
0.0
11
331.299999475479
21
281.000000000000
31
0.0
0
LINE
5
6ab
100
AcDbEntity
8
0-1
6
PHANTOM
62
4
100
AcDbLine
10
330.448614510295
20
303.828873051986
30
0.0
11
335.619033052303
21
302.443463579124
31
0.0
0
LINE
5
6ac
100
AcDbEntity
8
0-1
6
PHANTOM
62
4
100
AcDbLine
10
404.299999475479
20
302.796897560824
30
0.0
11
404.299999475479
21
281.000000000000
31
0.0
0
LINE
5
6ad
100
AcDbEntity
8
0-1
6
PHANTOM
62
4
100
AcDbLine
10
334.299999475479
20
302.796897560824
30
0.0
11
334.299999475479
21
281.000000000000
31
0.0
0
LINE
5
6ae
100
AcDbEntity
8
0-1
6
PHANTOM
62
4
100
AcDbLine
10
262.799999475479
20
303.198821349470
30
0.0
11
262.799999475479
21
281.000000000000
31
0.0
0
LINE
5
6af
100
AcDbEntity
8
0-1
6
PHANTOM
62
4
100
AcDbLine
10
264.299999475479
20
302.796897560824
30
0.0
11
264.299999475479
21
281.000000000000
31
0.0
0
LINE
5
6b0
100
AcDbEntity
8
0-1
6
PHANTOM
62
4
100
AcDbLine
10
261.788273717410
20
303.469912449307
30
0.0
11
265.619033052303
21
302.443463579124
31
0.0
0
LINE
5
6b1
100
AcDbEntity
8
0-1
6
PHANTOM
62
4
100
AcDbLine
10
264.299999475479
20
281.000000000000
30
0.0
11
262.799999475479
21
281.000000000000
31
0.0
0
LINE
5
6b2
100
AcDbEntity
8
0-1
6
PHANTOM
62
4
100
AcDbLine
10
390.000000000000
20
275.000000000000
30
0.0
11
390.000000000000
21
250.000000000000
31
0.0
0
LINE
5
6b3
100
AcDbEntity
8
0-1
6
PHANTOM
62
4
100
AcDbLine
10
415.000000000000
20
275.000000000000
30
0.0
11
390.000000000000
21
275.000000000000
31
0.0
0
LINE
5
6b4
100
AcDbEntity
8
0-1
6
PHANTOM
62
4
100
AcDbLine
10
415.000000000000
20
250.000000000000
30
0.0
11
415.000000000000
21
275.000000000000
31
0.0
0
LINE
5
6b5
100
AcDbEntity
8
0-1
6
PHANTOM
62
4
100
AcDbLine
10
390.000000000000
20
250.000000000000
30
0.0
11
415.000000000000
21
250.000000000000
31
0.0
0
LINE
5
6b6
100
AcDbEntity
8
0-1
6
PHANTOM
62
4
100
AcDbLine
10
320.000000000000
20
275.000000000000
30
0.0
11
320.000000000000
21
250.000000000000
31
0.0
0
LINE
5
6b7
100
AcDbEntity
8
0-1
6
PHANTOM
62
4
100
AcDbLine
10
345.000000000000
20
275.000000000000
30
0.0
11
320.000000000000
21
275.000000000000
31
0.0
0
LINE
5
6b8
100
AcDbEntity
8
0-1
6
PHANTOM
62
4
100
AcDbLine
10
345.000000000000
20
250.000000000000
30
0.0
11
345.000000000000
21
275.000000000000
31
0.0
0
LINE
5
6b9
100
AcDbEntity
8
0-1
6
PHANTOM
62
4
100
AcDbLine
10
320.000000000000
20
250.000000000000
30
0.0
11
345.000000000000
21
250.000000000000
31
0.0
0
LINE
5
6ba
100
AcDbEntity
8
0-1
6
PHANTOM
62
4
100
AcDbLine
10
250.000000000000
20
275.000000000000
30
0.0
11
250.000000000000
21
250.000000000000
31
0.0
0
LINE
5
6bb
100
AcDbEntity
8
0-1
6
PHANTOM
62
4
100
AcDbLine
10
275.000000000000
20
275.000000000000
30
0.0
11
250.000000000000
21
275.000000000000
31
0.0
0
LINE
5
6bc
100
AcDbEntity
8
0-1
6
PHANTOM
62
4
100
AcDbLine
10
275.000000000000
20
250.000000000000
30
0.0
11
275.000000000000
21
275.000000000000
31
0.0
0
LINE
5
6bd
100
AcDbEntity
8
0-1
6
PHANTOM
62
4
100
AcDbLine
10
250.000000000000
20
250.000000000000
30
0.0
11
275.000000000000
21
250.000000000000
31
0.0
0
LINE
5
6be
100
AcDbEntity
8
F-F_J_ADD
6
HIDDEN
62
4
100
AcDbLine
10
335.999999523163
20
262.500000000000
30
0.0
11
328.999999523163
21
262.500000000000
31
0.0
0
LINE
5
6bf
100
AcDbEntity
8
F-F_J_ADD
6
HIDDEN
62
4
100
AcDbLine
10
332.500000000000
20
275.000000000000
30
0.0
11
332.500000000000
21
262.500000000000
31
0.0
0
LINE
5
6c0
100
AcDbEntity
8
F-F_J_ADD
6
HIDDEN
62
4
100
AcDbLine
10
335.999999523163
20
275.000000000000
30
0.0
11
328.999999523163
21
275.000000000000
31
0.0
0
LINE
5
6c1
100
AcDbEntity
8
F-F_J_ADD
6
HIDDEN
62
4
100
AcDbLine
10
405.999999523163
20
275.000000000000
30
0.0
11
398.999999523163
21
275.000000000000
31
0.0
0
LINE
5
6c2
100
AcDbEntity
8
F-F_J_ADD
6
HIDDEN
62
4
100
AcDbLine
10
402.500000000000
20
262.500000000000
30
0.0
11
402.500000000000
21
275.000000000000
31
0.0
0
LINE
5
6c3
100
AcDbEntity
8
F-F_J_ADD
6
HIDDEN
62
4
100
AcDbLine
10
405.999999523163
20
262.500000000000
30
0.0
11
398.999999523163
21
262.500000000000
31
0.0
0
LINE
5
6c4
100
AcDbEntity
8
F-F_J_ADD
6
HIDDEN
62
4
100
AcDbLine
10
265.999999523163
20
275.000000000000
30
0.0
11
258.999999523163
21
275.000000000000
31
0.0
0
LINE
5
6c5
100
AcDbEntity
8
F-F_J_ADD
6
HIDDEN
62
4
100
AcDbLine
10
262.500000000000
20
262.500000000000
30
0.0
11
262.500000000000
21
275.000000000000
31
0.0
0
LINE
5
6c6
100
AcDbEntity
8
F-F_J_ADD
6
HIDDEN
62
4
100
AcDbLine
10
265.999999523163
20
262.500000000000
30
0.0
11
258.999999523163
21
262.500000000000
31
0.0
0
ARC
5
6c7
100
AcDbEntity
8
0-0
6
CONTINUOUS
62
7
100
AcDbCircle
10
339.399999475479
20
275.500000524521
30
0.0
40
0.500000000000
100
AcDbArc
50
270.000000000000
51
360.000000000000
0
ARC
5
6c8
100
AcDbEntity
8
0-0
6
CONTINUOUS
62
7
100
AcDbCircle
10
339.399999475479
20
280.292893218813
30
0.0
40
0.500000000000
100
AcDbArc
50
0.000000000000
51
45.000000000000
0
ARC
5
6c9
100
AcDbEntity
8
0-0
6
CONTINUOUS
62
7
100
AcDbCircle
10
330.820725942152
20
269.300000000000
30
0.0
40
0.300000000000
100
AcDbArc
50
210.000000000002
51
270.000000000000
0
ARC
5
6ca
100
AcDbEntity
8
0-0
6
CONTINUOUS
62
7
100
AcDbCircle
10
334.179274057848
20
269.300000000000
30
0.0
40
0.300000000000
100
AcDbArc
50
270.000000000000
51
329.999999999995
0
ARC
5
6cb
100
AcDbEntity
8
0-0
6
CONTINUOUS
62
7
100
AcDbCircle
10
335.999999475479
20
282.907106781186
30
0.0
40
0.500000000000
100
AcDbArc
50
314.999999999999
51
360.000000000000
0
ARC
5
6cc
100
AcDbEntity
8
0-0
6
CONTINUOUS
62
7
100
AcDbCircle
10
335.999999475479
20
284.500000000000
30
0.0
40
0.500000000000
100
AcDbArc
50
0.000000000000
51
90.000000000000
0
ARC
5
6cd
100
AcDbEntity
8
0-0
6
CONTINUOUS
62
7
100
AcDbCircle
10
334.799999475479
20
285.500000000000
30
0.0
40
0.500000000000
100
AcDbArc
50
180.000000000000
51
270.000000000000
0
ARC
5
6ce
100
AcDbEntity
8
0-0
6
CONTINUOUS
62
7
100
AcDbCircle
10
334.092892694293
20
281.000000000000
30
0.0
40
0.500000000000
100
AcDbArc
50
270.000000000000
51
314.999999999999
0
ARC
5
6cf
100
AcDbEntity
8
0-0
6
CONTINUOUS
62
7
100
AcDbCircle
10
331.450000000000
20
274.399999809265
30
0.0
40
0.300000000000
100
AcDbArc
50
0.000000000000
51
90.000000000000
0
ARC
5
6d0
100
AcDbEntity
8
0-0
6
CONTINUOUS
62
7
100
AcDbCircle
10
333.550000000000
20
274.399999809265
30
0.0
40
0.300000000000
100
AcDbArc
50
90.000000000000
51
180.000000000000
0
ARC
5
6d1
100
AcDbEntity
8
0-0
6
CONTINUOUS
62
7
100
AcDbCircle
10
339.199999475479
20
281.907106781186
30
0.0
40
0.500000000000
100
AcDbArc
50
180.000000000000
51
224.999999999998
0
ARC
5
6d2
100
AcDbEntity
8
0-0
6
CONTINUOUS
62
7
100
AcDbCircle
10
339.199999475479
20
284.500000000000
30
0.0
40
0.500000000000
100
AcDbArc
50
90.000000000000
51
180.000000000000
0
ARC
5
6d3
100
AcDbEntity
8
0-0
6
CONTINUOUS
62
7
100
AcDbCircle
10
339.199999475479
20
285.500000000000
30
0.0
40
0.500000000000
100
AcDbArc
50
270.000000000000
51
360.000000000000
0
ARC
5
6d4
100
AcDbEntity
8
0-0
6
CONTINUOUS
62
7
100
AcDbCircle
10
339.199999475479
20
286.500000000000
30
0.0
40
0.500000000000
100
AcDbArc
50
0.000000000000
51
90.000000000000
0
ARC
5
6d5
100
AcDbEntity
8
0-0
6
CONTINUOUS
62
7
100
AcDbCircle
10
326.500000000000
20
275.500000000000
30
0.0
40
0.500000000000
100
AcDbArc
50
180.000000000000
51
270.000000000000
0
ARC
5
6d6
100
AcDbEntity
8
0-0
6
CONTINUOUS
62
7
100
AcDbCircle
10
328.800000000000
20
272.799999999979
30
0.0
40
0.300000000000
100
AcDbArc
50
150.000000000004
51
209.999999999996
0
ARC
5
6d7
100
AcDbEntity
8
0-0
6
CONTINUOUS
62
7
100
AcDbCircle
10
331.450000000000
20
270.610065359921
30
0.0
40
0.300000000000
100
AcDbArc
50
210.000000000000
51
360.000000000000
0
ARC
5
6d8
100
AcDbEntity
8
0-0
6
CONTINUOUS
62
7
100
AcDbCircle
10
329.146410161514
20
273.399999999978
30
0.0
40
0.300000000000
100
AcDbArc
50
30.000000000000
51
150.000000000001
0
ARC
5
6d9
100
AcDbEntity
8
0-0
6
CONTINUOUS
62
7
100
AcDbCircle
10
336.200000000000
20
272.799999999979
30
0.0
40
0.300000000000
100
AcDbArc
50
330.000000000004
51
389.999999999996
0
ARC
5
6da
100
AcDbEntity
8
0-0
6
CONTINUOUS
62
7
100
AcDbCircle
10
335.853589838486
20
273.399999999978
30
0.0
40
0.300000000000
100
AcDbArc
50
29.999999999999
51
150.000000000000
0
ARC
5
6db
100
AcDbEntity
8
0-0
6
CONTINUOUS
62
7
100
AcDbCircle
10
333.550000000000
20
270.610065359921
30
0.0
40
0.300000000000
100
AcDbArc
50
180.000000000000
51
330.000000000000
0
ARC
5
6dc
100
AcDbEntity
8
0-0
6
CONTINUOUS
62
7
100
AcDbCircle
10
332.111376849668
20
276.630043982048
30
0.0
40
0.100000000000
100
AcDbArc
50
224.999999999999
51
305.000000000001
0
ARC
5
6dd
100
AcDbEntity
8
0-0
6
CONTINUOUS
62
7
100
AcDbCircle
10
331.779744719056
20
276.678833400186
30
0.0
40
0.100000000000
100
AcDbArc
50
44.999999999999
51
125.000000000002
0
ARC
5
6de
100
AcDbEntity
8
0-0
6
CONTINUOUS
62
7
100
AcDbCircle
10
331.361376849668
20
276.630043982048
30
0.0
40
0.100000000000
100
AcDbArc
50
225.000000000000
51
304.999999999999
0
ARC
5
6df
100
AcDbEntity
8
0-0
6
CONTINUOUS
62
7
100
AcDbCircle
10
331.029744719056
20
276.678833400186
30
0.0
40
0.100000000000
100
AcDbArc
50
44.999999999998
51
125.000000000004
0
ARC
5
6e0
100
AcDbEntity
8
0-0
6
CONTINUOUS
62
7
100
AcDbCircle
10
333.611376849668
20
276.630043982048
30
0.0
40
0.100000000000
100
AcDbArc
50
224.999999999999
51
305.000000000001
0
ARC
5
6e1
100
AcDbEntity
8
0-0
6
CONTINUOUS
62
7
100
AcDbCircle
10
333.279744719056
20
276.678833400186
30
0.0
40
0.100000000000
100
AcDbArc
50
44.999999999999
51
125.000000000002
0
ARC
5
6e2
100
AcDbEntity
8
0-0
6
CONTINUOUS
62
7
100
AcDbCircle
10
332.861376849668
20
276.630043982048
30
0.0
40
0.100000000000
100
AcDbArc
50
225.000000000000
51
304.999999999999
0
ARC
5
6e3
100
AcDbEntity
8
0-0
6
CONTINUOUS
62
7
100
AcDbCircle
10
332.529744719056
20
276.678833400186
30
0.0
40
0.100000000000
100
AcDbArc
50
44.999999999998
51
125.000000000004
0
ARC
5
6e4
100
AcDbEntity
8
0-0
6
CONTINUOUS
62
7
100
AcDbCircle
10
334.361376849668
20
276.630043982048
30
0.0
40
0.100000000000
100
AcDbArc
50
225.000000000000
51
304.999999999999
0
ARC
5
6e5
100
AcDbEntity
8
0-0
6
CONTINUOUS
62
7
100
AcDbCircle
10
334.029744719056
20
276.678833400186
30
0.0
40
0.100000000000
100
AcDbArc
50
44.999999999998
51
125.000000000004
0
ARC
5
6e6
100
AcDbEntity
8
0-0
6
CONTINUOUS
62
7
100
AcDbCircle
10
330.611376849668
20
276.630043982048
30
0.0
40
0.100000000000
100
AcDbArc
50
224.999999999999
51
305.000000000001
0
ARC
5
6e7
100
AcDbEntity
8
0-0
6
CONTINUOUS
62
7
100
AcDbCircle
10
330.279744719056
20
276.678833400186
30
0.0
40
0.100000000000
100
AcDbArc
50
44.999999999999
51
125.000000000002
0
ARC
5
6e8
100
AcDbEntity
8
0-0
6
CONTINUOUS
62
7
100
AcDbCircle
10
329.861376849668
20
276.630043982048
30
0.0
40
0.100000000000
100
AcDbArc
50
225.000000000000
51
304.999999999999
0
ARC
5
6e9
100
AcDbEntity
8
0-0
6
CONTINUOUS
62
7
100
AcDbCircle
10
329.529744719056
20
276.678833400186
30
0.0
40
0.100000000000
100
AcDbArc
50
44.999999999998
51
125.000000000004
0
ARC
5
6ea
100
AcDbEntity
8
0-0
6
CONTINUOUS
62
7
100
AcDbCircle
10
329.111376849668
20
276.630043982048
30
0.0
40
0.100000000000
100
AcDbArc
50
224.999999999999
51
305.000000000001
0
ARC
5
6eb
100
AcDbEntity
8
0-0
6
CONTINUOUS
62
7
100
AcDbCircle
10
328.779744719056
20
276.678833400186
30
0.0
40
0.100000000000
100
AcDbArc
50
44.999999999999
51
125.000000000002
0
ARC
5
6ec
100
AcDbEntity
8
0-0
6
CONTINUOUS
62
7
100
AcDbCircle
10
337.399999475479
20
278.700000000000
30
0.0
40
0.300000000000
100
AcDbArc
50
0.000000000000
51
90.000000000000
0
ARC
5
6ed
100
AcDbEntity
8
0-0
6
CONTINUOUS
62
7
100
AcDbCircle
10
337.199999475480
20
277.500000000000
30
0.0
40
0.500000000000
100
AcDbArc
50
270.000000000000
51
360.000000000000
0
ARC
5
6ee
100
AcDbEntity
8
0-0
6
CONTINUOUS
62
7
100
AcDbCircle
10
334.799999475479
20
286.500000000000
30
0.0
40
0.500000000000
100
AcDbArc
50
90.000000000000
51
180.000000000000
0
ARC
5
6ef
100
AcDbEntity
8
0-0
6
CONTINUOUS
62
7
100
AcDbCircle
10
331.299999475479
20
280.000000000000
30
0.0
40
0.500000000000
100
AcDbArc
50
90.000000000000
51
180.000000000000
0
ARC
5
6f0
100
AcDbEntity
8
0-0
6
CONTINUOUS
62
7
100
AcDbCircle
10
331.299999475479
20
279.705202524907
30
0.0
40
0.500000000000
100
AcDbArc
50
180.000000000000
51
254.999999999995
0
ARC
5
6f1
100
AcDbEntity
8
0-0
6
CONTINUOUS
62
7
100
AcDbCircle
10
332.065825724273
20
279.500000000000
30
0.0
40
0.500000000000
100
AcDbArc
50
254.999999999994
51
270.000000000000
0
ARC
5
6f2
100
AcDbEntity
8
0-0
6
CONTINUOUS
62
7
100
AcDbCircle
10
326.500000000000
20
276.000000000000
30
0.0
40
0.500000000000
100
AcDbArc
50
90.000000000000
51
180.000000000000
0
ARC
5
6f3
100
AcDbEntity
8
0-0
6
CONTINUOUS
62
7
100
AcDbCircle
10
328.721040862841
20
280.580603190348
30
0.0
40
1.000000000000
100
AcDbArc
50
153.216294724015
51
176.531770741084
0
ARC
5
6f4
100
AcDbEntity
8
0-0
6
CONTINUOUS
62
7
100
AcDbCircle
10
329.292130048992
20
280.695470085967
30
0.0
40
0.500000000000
100
AcDbArc
50
155.276951247887
51
180.000000000000
0
ARC
5
6f5
100
AcDbEntity
8
0-0
6
CONTINUOUS
62
7
100
AcDbCircle
10
331.249950659234
20
286.262628831814
30
0.0
40
0.050000000000
100
AcDbArc
50
335.276951247887
51
360.255118703054
0
ARC
5
6f6
100
AcDbEntity
8
0-0
6
CONTINUOUS
62
7
100
AcDbCircle
10
330.481350173842
20
286.397991257621
30
0.0
40
0.050000000000
100
AcDbArc
50
333.216294724015
51
358.392497753752
0
ARC
5
6f7
100
AcDbEntity
8
0-0
6
CONTINUOUS
62
7
100
AcDbCircle
10
334.012595150839
20
278.583850016651
30
0.0
40
0.100000000000
100
AcDbArc
50
270.000000000000
51
290.000000000000
0
ARC
5
6f8
100
AcDbEntity
8
0-0
6
CONTINUOUS
62
7
100
AcDbCircle
10
335.270540862255
20
277.926393970807
30
0.0
40
0.100000000000
100
AcDbArc
50
68.322142889133
51
120.000000000008
0
ARC
5
6f9
100
AcDbEntity
8
0-0
6
CONTINUOUS
62
7
100
AcDbCircle
10
335.492130048991
20
278.483850016651
30
0.0
40
0.499882497433
100
AcDbArc
50
248.322142889132
51
470.000000000005
0
ARC
5
6fa
100
AcDbEntity
8
0-0
6
CONTINUOUS
62
7
100
AcDbCircle
10
332.854455732335
20
276.624733221931
30
0.0
40
0.100000000000
100
AcDbArc
50
220.000000000005
51
310.000000000003
0
ARC
5
6fb
100
AcDbEntity
8
0-0
6
CONTINUOUS
62
7
100
AcDbCircle
10
332.519922432273
20
276.712269718750
30
0.0
40
0.100000000000
100
AcDbArc
50
40.000000000003
51
130.000000000004
0
ARC
5
6fc
100
AcDbEntity
8
0-0
6
CONTINUOUS
62
7
100
AcDbCircle
10
332.104455732335
20
276.624733221931
30
0.0
40
0.100000000000
100
AcDbArc
50
220.000000000004
51
310.000000000003
0
ARC
5
6fd
100
AcDbEntity
8
0-0
6
CONTINUOUS
62
7
100
AcDbCircle
10
331.624554368115
20
276.885512631458
30
0.0
40
0.100000000000
100
AcDbArc
50
40.000000000003
51
87.940222242791
0
ARC
5
6fe
100
AcDbEntity
8
0-0
6
CONTINUOUS
62
7
100
AcDbCircle
10
328.935029651968
20
277.182371769912
30
0.0
40
0.100000000000
100
AcDbArc
50
225.000000000004
51
267.940222242791
0
ARC
5
6ff
100
AcDbEntity
8
0-0
6
CONTINUOUS
62
7
100
AcDbCircle
10
328.350708692754
20
277.483850016651
30
0.0
40
0.100000000000
100
AcDbArc
50
45.000000000002
51
90.000000000000
0
ARC
5
700
100
AcDbEntity
8
0-0
6
CONTINUOUS
62
7
100
AcDbCircle
10
327.692130048992
20
277.683850016650
30
0.0
40
0.100000000000
100
AcDbArc
50
180.000000000000
51
270.000000000000
0
ARC
5
701
100
AcDbEntity
8
0-0
6
CONTINUOUS
62
7
100
AcDbCircle
10
329.792130048992
20
279.483850016651
30
0.0
40
1.000000000000
100
AcDbArc
50
180.000000000000
51
270.000000000000
0
ARC
5
702
100
AcDbEntity
8
0-0
6
CONTINUOUS
62
7
100
AcDbCircle
10
331.193320639637
20
287.751509211804
30
0.0
40
0.100000000000
100
AcDbArc
50
0.255118703059
51
86.309932474024
0
ARC
5
703
100
AcDbEntity
8
0-0
6
CONTINUOUS
62
7
100
AcDbCircle
10
330.670340320789
20
287.785237792913
30
0.0
40
0.100000000000
100
AcDbArc
50
86.309932474025
51
178.392497753751
0
LINE
5
704
100
AcDbEntity
8
0-0
6
CONTINUOUS
62
7
100
AcDbLine
10
332.455643671305
20
276.788874163061
30
0.0
11
332.168734493303
21
276.548128777619
31
0.0
0
LINE
5
705
100
AcDbEntity
8
0-0
6
CONTINUOUS
62
7
100
AcDbLine
10
332.099999475479
20
276.500000000000
30
0.0
11
332.472387075421
21
276.760748604615
31
0.0
0
LINE
5
706
100
AcDbEntity
8
0-0
6
CONTINUOUS
62
7
100
AcDbLine
10
331.199756571061
20
287.851301890827
30
0.0
11
330.676776252214
21
287.885030471936
31
0.0
0
LINE
5
707
100
AcDbEntity
8
0-0
6
CONTINUOUS
62
7
100
AcDbLine
10
331.299950163580
20
286.262851464146
30
0.0
11
331.293319648329
21
287.751954476468
31
0.0
0
LINE
5
708
100
AcDbEntity
8
0-0
6
CONTINUOUS
62
7
100
AcDbLine
10
328.837960046057
20
280.904586341753
30
0.0
11
331.295367659527
21
286.241717206236
31
0.0
0
LINE
5
709
100
AcDbEntity
8
0-0
6
CONTINUOUS
62
7
100
AcDbLine
10
328.792130048992
20
279.483850016651
30
0.0
11
328.792130048992
21
280.695470085967
31
0.0
0
LINE
5
70a
100
AcDbEntity
8
0-0
6
CONTINUOUS
62
7
100
AcDbLine
10
334.012595150839
20
278.483850016651
30
0.0
11
329.792130048992
21
278.483850016651
31
0.0
0
LINE
5
70b
100
AcDbEntity
8
0-0
6
CONTINUOUS
62
7
100
AcDbLine
10
335.321119977329
20
278.953696327043
30
0.0
11
334.046797165171
21
278.489880754572
31
0.0
0
LINE
5
70c
100
AcDbEntity
8
0-0
6
CONTINUOUS
62
7
100
AcDbLine
10
333.438006845288
20
276.983850016651
30
0.0
11
335.220540862254
21
278.012996511186
31
0.0
0
LINE
5
70d
100
AcDbEntity
8
0-0
6
CONTINUOUS
62
7
100
AcDbLine
10
332.918734493303
20
276.548128777619
30
0.0
11
333.438006845288
21
276.983850016651
31
0.0
0
LINE
5
70e
100
AcDbEntity
8
0-0
6
CONTINUOUS
62
7
100
AcDbLine
10
332.596526876585
20
276.776548479718
30
0.0
11
332.777851288023
21
276.560454460962
31
0.0
0
LINE
5
70f
100
AcDbEntity
8
0-0
6
CONTINUOUS
62
7
100
AcDbLine
10
332.849999475479
20
276.500000000000
30
0.0
11
332.600455397175
21
276.749544078305
31
0.0
0
LINE
5
710
100
AcDbEntity
8
0-0
6
CONTINUOUS
62
7
100
AcDbLine
10
333.291122093245
20
276.808877382234
30
0.0
11
332.849999475479
21
276.500000000000
31
0.0
0
LINE
5
711
100
AcDbEntity
8
0-0
6
CONTINUOUS
62
7
100
AcDbLine
10
333.599999475479
20
276.500000000000
30
0.0
11
333.291122093245
21
276.808877382234
31
0.0
0
LINE
5
712
100
AcDbEntity
8
0-0
6
CONTINUOUS
62
7
100
AcDbLine
10
333.972387075421
20
276.760748604615
30
0.0
11
333.599999475479
21
276.500000000000
31
0.0
0
LINE
5
713
100
AcDbEntity
8
0-0
6
CONTINUOUS
62
7
100
AcDbLine
10
334.349999475479
20
276.500000000000
30
0.0
11
334.100455397175
21
276.749544078305
31
0.0
0
LINE
5
714
100
AcDbEntity
8
0-0
6
CONTINUOUS
62
7
100
AcDbLine
10
335.064073478850
20
277.000000000000
30
0.0
11
334.349999475479
21
276.500000000000
31
0.0
0
LINE
5
715
100
AcDbEntity
8
0-0
6
CONTINUOUS
62
7
100
AcDbLine
10
337.199999475480
20
277.000000000000
30
0.0
11
335.064073478850
21
277.000000000000
31
0.0
0
LINE
5
716
100
AcDbEntity
8
0-0
6
CONTINUOUS
62
7
100
AcDbLine
10
337.699999475480
20
278.700000000000
30
0.0
11
337.699999475480
21
277.500000000000
31
0.0
0
LINE
5
717
100
AcDbEntity
8
0-0
6
CONTINUOUS
62
7
100
AcDbLine
10
332.065825724273
20
279.000000000000
30
0.0
11
337.399999475479
21
279.000000000000
31
0.0
0
LINE
5
718
100
AcDbEntity
8
0-0
6
CONTINUOUS
62
7
100
AcDbLine
10
331.170589952928
20
279.222239611762
30
0.0
11
331.936416201722
21
279.017037086855
31
0.0
0
LINE
5
719
100
AcDbEntity
8
0-0
6
CONTINUOUS
62
7
100
AcDbLine
10
330.799999475479
20
280.000000000000
30
0.0
11
330.799999475479
21
279.705202524907
31
0.0
0
LINE
5
71a
100
AcDbEntity
8
0-0
6
CONTINUOUS
62
7
100
AcDbLine
10
334.092892694293
20
280.500000000000
30
0.0
11
331.299999475479
21
280.500000000000
31
0.0
0
LINE
5
71b
100
AcDbEntity
8
0-0
6
CONTINUOUS
62
7
100
AcDbLine
10
336.353552866072
20
282.553553390593
30
0.0
11
334.446446084886
21
280.646446609407
31
0.0
0
LINE
5
71c
100
AcDbEntity
8
0-0
6
CONTINUOUS
62
7
100
AcDbLine
10
336.499999475479
20
284.500000000000
30
0.0
11
336.499999475479
21
282.907106781186
31
0.0
0
LINE
5
71d
100
AcDbEntity
8
0-0
6
CONTINUOUS
62
7
100
AcDbLine
10
334.799999475479
20
285.000000000000
30
0.0
11
335.999999475479
21
285.000000000000
31
0.0
0
LINE
5
71e
100
AcDbEntity
8
0-0
6
CONTINUOUS
62
7
100
AcDbLine
10
334.299999475479
20
286.500000000000
30
0.0
11
334.299999475479
21
285.500000000000
31
0.0
0
LINE
5
71f
100
AcDbEntity
8
0-0
6
CONTINUOUS
62
7
100
AcDbLine
10
339.199999475479
20
287.000000000000
30
0.0
11
334.799999475479
21
287.000000000000
31
0.0
0
LINE
5
720
100
AcDbEntity
8
0-0
6
CONTINUOUS
62
7
100
AcDbLine
10
339.699999475479
20
285.500000000000
30
0.0
11
339.699999475479
21
286.500000000000
31
0.0
0
LINE
5
721
100
AcDbEntity
8
0-0
6
CONTINUOUS
62
7
100
AcDbLine
10
338.699999475479
20
281.907106781186
30
0.0
11
338.699999475479
21
284.500000000000
31
0.0
0
LINE
5
722
100
AcDbEntity
8
0-0
6
CONTINUOUS
62
7
100
AcDbLine
10
339.753552866073
20
280.646446609407
30
0.0
11
338.846446084886
21
281.553553390593
31
0.0
0
LINE
5
723
100
AcDbEntity
8
0-0
6
CONTINUOUS
62
7
100
AcDbLine
10
339.899999475479
20
275.500000524521
30
0.0
11
339.899999475479
21
280.292893218813
31
0.0
0
LINE
5
724
100
AcDbEntity
8
0-0
6
CONTINUOUS
62
7
100
AcDbLine
10
335.999999523163
20
275.000000000000
30
0.0
11
339.399999475479
21
275.000000000000
31
0.0
0
LINE
5
725
100
AcDbEntity
8
0-0
6
CONTINUOUS
62
7
100
AcDbLine
10
335.699999570847
20
274.699999809265
30
0.0
11
335.999999523163
21
275.000000000000
31
0.0
0
LINE
5
726
100
AcDbEntity
8
0-0
6
CONTINUOUS
62
7
100
AcDbLine
10
333.550000000000
20
274.699999809265
30
0.0
11
335.699999570847
21
274.699999809265
31
0.0
0
LINE
5
727
100
AcDbEntity
8
0-0
6
CONTINUOUS
62
7
100
AcDbLine
10
333.250000000000
20
270.610065359921
30
0.0
11
333.250000000000
21
274.399999809265
31
0.0
0
LINE
5
728
100
AcDbEntity
8
0-0
6
CONTINUOUS
62
7
100
AcDbLine
10
335.593782217351
20
273.549999999979
30
0.0
11
333.809807621135
21
270.460065359921
31
0.0
0
LINE
5
729
100
AcDbEntity
8
0-0
6
CONTINUOUS
62
7
100
AcDbLine
10
336.459807621136
20
272.949999999978
30
0.0
11
336.113397459621
21
273.549999999979
31
0.0
0
LINE
5
72a
100
AcDbEntity
8
0-0
6
CONTINUOUS
62
7
100
AcDbLine
10
334.439081678984
20
269.150000000000
30
0.0
11
336.459807621136
21
272.649999999978
31
0.0
0
LINE
5
72b
100
AcDbEntity
8
0-0
6
CONTINUOUS
62
7
100
AcDbLine
10
330.820725942152
20
269.000000000000
30
0.0
11
334.179274057848
21
269.000000000000
31
0.0
0
LINE
5
72c
100
AcDbEntity
8
0-0
6
CONTINUOUS
62
7
100
AcDbLine
10
328.540192378865
20
272.649999999979
30
0.0
11
330.560918321016
21
269.150000000000
31
0.0
0
LINE
5
72d
100
AcDbEntity
8
0-0
6
CONTINUOUS
62
7
100
AcDbLine
10
328.886602540379
20
273.549999999979
30
0.0
11
328.540192378865
21
272.949999999978
31
0.0
0
LINE
5
72e
100
AcDbEntity
8
0-0
6
CONTINUOUS
62
7
100
AcDbLine
10
331.190192378865
20
270.460065359921
30
0.0
11
329.406217782649
21
273.549999999979
31
0.0
0
LINE
5
72f
100
AcDbEntity
8
0-0
6
CONTINUOUS
62
7
100
AcDbLine
10
331.750000000000
20
274.399999809265
30
0.0
11
331.750000000000
21
270.610065359921
31
0.0
0
LINE
5
730
100
AcDbEntity
8
0-0
6
CONTINUOUS
62
7
100
AcDbLine
10
329.299999475479
20
274.699999809265
30
0.0
11
331.450000000000
21
274.699999809265
31
0.0
0
LINE
5
731
100
AcDbEntity
8
0-0
6
CONTINUOUS
62
7
100
AcDbLine
10
328.999999523163
20
275.000000000000
30
0.0
11
329.299999475479
21
274.699999809265
31
0.0
0
LINE
5
732
100
AcDbEntity
8
0-0
6
CONTINUOUS
62
7
100
AcDbLine
10
326.500000000000
20
275.000000000000
30
0.0
11
328.999999523163
21
275.000000000000
31
0.0
0
LINE
5
733
100
AcDbEntity
8
0-0
6
CONTINUOUS
62
7
100
AcDbLine
10
326.000000000000
20
276.000000000000
30
0.0
11
326.000000000000
21
275.500000000000
31
0.0
0
LINE
5
734
100
AcDbEntity
8
0-0
6
CONTINUOUS
62
7
100
AcDbLine
10
328.349999475479
20
276.500000000000
30
0.0
11
326.500000000000
21
276.500000000000
31
0.0
0
LINE
5
735
100
AcDbEntity
8
0-0
6
CONTINUOUS
62
7
100
AcDbLine
10
328.791122093245
20
276.808877382234
30
0.0
11
328.349999475479
21
276.500000000000
31
0.0
0
LINE
5
736
100
AcDbEntity
8
0-0
6
CONTINUOUS
62
7
100
AcDbLine
10
329.099999475479
20
276.500000000000
30
0.0
11
328.791122093245
21
276.808877382234
31
0.0
0
LINE
5
737
100
AcDbEntity
8
0-0
6
CONTINUOUS
62
7
100
AcDbLine
10
329.472387075421
20
276.760748604615
30
0.0
11
329.099999475479
21
276.500000000000
31
0.0
0
LINE
5
738
100
AcDbEntity
8
0-0
6
CONTINUOUS
62
7
100
AcDbLine
10
329.849999475479
20
276.500000000000
30
0.0
11
329.600455397175
21
276.749544078305
31
0.0
0
LINE
5
739
100
AcDbEntity
8
0-0
6
CONTINUOUS
62
7
100
AcDbLine
10
330.291122093245
20
276.808877382234
30
0.0
11
329.849999475479
21
276.500000000000
31
0.0
0
LINE
5
73a
100
AcDbEntity
8
0-0
6
CONTINUOUS
62
7
100
AcDbLine
10
330.599999475479
20
276.500000000000
30
0.0
11
330.291122093245
21
276.808877382234
31
0.0
0
LINE
5
73b
100
AcDbEntity
8
0-0
6
CONTINUOUS
62
7
100
AcDbLine
10
330.972387075421
20
276.760748604615
30
0.0
11
330.599999475479
21
276.500000000000
31
0.0
0
LINE
5
73c
100
AcDbEntity
8
0-0
6
CONTINUOUS
62
7
100
AcDbLine
10
331.349999475479
20
276.500000000000
30
0.0
11
331.100455397175
21
276.749544078305
31
0.0
0
LINE
5
73d
100
AcDbEntity
8
0-0
6
CONTINUOUS
62
7
100
AcDbLine
10
331.791122093245
20
276.808877382234
30
0.0
11
331.349999475479
21
276.500000000000
31
0.0
0
LINE
5
73e
100
AcDbEntity
8
0-0
6
CONTINUOUS
62
7
100
AcDbLine
10
332.099999475479
20
276.500000000000
30
0.0
11
331.791122093245
21
276.808877382234
31
0.0
0
LINE
5
73f
100
AcDbEntity
8
0-0
6
CONTINUOUS
62
7
100
AcDbLine
10
331.701158812427
20
276.949791392427
30
0.0
11
332.027851288023
21
276.560454460962
31
0.0
0
LINE
5
740
100
AcDbEntity
8
0-0
6
CONTINUOUS
62
7
100
AcDbLine
10
328.931435435904
20
277.082436382731
30
0.0
11
331.628148584180
21
276.985448018639
31
0.0
0
LINE
5
741
100
AcDbEntity
8
0-0
6
CONTINUOUS
62
7
100
AcDbLine
10
328.421419370873
20
277.554560694769
30
0.0
11
328.864318973849
21
277.111661091793
31
0.0
0
LINE
5
742
100
AcDbEntity
8
0-0
6
CONTINUOUS
62
7
100
AcDbLine
10
327.692130048992
20
277.583850016651
30
0.0
11
328.350708692754
21
277.583850016651
31
0.0
0
LINE
5
743
100
AcDbEntity
8
0-0
6
CONTINUOUS
62
7
100
AcDbLine
10
327.592130048992
20
278.483850016651
30
0.0
11
327.592130048992
21
277.683850016650
31
0.0
0
LINE
5
744
100
AcDbEntity
8
0-0
6
CONTINUOUS
62
7
100
AcDbLine
10
327.722872366210
20
280.641098250749
30
0.0
11
327.592130048992
21
278.483850016651
31
0.0
0
LINE
5
745
100
AcDbEntity
8
0-0
6
CONTINUOUS
62
7
100
AcDbLine
10
330.525985874361
20
286.375460073916
30
0.0
11
327.828326852455
21
281.031226864448
31
0.0
0
LINE
5
746
100
AcDbEntity
8
0-0
6
CONTINUOUS
62
7
100
AcDbLine
10
330.570379675745
20
287.788043045546
30
0.0
11
330.531330496364
21
286.396588631304
31
0.0
0
ARC
5
747
100
AcDbEntity
8
0-0
6
CONTINUOUS
62
7
100
AcDbCircle
10
409.399999475479
20
275.500000524521
30
0.0
40
0.500000000000
100
AcDbArc
50
270.000000000000
51
360.000000000000
0
ARC
5
748
100
AcDbEntity
8
0-0
6
CONTINUOUS
62
7
100
AcDbCircle
10
409.399999475479
20
280.292893218813
30
0.0
40
0.500000000000
100
AcDbArc
50
0.000000000000
51
45.000000000000
0
ARC
5
749
100
AcDbEntity
8
0-0
6
CONTINUOUS
62
7
100
AcDbCircle
10
400.820725942151
20
269.300000000000
30
0.0
40
0.300000000000
100
AcDbArc
50
210.000000000002
51
270.000000000000
0
ARC
5
74a
100
AcDbEntity
8
0-0
6
CONTINUOUS
62
7
100
AcDbCircle
10
404.179274057848
20
269.300000000000
30
0.0
40
0.300000000000
100
AcDbArc
50
270.000000000000
51
329.999999999995
0
ARC
5
74b
100
AcDbEntity
8
0-0
6
CONTINUOUS
62
7
100
AcDbCircle
10
405.999999475479
20
282.907106781186
30
0.0
40
0.500000000000
100
AcDbArc
50
314.999999999999
51
360.000000000000
0
ARC
5
74c
100
AcDbEntity
8
0-0
6
CONTINUOUS
62
7
100
AcDbCircle
10
405.999999475479
20
284.500000000000
30
0.0
40
0.500000000000
100
AcDbArc
50
0.000000000000
51
90.000000000000
0
ARC
5
74d
100
AcDbEntity
8
0-0
6
CONTINUOUS
62
7
100
AcDbCircle
10
404.799999475479
20
285.500000000000
30
0.0
40
0.500000000000
100
AcDbArc
50
180.000000000000
51
270.000000000000
0
ARC
5
74e
100
AcDbEntity
8
0-0
6
CONTINUOUS
62
7
100
AcDbCircle
10
404.092892694292
20
281.000000000000
30
0.0
40
0.500000000000
100
AcDbArc
50
270.000000000000
51
314.999999999999
0
ARC
5
74f
100
AcDbEntity
8
0-0
6
CONTINUOUS
62
7
100
AcDbCircle
10
401.450000000000
20
274.399999809265
30
0.0
40
0.300000000000
100
AcDbArc
50
0.000000000000
51
90.000000000000
0
ARC
5
750
100
AcDbEntity
8
0-0
6
CONTINUOUS
62
7
100
AcDbCircle
10
403.550000000000
20
274.399999809265
30
0.0
40
0.300000000000
100
AcDbArc
50
90.000000000000
51
180.000000000000
0
ARC
5
751
100
AcDbEntity
8
0-0
6
CONTINUOUS
62
7
100
AcDbCircle
10
409.199999475479
20
281.907106781186
30
0.0
40
0.500000000000
100
AcDbArc
50
180.000000000000
51
224.999999999998
0
ARC
5
752
100
AcDbEntity
8
0-0
6
CONTINUOUS
62
7
100
AcDbCircle
10
409.199999475479
20
284.500000000000
30
0.0
40
0.500000000000
100
AcDbArc
50
90.000000000000
51
180.000000000000
0
ARC
5
753
100
AcDbEntity
8
0-0
6
CONTINUOUS
62
7
100
AcDbCircle
10
409.199999475479
20
285.500000000000
30
0.0
40
0.500000000000
100
AcDbArc
50
270.000000000000
51
360.000000000000
0
ARC
5
754
100
AcDbEntity
8
0-0
6
CONTINUOUS
62
7
100
AcDbCircle
10
409.199999475479
20
286.500000000000
30
0.0
40
0.500000000000
100
AcDbArc
50
0.000000000000
51
90.000000000000
0
ARC
5
755
100
AcDbEntity
8
0-0
6
CONTINUOUS
62
7
100
AcDbCircle
10
396.500000000000
20
275.500000000000
30
0.0
40
0.500000000000
100
AcDbArc
50
180.000000000000
51
270.000000000000
0
ARC
5
756
100
AcDbEntity
8
0-0
6
CONTINUOUS
62
7
100
AcDbCircle
10
398.800000000000
20
272.799999999979
30
0.0
40
0.300000000000
100
AcDbArc
50
150.000000000004
51
209.999999999996
0
ARC
5
757
100
AcDbEntity
8
0-0
6
CONTINUOUS
62
7
100
AcDbCircle
10
401.450000000000
20
270.610065359921
30
0.0
40
0.300000000000
100
AcDbArc
50
210.000000000000
51
360.000000000000
0
ARC
5
758
100
AcDbEntity
8
0-0
6
CONTINUOUS
62
7
100
AcDbCircle
10
399.146410161514
20
273.399999999978
30
0.0
40
0.300000000000
100
AcDbArc
50
30.000000000000
51
150.000000000001
0
ARC
5
759
100
AcDbEntity
8
0-0
6
CONTINUOUS
62
7
100
AcDbCircle
10
406.200000000000
20
272.799999999979
30
0.0
40
0.300000000000
100
AcDbArc
50
330.000000000004
51
389.999999999996
0
ARC
5
75a
100
AcDbEntity
8
0-0
6
CONTINUOUS
62
7
100
AcDbCircle
10
405.853589838486
20
273.399999999978
30
0.0
40
0.300000000000
100
AcDbArc
50
29.999999999999
51
150.000000000000
0
ARC
5
75b
100
AcDbEntity
8
0-0
6
CONTINUOUS
62
7
100
AcDbCircle
10
403.550000000000
20
270.610065359921
30
0.0
40
0.300000000000
100
AcDbArc
50
180.000000000000
51
330.000000000000
0
ARC
5
75c
100
AcDbEntity
8
0-0
6
CONTINUOUS
62
7
100
AcDbCircle
10
402.111376849668
20
276.630043982048
30
0.0
40
0.100000000000
100
AcDbArc
50
224.999999999999
51
305.000000000001
0
ARC
5
75d
100
AcDbEntity
8
0-0
6
CONTINUOUS
62
7
100
AcDbCircle
10
401.779744719056
20
276.678833400186
30
0.0
40
0.100000000000
100
AcDbArc
50
44.999999999999
51
125.000000000002
0
ARC
5
75e
100
AcDbEntity
8
0-0
6
CONTINUOUS
62
7
100
AcDbCircle
10
401.361376849668
20
276.630043982048
30
0.0
40
0.100000000000
100
AcDbArc
50
225.000000000000
51
304.999999999999
0
ARC
5
75f
100
AcDbEntity
8
0-0
6
CONTINUOUS
62
7
100
AcDbCircle
10
401.029744719056
20
276.678833400186
30
0.0
40
0.100000000000
100
AcDbArc
50
44.999999999998
51
125.000000000004
0
ARC
5
760
100
AcDbEntity
8
0-0
6
CONTINUOUS
62
7
100
AcDbCircle
10
403.611376849668
20
276.630043982048
30
0.0
40
0.100000000000
100
AcDbArc
50
224.999999999999
51
305.000000000001
0
ARC
5
761
100
AcDbEntity
8
0-0
6
CONTINUOUS
62
7
100
AcDbCircle
10
403.279744719056
20
276.678833400186
30
0.0
40
0.100000000000
100
AcDbArc
50
44.999999999999
51
125.000000000002
0
ARC
5
762
100
AcDbEntity
8
0-0
6
CONTINUOUS
62
7
100
AcDbCircle
10
402.861376849668
20
276.630043982048
30
0.0
40
0.100000000000
100
AcDbArc
50
225.000000000000
51
304.999999999999
0
ARC
5
763
100
AcDbEntity
8
0-0
6
CONTINUOUS
62
7
100
AcDbCircle
10
402.529744719056
20
276.678833400186
30
0.0
40
0.100000000000
100
AcDbArc
50
44.999999999998
51
125.000000000004
0
ARC
5
764
100
AcDbEntity
8
0-0
6
CONTINUOUS
62
7
100
AcDbCircle
10
404.361376849668
20
276.630043982048
30
0.0
40
0.100000000000
100
AcDbArc
50
225.000000000000
51
304.999999999999
0
ARC
5
765
100
AcDbEntity
8
0-0
6
CONTINUOUS
62
7
100
AcDbCircle
10
404.029744719056
20
276.678833400186
30
0.0
40
0.100000000000
100
AcDbArc
50
44.999999999998
51
125.000000000004
0
ARC
5
766
100
AcDbEntity
8
0-0
6
CONTINUOUS
62
7
100
AcDbCircle
10
400.611376849668
20
276.630043982048
30
0.0
40
0.100000000000
100
AcDbArc
50
224.999999999999
51
305.000000000001
0
ARC
5
767
100
AcDbEntity
8
0-0
6
CONTINUOUS
62
7
100
AcDbCircle
10
400.279744719056
20
276.678833400186
30
0.0
40
0.100000000000
100
AcDbArc
50
44.999999999999
51
125.000000000002
0
ARC
5
768
100
AcDbEntity
8
0-0
6
CONTINUOUS
62
7
100
AcDbCircle
10
399.861376849668
20
276.630043982048
30
0.0
40
0.100000000000
100
AcDbArc
50
225.000000000000
51
304.999999999999
0
ARC
5
769
100
AcDbEntity
8
0-0
6
CONTINUOUS
62
7
100
AcDbCircle
10
399.529744719056
20
276.678833400186
30
0.0
40
0.100000000000
100
AcDbArc
50
44.999999999998
51
125.000000000004
0
ARC
5
76a
100
AcDbEntity
8
0-0
6
CONTINUOUS
62
7
100
AcDbCircle
10
399.111376849668
20
276.630043982048
30
0.0
40
0.100000000000
100
AcDbArc
50
224.999999999999
51
305.000000000001
0
ARC
5
76b
100
AcDbEntity
8
0-0
6
CONTINUOUS
62
7
100
AcDbCircle
10
398.779744719056
20
276.678833400186
30
0.0
40
0.100000000000
100
AcDbArc
50
44.999999999999
51
125.000000000002
0
ARC
5
76c
100
AcDbEntity
8
0-0
6
CONTINUOUS
62
7
100
AcDbCircle
10
407.399999475479
20
278.700000000000
30
0.0
40
0.300000000000
100
AcDbArc
50
0.000000000000
51
90.000000000000
0
ARC
5
76d
100
AcDbEntity
8
0-0
6
CONTINUOUS
62
7
100
AcDbCircle
10
407.199999475479
20
277.500000000000
30
0.0
40
0.500000000000
100
AcDbArc
50
270.000000000000
51
360.000000000000
0
ARC
5
76e
100
AcDbEntity
8
0-0
6
CONTINUOUS
62
7
100
AcDbCircle
10
404.799999475479
20
286.500000000000
30
0.0
40
0.500000000000
100
AcDbArc
50
90.000000000000
51
180.000000000000
0
ARC
5
76f
100
AcDbEntity
8
0-0
6
CONTINUOUS
62
7
100
AcDbCircle
10
401.299999475479
20
280.000000000000
30
0.0
40
0.500000000000
100
AcDbArc
50
90.000000000000
51
180.000000000000
0
ARC
5
770
100
AcDbEntity
8
0-0
6
CONTINUOUS
62
7
100
AcDbCircle
10
401.299999475479
20
279.705202524907
30
0.0
40
0.500000000000
100
AcDbArc
50
180.000000000000
51
254.999999999995
0
ARC
5
771
100
AcDbEntity
8
0-0
6
CONTINUOUS
62
7
100
AcDbCircle
10
402.065825724273
20
279.500000000000
30
0.0
40
0.500000000000
100
AcDbArc
50
254.999999999994
51
270.000000000000
0
ARC
5
772
100
AcDbEntity
8
0-0
6
CONTINUOUS
62
7
100
AcDbCircle
10
396.500000000000
20
276.000000000000
30
0.0
40
0.500000000000
100
AcDbArc
50
90.000000000000
51
180.000000000000
0
ARC
5
773
100
AcDbEntity
8
0-0
6
CONTINUOUS
62
7
100
AcDbCircle
10
397.065044239585
20
280.579289347203
30
0.0
40
0.500000000000
100
AcDbArc
50
153.837594329501
51
180.000000000000
0
ARC
5
774
100
AcDbEntity
8
0-0
6
CONTINUOUS
62
7
100
AcDbCircle
10
396.480908663594
20
280.365337757984
30
0.0
40
1.000000000000
100
AcDbArc
50
152.191685879542
51
176.531770741084
0
ARC
5
775
100
AcDbEntity
8
0-0
6
CONTINUOUS
62
7
100
AcDbCircle
10
399.193369951536
20
287.751509211804
30
0.0
40
0.100000000000
100
AcDbArc
50
0.255118703059
51
86.309932474024
0
ARC
5
776
100
AcDbEntity
8
0-0
6
CONTINUOUS
62
7
100
AcDbCircle
10
398.670389632689
20
287.785237792913
30
0.0
40
0.100000000000
100
AcDbArc
50
86.309932474025
51
178.392497753751
0
ARC
5
777
100
AcDbEntity
8
0-0
6
CONTINUOUS
62
7
100
AcDbCircle
10
401.785509341433
20
278.583850016651
30
0.0
40
0.100000000000
100
AcDbArc
50
270.000000000000
51
290.000000000000
0
ARC
5
778
100
AcDbEntity
8
0-0
6
CONTINUOUS
62
7
100
AcDbCircle
10
403.043455052848
20
277.926393970807
30
0.0
40
0.100000000000
100
AcDbArc
50
68.322142889133
51
120.000000000008
0
ARC
5
779
100
AcDbEntity
8
0-0
6
CONTINUOUS
62
7
100
AcDbCircle
10
403.265044239585
20
278.483850016651
30
0.0
40
0.499882497433
100
AcDbArc
50
248.322142889132
51
470.000000000005
0
ARC
5
77a
100
AcDbEntity
8
0-0
6
CONTINUOUS
62
7
100
AcDbCircle
10
400.627369922928
20
276.624733221931
30
0.0
40
0.100000000000
100
AcDbArc
50
220.000000000005
51
310.000000000003
0
ARC
5
77b
100
AcDbEntity
8
0-0
6
CONTINUOUS
62
7
100
AcDbCircle
10
400.292836622867
20
276.712269718750
30
0.0
40
0.100000000000
100
AcDbArc
50
40.000000000003
51
130.000000000004
0
ARC
5
77c
100
AcDbEntity
8
0-0
6
CONTINUOUS
62
7
100
AcDbCircle
10
399.877369922928
20
276.624733221931
30
0.0
40
0.100000000000
100
AcDbArc
50
220.000000000004
51
310.000000000003
0
ARC
5
77d
100
AcDbEntity
8
0-0
6
CONTINUOUS
62
7
100
AcDbCircle
10
399.397468558709
20
276.885512631458
30
0.0
40
0.100000000000
100
AcDbArc
50
40.000000000003
51
87.940222242791
0
ARC
5
77e
100
AcDbEntity
8
0-0
6
CONTINUOUS
62
7
100
AcDbCircle
10
396.707943842561
20
277.182371769912
30
0.0
40
0.100000000000
100
AcDbArc
50
225.000000000004
51
267.940222242791
0
ARC
5
77f
100
AcDbEntity
8
0-0
6
CONTINUOUS
62
7
100
AcDbCircle
10
396.123622883348
20
277.483850016651
30
0.0
40
0.100000000000
100
AcDbArc
50
45.000000000002
51
90.000000000000
0
ARC
5
780
100
AcDbEntity
8
0-0
6
CONTINUOUS
62
7
100
AcDbCircle
10
395.465044239585
20
277.683850016650
30
0.0
40
0.100000000000
100
AcDbArc
50
180.000000000000
51
270.000000000000
0
ARC
5
781
100
AcDbEntity
8
0-0
6
CONTINUOUS
62
7
100
AcDbCircle
10
397.565044239585
20
279.483850016651
30
0.0
40
1.000000000000
100
AcDbArc
50
180.000000000000
51
270.000000000000
0
LINE
5
782
100
AcDbEntity
8
0-0
6
CONTINUOUS
62
7
100
AcDbLine
10
409.753552866072
20
280.646446609407
30
0.0
11
408.846446084885
21
281.553553390593
31
0.0
0
LINE
5
783
100
AcDbEntity
8
0-0
6
CONTINUOUS
62
7
100
AcDbLine
10
409.899999475479
20
275.500000524521
30
0.0
11
409.899999475479
21
280.292893218813
31
0.0
0
LINE
5
784
100
AcDbEntity
8
0-0
6
CONTINUOUS
62
7
100
AcDbLine
10
405.999999523163
20
275.000000000000
30
0.0
11
409.399999475479
21
275.000000000000
31
0.0
0
LINE
5
785
100
AcDbEntity
8
0-0
6
CONTINUOUS
62
7
100
AcDbLine
10
405.699999570847
20
274.699999809265
30
0.0
11
405.999999523163
21
275.000000000000
31
0.0
0
LINE
5
786
100
AcDbEntity
8
0-0
6
CONTINUOUS
62
7
100
AcDbLine
10
403.550000000000
20
274.699999809265
30
0.0
11
405.699999570847
21
274.699999809265
31
0.0
0
LINE
5
787
100
AcDbEntity
8
0-0
6
CONTINUOUS
62
7
100
AcDbLine
10
403.250000000000
20
270.610065359921
30
0.0
11
403.250000000000
21
274.399999809265
31
0.0
0
LINE
5
788
100
AcDbEntity
8
0-0
6
CONTINUOUS
62
7
100
AcDbLine
10
405.593782217351
20
273.549999999979
30
0.0
11
403.809807621135
21
270.460065359921
31
0.0
0
LINE
5
789
100
AcDbEntity
8
0-0
6
CONTINUOUS
62
7
100
AcDbLine
10
406.459807621135
20
272.949999999978
30
0.0
11
406.113397459621
21
273.549999999979
31
0.0
0
LINE
5
78a
100
AcDbEntity
8
0-0
6
CONTINUOUS
62
7
100
AcDbLine
10
404.439081678984
20
269.150000000000
30
0.0
11
406.459807621135
21
272.649999999978
31
0.0
0
LINE
5
78b
100
AcDbEntity
8
0-0
6
CONTINUOUS
62
7
100
AcDbLine
10
400.820725942151
20
269.000000000000
30
0.0
11
404.179274057848
21
269.000000000000
31
0.0
0
LINE
5
78c
100
AcDbEntity
8
0-0
6
CONTINUOUS
62
7
100
AcDbLine
10
398.540192378865
20
272.649999999979
30
0.0
11
400.560918321016
21
269.150000000000
31
0.0
0
LINE
5
78d
100
AcDbEntity
8
0-0
6
CONTINUOUS
62
7
100
AcDbLine
10
398.886602540378
20
273.549999999979
30
0.0
11
398.540192378865
21
272.949999999978
31
0.0
0
LINE
5
78e
100
AcDbEntity
8
0-0
6
CONTINUOUS
62
7
100
AcDbLine
10
401.190192378865
20
270.460065359921
30
0.0
11
399.406217782649
21
273.549999999979
31
0.0
0
LINE
5
78f
100
AcDbEntity
8
0-0
6
CONTINUOUS
62
7
100
AcDbLine
10
401.750000000000
20
274.399999809265
30
0.0
11
401.750000000000
21
270.610065359921
31
0.0
0
LINE
5
790
100
AcDbEntity
8
0-0
6
CONTINUOUS
62
7
100
AcDbLine
10
399.299999475479
20
274.699999809265
30
0.0
11
401.450000000000
21
274.699999809265
31
0.0
0
LINE
5
791
100
AcDbEntity
8
0-0
6
CONTINUOUS
62
7
100
AcDbLine
10
398.999999523163
20
275.000000000000
30
0.0
11
399.299999475479
21
274.699999809265
31
0.0
0
LINE
5
792
100
AcDbEntity
8
0-0
6
CONTINUOUS
62
7
100
AcDbLine
10
396.500000000000
20
275.000000000000
30
0.0
11
398.999999523163
21
275.000000000000
31
0.0
0
LINE
5
793
100
AcDbEntity
8
0-0
6
CONTINUOUS
62
7
100
AcDbLine
10
396.000000000000
20
276.000000000000
30
0.0
11
396.000000000000
21
275.500000000000
31
0.0
0
LINE
5
794
100
AcDbEntity
8
0-0
6
CONTINUOUS
62
7
100
AcDbLine
10
399.401062774773
20
276.985448018639
30
0.0
11
396.704349626497
21
277.082436382731
31
0.0
0
LINE
5
795
100
AcDbEntity
8
0-0
6
CONTINUOUS
62
7
100
AcDbLine
10
399.800765478616
20
276.560454460962
30
0.0
11
399.474073003021
21
276.949791392427
31
0.0
0
LINE
5
796
100
AcDbEntity
8
0-0
6
CONTINUOUS
62
7
100
AcDbLine
10
400.228557861898
20
276.788874163061
30
0.0
11
399.941648683897
21
276.548128777619
31
0.0
0
LINE
5
797
100
AcDbEntity
8
0-0
6
CONTINUOUS
62
7
100
AcDbLine
10
400.550765478616
20
276.560454460962
30
0.0
11
400.369441067179
21
276.776548479718
31
0.0
0
LINE
5
798
100
AcDbEntity
8
0-0
6
CONTINUOUS
62
7
100
AcDbLine
10
401.210921035882
20
276.983850016651
30
0.0
11
400.691648683897
21
276.548128777619
31
0.0
0
LINE
5
799
100
AcDbEntity
8
0-0
6
CONTINUOUS
62
7
100
AcDbLine
10
402.993455052848
20
278.012996511186
30
0.0
11
401.210921035882
21
276.983850016651
31
0.0
0
LINE
5
79a
100
AcDbEntity
8
0-0
6
CONTINUOUS
62
7
100
AcDbLine
10
401.819711355765
20
278.489880754572
30
0.0
11
403.094034167922
21
278.953696327043
31
0.0
0
LINE
5
79b
100
AcDbEntity
8
0-0
6
CONTINUOUS
62
7
100
AcDbLine
10
397.565044239585
20
278.483850016651
30
0.0
11
401.785509341433
21
278.483850016651
31
0.0
0
LINE
5
79c
100
AcDbEntity
8
0-0
6
CONTINUOUS
62
7
100
AcDbLine
10
396.565044239585
20
280.579289347203
30
0.0
11
396.565044239585
21
279.483850016651
31
0.0
0
LINE
5
79d
100
AcDbEntity
8
0-0
6
CONTINUOUS
62
7
100
AcDbLine
10
399.299999475479
20
286.262851464146
30
0.0
11
396.616270305440
21
280.799747860380
31
0.0
0
LINE
5
79e
100
AcDbEntity
8
0-0
6
CONTINUOUS
62
7
100
AcDbLine
10
399.293368960228
20
287.751954476468
30
0.0
11
399.299999475479
21
286.262851464146
31
0.0
0
LINE
5
79f
100
AcDbEntity
8
0-0
6
CONTINUOUS
62
7
100
AcDbLine
10
398.676825564114
20
287.885030471936
30
0.0
11
399.199805882960
21
287.851301890827
31
0.0
0
LINE
5
7a0
100
AcDbEntity
8
0-0
6
CONTINUOUS
62
7
100
AcDbLine
10
398.531379808263
20
286.396588631304
30
0.0
11
398.570428987644
21
287.788043045546
31
0.0
0
LINE
5
7a1
100
AcDbEntity
8
0-0
6
CONTINUOUS
62
7
100
AcDbLine
10
395.596395374487
20
280.831852753876
30
0.0
11
398.531379808263
21
286.396588631304
31
0.0
0
LINE
5
7a2
100
AcDbEntity
8
0-0
6
CONTINUOUS
62
7
100
AcDbLine
10
395.365044239585
20
278.483850016651
30
0.0
11
395.482740166963
21
280.425832818386
31
0.0
0
LINE
5
7a3
100
AcDbEntity
8
0-0
6
CONTINUOUS
62
7
100
AcDbLine
10
395.365044239585
20
277.683850016650
30
0.0
11
395.365044239585
21
278.483850016651
31
0.0
0
LINE
5
7a4
100
AcDbEntity
8
0-0
6
CONTINUOUS
62
7
100
AcDbLine
10
396.123622883348
20
277.583850016651
30
0.0
11
395.465044239585
21
277.583850016651
31
0.0
0
LINE
5
7a5
100
AcDbEntity
8
0-0
6
CONTINUOUS
62
7
100
AcDbLine
10
396.637233164442
20
277.111661091793
30
0.0
11
396.194333561466
21
277.554560694769
31
0.0
0
LINE
5
7a6
100
AcDbEntity
8
0-0
6
CONTINUOUS
62
7
100
AcDbLine
10
398.349999475479
20
276.500000000000
30
0.0
11
396.500000000000
21
276.500000000000
31
0.0
0
LINE
5
7a7
100
AcDbEntity
8
0-0
6
CONTINUOUS
62
7
100
AcDbLine
10
398.791122093245
20
276.808877382234
30
0.0
11
398.349999475479
21
276.500000000000
31
0.0
0
LINE
5
7a8
100
AcDbEntity
8
0-0
6
CONTINUOUS
62
7
100
AcDbLine
10
399.099999475479
20
276.500000000000
30
0.0
11
398.791122093245
21
276.808877382234
31
0.0
0
LINE
5
7a9
100
AcDbEntity
8
0-0
6
CONTINUOUS
62
7
100
AcDbLine
10
399.472387075421
20
276.760748604615
30
0.0
11
399.099999475479
21
276.500000000000
31
0.0
0
LINE
5
7aa
100
AcDbEntity
8
0-0
6
CONTINUOUS
62
7
100
AcDbLine
10
399.849999475479
20
276.500000000000
30
0.0
11
399.600455397174
21
276.749544078305
31
0.0
0
LINE
5
7ab
100
AcDbEntity
8
0-0
6
CONTINUOUS
62
7
100
AcDbLine
10
400.291122093245
20
276.808877382234
30
0.0
11
399.849999475479
21
276.500000000000
31
0.0
0
LINE
5
7ac
100
AcDbEntity
8
0-0
6
CONTINUOUS
62
7
100
AcDbLine
10
400.599999475479
20
276.500000000000
30
0.0
11
400.291122093245
21
276.808877382234
31
0.0
0
LINE
5
7ad
100
AcDbEntity
8
0-0
6
CONTINUOUS
62
7
100
AcDbLine
10
400.972387075421
20
276.760748604615
30
0.0
11
400.599999475479
21
276.500000000000
31
0.0
0
LINE
5
7ae
100
AcDbEntity
8
0-0
6
CONTINUOUS
62
7
100
AcDbLine
10
401.349999475479
20
276.500000000000
30
0.0
11
401.100455397174
21
276.749544078305
31
0.0
0
LINE
5
7af
100
AcDbEntity
8
0-0
6
CONTINUOUS
62
7
100
AcDbLine
10
401.791122093245
20
276.808877382234
30
0.0
11
401.349999475479
21
276.500000000000
31
0.0
0
LINE
5
7b0
100
AcDbEntity
8
0-0
6
CONTINUOUS
62
7
100
AcDbLine
10
402.099999475479
20
276.500000000000
30
0.0
11
401.791122093245
21
276.808877382234
31
0.0
0
LINE
5
7b1
100
AcDbEntity
8
0-0
6
CONTINUOUS
62
7
100
AcDbLine
10
402.472387075421
20
276.760748604615
30
0.0
11
402.099999475479
21
276.500000000000
31
0.0
0
LINE
5
7b2
100
AcDbEntity
8
0-0
6
CONTINUOUS
62
7
100
AcDbLine
10
402.849999475479
20
276.500000000000
30
0.0
11
402.600455397174
21
276.749544078305
31
0.0
0
LINE
5
7b3
100
AcDbEntity
8
0-0
6
CONTINUOUS
62
7
100
AcDbLine
10
403.291122093245
20
276.808877382234
30
0.0
11
402.849999475479
21
276.500000000000
31
0.0
0
LINE
5
7b4
100
AcDbEntity
8
0-0
6
CONTINUOUS
62
7
100
AcDbLine
10
403.599999475479
20
276.500000000000
30
0.0
11
403.291122093245
21
276.808877382234
31
0.0
0
LINE
5
7b5
100
AcDbEntity
8
0-0
6
CONTINUOUS
62
7
100
AcDbLine
10
403.972387075421
20
276.760748604615
30
0.0
11
403.599999475479
21
276.500000000000
31
0.0
0
LINE
5
7b6
100
AcDbEntity
8
0-0
6
CONTINUOUS
62
7
100
AcDbLine
10
404.349999475479
20
276.500000000000
30
0.0
11
404.100455397174
21
276.749544078305
31
0.0
0
LINE
5
7b7
100
AcDbEntity
8
0-0
6
CONTINUOUS
62
7
100
AcDbLine
10
405.064073478850
20
277.000000000000
30
0.0
11
404.349999475479
21
276.500000000000
31
0.0
0
LINE
5
7b8
100
AcDbEntity
8
0-0
6
CONTINUOUS
62
7
100
AcDbLine
10
407.199999475479
20
277.000000000000
30
0.0
11
405.064073478850
21
277.000000000000
31
0.0
0
LINE
5
7b9
100
AcDbEntity
8
0-0
6
CONTINUOUS
62
7
100
AcDbLine
10
407.699999475479
20
278.700000000000
30
0.0
11
407.699999475479
21
277.500000000000
31
0.0
0
LINE
5
7ba
100
AcDbEntity
8
0-0
6
CONTINUOUS
62
7
100
AcDbLine
10
402.065825724273
20
279.000000000000
30
0.0
11
407.399999475479
21
279.000000000000
31
0.0
0
LINE
5
7bb
100
AcDbEntity
8
0-0
6
CONTINUOUS
62
7
100
AcDbLine
10
401.170589952928
20
279.222239611762
30
0.0
11
401.936416201721
21
279.017037086855
31
0.0
0
LINE
5
7bc
100
AcDbEntity
8
0-0
6
CONTINUOUS
62
7
100
AcDbLine
10
400.799999475479
20
280.000000000000
30
0.0
11
400.799999475479
21
279.705202524907
31
0.0
0
LINE
5
7bd
100
AcDbEntity
8
0-0
6
CONTINUOUS
62
7
100
AcDbLine
10
404.092892694292
20
280.500000000000
30
0.0
11
401.299999475479
21
280.500000000000
31
0.0
0
LINE
5
7be
100
AcDbEntity
8
0-0
6
CONTINUOUS
62
7
100
AcDbLine
10
406.353552866072
20
282.553553390593
30
0.0
11
404.446446084886
21
280.646446609407
31
0.0
0
LINE
5
7bf
100
AcDbEntity
8
0-0
6
CONTINUOUS
62
7
100
AcDbLine
10
406.499999475479
20
284.500000000000
30
0.0
11
406.499999475479
21
282.907106781186
31
0.0
0
LINE
5
7c0
100
AcDbEntity
8
0-0
6
CONTINUOUS
62
7
100
AcDbLine
10
404.799999475479
20
285.000000000000
30
0.0
11
405.999999475479
21
285.000000000000
31
0.0
0
LINE
5
7c1
100
AcDbEntity
8
0-0
6
CONTINUOUS
62
7
100
AcDbLine
10
404.299999475479
20
286.500000000000
30
0.0
11
404.299999475479
21
285.500000000000
31
0.0
0
LINE
5
7c2
100
AcDbEntity
8
0-0
6
CONTINUOUS
62
7
100
AcDbLine
10
409.199999475479
20
287.000000000000
30
0.0
11
404.799999475479
21
287.000000000000
31
0.0
0
LINE
5
7c3
100
AcDbEntity
8
0-0
6
CONTINUOUS
62
7
100
AcDbLine
10
409.699999475479
20
285.500000000000
30
0.0
11
409.699999475479
21
286.500000000000
31
0.0
0
LINE
5
7c4
100
AcDbEntity
8
0-0
6
CONTINUOUS
62
7
100
AcDbLine
10
408.699999475479
20
281.907106781186
30
0.0
11
408.699999475479
21
284.500000000000
31
0.0
0
ARC
5
7c5
100
AcDbEntity
8
0-0
6
CONTINUOUS
62
7
100
AcDbCircle
10
269.400000000000
20
275.500000000000
30
0.0
40
0.500000000000
100
AcDbArc
50
270.000000000000
51
360.000000000000
0
ARC
5
7c6
100
AcDbEntity
8
0-0
6
CONTINUOUS
62
7
100
AcDbCircle
10
269.400000000000
20
280.292892694292
30
0.0
40
0.500000000000
100
AcDbArc
50
0.000000000000
51
45.000000000000
0
ARC
5
7c7
100
AcDbEntity
8
0-0
6
CONTINUOUS
62
7
100
AcDbCircle
10
260.820725942152
20
269.300000000000
30
0.0
40
0.300000000000
100
AcDbArc
50
210.000000000002
51
270.000000000000
0
ARC
5
7c8
100
AcDbEntity
8
0-0
6
CONTINUOUS
62
7
100
AcDbCircle
10
264.179274057848
20
269.300000000000
30
0.0
40
0.300000000000
100
AcDbArc
50
270.000000000000
51
329.999999999995
0
ARC
5
7c9
100
AcDbEntity
8
0-0
6
CONTINUOUS
62
7
100
AcDbCircle
10
265.999999475479
20
282.907106781186
30
0.0
40
0.500000000000
100
AcDbArc
50
314.999999999999
51
360.000000000000
0
ARC
5
7ca
100
AcDbEntity
8
0-0
6
CONTINUOUS
62
7
100
AcDbCircle
10
265.999999475479
20
284.500000000000
30
0.0
40
0.500000000000
100
AcDbArc
50
0.000000000000
51
90.000000000000
0
ARC
5
7cb
100
AcDbEntity
8
0-0
6
CONTINUOUS
62
7
100
AcDbCircle
10
264.799999475479
20
285.500000000000
30
0.0
40
0.500000000000
100
AcDbArc
50
180.000000000000
51
270.000000000000
0
ARC
5
7cc
100
AcDbEntity
8
0-0
6
CONTINUOUS
62
7
100
AcDbCircle
10
264.092892694292
20
281.000000000000
30
0.0
40
0.500000000000
100
AcDbArc
50
270.000000000000
51
314.999999999999
0
ARC
5
7cd
100
AcDbEntity
8
0-0
6
CONTINUOUS
62
7
100
AcDbCircle
10
261.450000000000
20
274.399999809265
30
0.0
40
0.300000000000
100
AcDbArc
50
0.000000000000
51
90.000000000000
0
ARC
5
7ce
100
AcDbEntity
8
0-0
6
CONTINUOUS
62
7
100
AcDbCircle
10
263.550000000000
20
274.399999809265
30
0.0
40
0.300000000000
100
AcDbArc
50
90.000000000000
51
180.000000000000
0
ARC
5
7cf
100
AcDbEntity
8
0-0
6
CONTINUOUS
62
7
100
AcDbCircle
10
269.199999475479
20
281.907106781186
30
0.0
40
0.500000000000
100
AcDbArc
50
180.000000000000
51
224.999999999998
0
ARC
5
7d0
100
AcDbEntity
8
0-0
6
CONTINUOUS
62
7
100
AcDbCircle
10
269.199999475479
20
284.500000000000
30
0.0
40
0.500000000000
100
AcDbArc
50
90.000000000000
51
180.000000000000
0
ARC
5
7d1
100
AcDbEntity
8
0-0
6
CONTINUOUS
62
7
100
AcDbCircle
10
269.199999475479
20
285.500000000000
30
0.0
40
0.500000000000
100
AcDbArc
50
270.000000000000
51
360.000000000000
0
ARC
5
7d2
100
AcDbEntity
8
0-0
6
CONTINUOUS
62
7
100
AcDbCircle
10
269.199999475479
20
286.500000000000
30
0.0
40
0.500000000000
100
AcDbArc
50
0.000000000000
51
90.000000000000
0
ARC
5
7d3
100
AcDbEntity
8
0-0
6
CONTINUOUS
62
7
100
AcDbCircle
10
256.500000000000
20
275.500000000000
30
0.0
40
0.500000000000
100
AcDbArc
50
180.000000000000
51
270.000000000000
0
ARC
5
7d4
100
AcDbEntity
8
0-0
6
CONTINUOUS
62
7
100
AcDbCircle
10
258.800000000000
20
272.799999999979
30
0.0
40
0.300000000000
100
AcDbArc
50
150.000000000004
51
209.999999999996
0
ARC
5
7d5
100
AcDbEntity
8
0-0
6
CONTINUOUS
62
7
100
AcDbCircle
10
261.450000000000
20
270.610065359921
30
0.0
40
0.300000000000
100
AcDbArc
50
210.000000000000
51
360.000000000000
0
ARC
5
7d6
100
AcDbEntity
8
0-0
6
CONTINUOUS
62
7
100
AcDbCircle
10
259.146410161514
20
273.399999999978
30
0.0
40
0.300000000000
100
AcDbArc
50
30.000000000000
51
150.000000000001
0
ARC
5
7d7
100
AcDbEntity
8
0-0
6
CONTINUOUS
62
7
100
AcDbCircle
10
266.200000000000
20
272.799999999979
30
0.0
40
0.300000000000
100
AcDbArc
50
330.000000000004
51
389.999999999996
0
ARC
5
7d8
100
AcDbEntity
8
0-0
6
CONTINUOUS
62
7
100
AcDbCircle
10
265.853589838486
20
273.399999999978
30
0.0
40
0.300000000000
100
AcDbArc
50
29.999999999999
51
150.000000000000
0
ARC
5
7d9
100
AcDbEntity
8
0-0
6
CONTINUOUS
62
7
100
AcDbCircle
10
263.550000000000
20
270.610065359921
30
0.0
40
0.300000000000
100
AcDbArc
50
180.000000000000
51
330.000000000000
0
ARC
5
7da
100
AcDbEntity
8
0-0
6
CONTINUOUS
62
7
100
AcDbCircle
10
262.111376849668
20
276.630043982048
30
0.0
40
0.100000000000
100
AcDbArc
50
224.999999999999
51
305.000000000001
0
ARC
5
7db
100
AcDbEntity
8
0-0
6
CONTINUOUS
62
7
100
AcDbCircle
10
261.779744719056
20
276.678833400186
30
0.0
40
0.100000000000
100
AcDbArc
50
44.999999999999
51
125.000000000002
0
ARC
5
7dc
100
AcDbEntity
8
0-0
6
CONTINUOUS
62
7
100
AcDbCircle
10
261.361376849668
20
276.630043982048
30
0.0
40
0.100000000000
100
AcDbArc
50
225.000000000000
51
304.999999999999
0
ARC
5
7dd
100
AcDbEntity
8
0-0
6
CONTINUOUS
62
7
100
AcDbCircle
10
261.029744719056
20
276.678833400186
30
0.0
40
0.100000000000
100
AcDbArc
50
44.999999999998
51
125.000000000004
0
ARC
5
7de
100
AcDbEntity
8
0-0
6
CONTINUOUS
62
7
100
AcDbCircle
10
263.611376849668
20
276.630043982048
30
0.0
40
0.100000000000
100
AcDbArc
50
224.999999999999
51
305.000000000001
0
ARC
5
7df
100
AcDbEntity
8
0-0
6
CONTINUOUS
62
7
100
AcDbCircle
10
263.279744719056
20
276.678833400186
30
0.0
40
0.100000000000
100
AcDbArc
50
44.999999999999
51
125.000000000002
0
ARC
5
7e0
100
AcDbEntity
8
0-0
6
CONTINUOUS
62
7
100
AcDbCircle
10
262.861376849668
20
276.630043982048
30
0.0
40
0.100000000000
100
AcDbArc
50
225.000000000000
51
304.999999999999
0
ARC
5
7e1
100
AcDbEntity
8
0-0
6
CONTINUOUS
62
7
100
AcDbCircle
10
262.529744719056
20
276.678833400186
30
0.0
40
0.100000000000
100
AcDbArc
50
44.999999999998
51
125.000000000004
0
ARC
5
7e2
100
AcDbEntity
8
0-0
6
CONTINUOUS
62
7
100
AcDbCircle
10
264.361376849668
20
276.630043982048
30
0.0
40
0.100000000000
100
AcDbArc
50
225.000000000000
51
304.999999999999
0
ARC
5
7e3
100
AcDbEntity
8
0-0
6
CONTINUOUS
62
7
100
AcDbCircle
10
264.029744719056
20
276.678833400186
30
0.0
40
0.100000000000
100
AcDbArc
50
44.999999999998
51
125.000000000004
0
ARC
5
7e4
100
AcDbEntity
8
0-0
6
CONTINUOUS
62
7
100
AcDbCircle
10
260.611376849668
20
276.630043982048
30
0.0
40
0.100000000000
100
AcDbArc
50
224.999999999999
51
305.000000000001
0
ARC
5
7e5
100
AcDbEntity
8
0-0
6
CONTINUOUS
62
7
100
AcDbCircle
10
260.279744719056
20
276.678833400186
30
0.0
40
0.100000000000
100
AcDbArc
50
44.999999999999
51
125.000000000002
0
ARC
5
7e6
100
AcDbEntity
8
0-0
6
CONTINUOUS
62
7
100
AcDbCircle
10
259.861376849668
20
276.630043982048
30
0.0
40
0.100000000000
100
AcDbArc
50
225.000000000000
51
304.999999999999
0
ARC
5
7e7
100
AcDbEntity
8
0-0
6
CONTINUOUS
62
7
100
AcDbCircle
10
259.529744719056
20
276.678833400186
30
0.0
40
0.100000000000
100
AcDbArc
50
44.999999999998
51
125.000000000004
0
ARC
5
7e8
100
AcDbEntity
8
0-0
6
CONTINUOUS
62
7
100
AcDbCircle
10
259.111376849668
20
276.630043982048
30
0.0
40
0.100000000000
100
AcDbArc
50
224.999999999999
51
305.000000000001
0
ARC
5
7e9
100
AcDbEntity
8
0-0
6
CONTINUOUS
62
7
100
AcDbCircle
10
258.779744719056
20
276.678833400186
30
0.0
40
0.100000000000
100
AcDbArc
50
44.999999999999
51
125.000000000002
0
ARC
5
7ea
100
AcDbEntity
8
0-0
6
CONTINUOUS
62
7
100
AcDbCircle
10
267.399999475479
20
278.700000000000
30
0.0
40
0.300000000000
100
AcDbArc
50
0.000000000000
51
90.000000000000
0
ARC
5
7eb
100
AcDbEntity
8
0-0
6
CONTINUOUS
62
7
100
AcDbCircle
10
267.199999475479
20
277.500000000000
30
0.0
40
0.500000000000
100
AcDbArc
50
270.000000000000
51
360.000000000000
0
ARC
5
7ec
100
AcDbEntity
8
0-0
6
CONTINUOUS
62
7
100
AcDbCircle
10
264.799999475479
20
286.500000000000
30
0.0
40
0.500000000000
100
AcDbArc
50
90.000000000000
51
180.000000000000
0
ARC
5
7ed
100
AcDbEntity
8
0-0
6
CONTINUOUS
62
7
100
AcDbCircle
10
261.299999475479
20
280.000000000000
30
0.0
40
0.500000000000
100
AcDbArc
50
90.000000000000
51
180.000000000000
0
ARC
5
7ee
100
AcDbEntity
8
0-0
6
CONTINUOUS
62
7
100
AcDbCircle
10
261.299999475479
20
279.705202524907
30
0.0
40
0.500000000000
100
AcDbArc
50
180.000000000000
51
254.999999999995
0
ARC
5
7ef
100
AcDbEntity
8
0-0
6
CONTINUOUS
62
7
100
AcDbCircle
10
262.065825724273
20
279.500000000000
30
0.0
40
0.500000000000
100
AcDbArc
50
254.999999999994
51
270.000000000000
0
ARC
5
7f0
100
AcDbEntity
8
0-0
6
CONTINUOUS
62
7
100
AcDbCircle
10
256.500000000000
20
276.000000000000
30
0.0
40
0.500000000000
100
AcDbArc
50
90.000000000000
51
180.000000000000
0
ARC
5
7f1
100
AcDbEntity
8
0-0
6
CONTINUOUS
62
7
100
AcDbCircle
10
260.221040862841
20
280.580603190348
30
0.0
40
1.000000000000
100
AcDbArc
50
153.216294724015
51
176.531770741084
0
ARC
5
7f2
100
AcDbEntity
8
0-0
6
CONTINUOUS
62
7
100
AcDbCircle
10
260.792130048991
20
280.695470085967
30
0.0
40
0.500000000000
100
AcDbArc
50
155.276951247887
51
180.000000000000
0
ARC
5
7f3
100
AcDbEntity
8
0-0
6
CONTINUOUS
62
7
100
AcDbCircle
10
262.749950659233
20
286.262628831814
30
0.0
40
0.050000000000
100
AcDbArc
50
335.276951247887
51
360.255118703054
0
ARC
5
7f4
100
AcDbEntity
8
0-0
6
CONTINUOUS
62
7
100
AcDbCircle
10
261.981350173841
20
286.397991257621
30
0.0
40
0.050000000000
100
AcDbArc
50
333.216294724015
51
358.392497753752
0
ARC
5
7f5
100
AcDbEntity
8
0-0
6
CONTINUOUS
62
7
100
AcDbCircle
10
265.512595150839
20
278.583850016651
30
0.0
40
0.100000000000
100
AcDbArc
50
270.000000000000
51
290.000000000000
0
ARC
5
7f6
100
AcDbEntity
8
0-0
6
CONTINUOUS
62
7
100
AcDbCircle
10
266.770540862254
20
277.926393970807
30
0.0
40
0.100000000000
100
AcDbArc
50
68.322142889133
51
120.000000000008
0
ARC
5
7f7
100
AcDbEntity
8
0-0
6
CONTINUOUS
62
7
100
AcDbCircle
10
266.992130048991
20
278.483850016651
30
0.0
40
0.499882497433
100
AcDbArc
50
248.322142889132
51
470.000000000005
0
ARC
5
7f8
100
AcDbEntity
8
0-0
6
CONTINUOUS
62
7
100
AcDbCircle
10
264.354455732335
20
276.624733221931
30
0.0
40
0.100000000000
100
AcDbArc
50
220.000000000005
51
310.000000000003
0
ARC
5
7f9
100
AcDbEntity
8
0-0
6
CONTINUOUS
62
7
100
AcDbCircle
10
264.019922432273
20
276.712269718750
30
0.0
40
0.100000000000
100
AcDbArc
50
40.000000000003
51
130.000000000004
0
ARC
5
7fa
100
AcDbEntity
8
0-0
6
CONTINUOUS
62
7
100
AcDbCircle
10
263.604455732334
20
276.624733221931
30
0.0
40
0.100000000000
100
AcDbArc
50
220.000000000004
51
310.000000000003
0
ARC
5
7fb
100
AcDbEntity
8
0-0
6
CONTINUOUS
62
7
100
AcDbCircle
10
263.124554368115
20
276.885512631458
30
0.0
40
0.100000000000
100
AcDbArc
50
40.000000000003
51
87.940222242791
0
ARC
5
7fc
100
AcDbEntity
8
0-0
6
CONTINUOUS
62
7
100
AcDbCircle
10
260.435029651967
20
277.182371769912
30
0.0
40
0.100000000000
100
AcDbArc
50
225.000000000004
51
267.940222242791
0
ARC
5
7fd
100
AcDbEntity
8
0-0
6
CONTINUOUS
62
7
100
AcDbCircle
10
259.850708692754
20
277.483850016651
30
0.0
40
0.100000000000
100
AcDbArc
50
45.000000000002
51
90.000000000000
0
ARC
5
7fe
100
AcDbEntity
8
0-0
6
CONTINUOUS
62
7
100
AcDbCircle
10
259.192130048991
20
277.683850016650
30
0.0
40
0.100000000000
100
AcDbArc
50
180.000000000000
51
270.000000000000
0
ARC
5
7ff
100
AcDbEntity
8
0-0
6
CONTINUOUS
62
7
100
AcDbCircle
10
261.292130048991
20
279.483850016651
30
0.0
40
1.000000000000
100
AcDbArc
50
180.000000000000
51
270.000000000000
0
ARC
5
800
100
AcDbEntity
8
0-0
6
CONTINUOUS
62
7
100
AcDbCircle
10
262.693320639636
20
287.751509211804
30
0.0
40
0.100000000000
100
AcDbArc
50
0.255118703059
51
86.309932474024
0
ARC
5
801
100
AcDbEntity
8
0-0
6
CONTINUOUS
62
7
100
AcDbCircle
10
262.170340320789
20
287.785237792913
30
0.0
40
0.100000000000
100
AcDbArc
50
86.309932474025
51
178.392497753751
0
LINE
5
802
100
AcDbEntity
8
0-0
6
CONTINUOUS
62
7
100
AcDbLine
10
263.668734493303
20
276.548128777619
30
0.0
11
263.955643671305
21
276.788874163061
31
0.0
0
LINE
5
803
100
AcDbEntity
8
0-0
6
CONTINUOUS
62
7
100
AcDbLine
10
263.972387075421
20
276.760748604615
30
0.0
11
263.599999475479
21
276.500000000000
31
0.0
0
LINE
5
804
100
AcDbEntity
8
0-0
6
CONTINUOUS
62
7
100
AcDbLine
10
264.349999475479
20
276.500000000000
30
0.0
11
264.100455397174
21
276.749544078305
31
0.0
0
LINE
5
805
100
AcDbEntity
8
0-0
6
CONTINUOUS
62
7
100
AcDbLine
10
264.096526876585
20
276.776548479718
30
0.0
11
264.277851288023
21
276.560454460962
31
0.0
0
LINE
5
806
100
AcDbEntity
8
0-0
6
CONTINUOUS
62
7
100
AcDbLine
10
265.064073478850
20
277.000000000000
30
0.0
11
267.199999475479
21
277.000000000000
31
0.0
0
LINE
5
807
100
AcDbEntity
8
0-0
6
CONTINUOUS
62
7
100
AcDbLine
10
264.349999475479
20
276.500000000000
30
0.0
11
265.064073478850
21
277.000000000000
31
0.0
0
LINE
5
808
100
AcDbEntity
8
0-0
6
CONTINUOUS
62
7
100
AcDbLine
10
264.938006845288
20
276.983850016651
30
0.0
11
264.418734493303
21
276.548128777619
31
0.0
0
LINE
5
809
100
AcDbEntity
8
0-0
6
CONTINUOUS
62
7
100
AcDbLine
10
266.720540862254
20
278.012996511186
30
0.0
11
264.938006845288
21
276.983850016651
31
0.0
0
LINE
5
80a
100
AcDbEntity
8
0-0
6
CONTINUOUS
62
7
100
AcDbLine
10
265.546797165171
20
278.489880754572
30
0.0
11
266.821119977329
21
278.953696327043
31
0.0
0
LINE
5
80b
100
AcDbEntity
8
0-0
6
CONTINUOUS
62
7
100
AcDbLine
10
261.292130048991
20
278.483850016651
30
0.0
11
265.512595150839
21
278.483850016651
31
0.0
0
LINE
5
80c
100
AcDbEntity
8
0-0
6
CONTINUOUS
62
7
100
AcDbLine
10
261.936416201721
20
279.017037086855
30
0.0
11
261.170589952928
21
279.222239611762
31
0.0
0
LINE
5
80d
100
AcDbEntity
8
0-0
6
CONTINUOUS
62
7
100
AcDbLine
10
267.399999475479
20
279.000000000000
30
0.0
11
262.065825724273
21
279.000000000000
31
0.0
0
LINE
5
80e
100
AcDbEntity
8
0-0
6
CONTINUOUS
62
7
100
AcDbLine
10
267.699999475479
20
277.500000000000
30
0.0
11
267.699999475479
21
278.700000000000
31
0.0
0
LINE
5
80f
100
AcDbEntity
8
0-0
6
CONTINUOUS
62
7
100
AcDbLine
10
265.999999523163
20
275.000000000000
30
0.0
11
269.400000000000
21
275.000000000000
31
0.0
0
LINE
5
810
100
AcDbEntity
8
0-0
6
CONTINUOUS
62
7
100
AcDbLine
10
265.699999570847
20
274.699999809265
30
0.0
11
265.999999523163
21
275.000000000000
31
0.0
0
LINE
5
811
100
AcDbEntity
8
0-0
6
CONTINUOUS
62
7
100
AcDbLine
10
263.550000000000
20
274.699999809265
30
0.0
11
265.699999570847
21
274.699999809265
31
0.0
0
LINE
5
812
100
AcDbEntity
8
0-0
6
CONTINUOUS
62
7
100
AcDbLine
10
263.250000000000
20
270.610065359921
30
0.0
11
263.250000000000
21
274.399999809265
31
0.0
0
LINE
5
813
100
AcDbEntity
8
0-0
6
CONTINUOUS
62
7
100
AcDbLine
10
265.593782217351
20
273.549999999979
30
0.0
11
263.809807621135
21
270.460065359921
31
0.0
0
LINE
5
814
100
AcDbEntity
8
0-0
6
CONTINUOUS
62
7
100
AcDbLine
10
266.459807621135
20
272.949999999978
30
0.0
11
266.113397459621
21
273.549999999979
31
0.0
0
LINE
5
815
100
AcDbEntity
8
0-0
6
CONTINUOUS
62
7
100
AcDbLine
10
264.439081678984
20
269.150000000000
30
0.0
11
266.459807621135
21
272.649999999978
31
0.0
0
LINE
5
816
100
AcDbEntity
8
0-0
6
CONTINUOUS
62
7
100
AcDbLine
10
260.820725942152
20
269.000000000000
30
0.0
11
264.179274057848
21
269.000000000000
31
0.0
0
LINE
5
817
100
AcDbEntity
8
0-0
6
CONTINUOUS
62
7
100
AcDbLine
10
258.540192378865
20
272.649999999979
30
0.0
11
260.560918321016
21
269.150000000000
31
0.0
0
LINE
5
818
100
AcDbEntity
8
0-0
6
CONTINUOUS
62
7
100
AcDbLine
10
258.886602540379
20
273.549999999979
30
0.0
11
258.540192378865
21
272.949999999978
31
0.0
0
LINE
5
819
100
AcDbEntity
8
0-0
6
CONTINUOUS
62
7
100
AcDbLine
10
261.190192378865
20
270.460065359921
30
0.0
11
259.406217782649
21
273.549999999979
31
0.0
0
LINE
5
81a
100
AcDbEntity
8
0-0
6
CONTINUOUS
62
7
100
AcDbLine
10
261.750000000000
20
274.399999809265
30
0.0
11
261.750000000000
21
270.610065359921
31
0.0
0
LINE
5
81b
100
AcDbEntity
8
0-0
6
CONTINUOUS
62
7
100
AcDbLine
10
259.299999475479
20
274.699999809265
30
0.0
11
261.450000000000
21
274.699999809265
31
0.0
0
LINE
5
81c
100
AcDbEntity
8
0-0
6
CONTINUOUS
62
7
100
AcDbLine
10
258.999999523163
20
275.000000000000
30
0.0
11
259.299999475479
21
274.699999809265
31
0.0
0
LINE
5
81d
100
AcDbEntity
8
0-0
6
CONTINUOUS
62
7
100
AcDbLine
10
256.500000000000
20
275.000000000000
30
0.0
11
258.999999523163
21
275.000000000000
31
0.0
0
LINE
5
81e
100
AcDbEntity
8
0-0
6
CONTINUOUS
62
7
100
AcDbLine
10
256.000000000000
20
276.000000000000
30
0.0
11
256.000000000000
21
275.500000000000
31
0.0
0
LINE
5
81f
100
AcDbEntity
8
0-0
6
CONTINUOUS
62
7
100
AcDbLine
10
258.349999475479
20
276.500000000000
30
0.0
11
256.500000000000
21
276.500000000000
31
0.0
0
LINE
5
820
100
AcDbEntity
8
0-0
6
CONTINUOUS
62
7
100
AcDbLine
10
258.791122093245
20
276.808877382234
30
0.0
11
258.349999475479
21
276.500000000000
31
0.0
0
LINE
5
821
100
AcDbEntity
8
0-0
6
CONTINUOUS
62
7
100
AcDbLine
10
259.099999475479
20
276.500000000000
30
0.0
11
258.791122093245
21
276.808877382234
31
0.0
0
LINE
5
822
100
AcDbEntity
8
0-0
6
CONTINUOUS
62
7
100
AcDbLine
10
259.472387075421
20
276.760748604615
30
0.0
11
259.099999475479
21
276.500000000000
31
0.0
0
LINE
5
823
100
AcDbEntity
8
0-0
6
CONTINUOUS
62
7
100
AcDbLine
10
259.849999475479
20
276.500000000000
30
0.0
11
259.600455397174
21
276.749544078305
31
0.0
0
LINE
5
824
100
AcDbEntity
8
0-0
6
CONTINUOUS
62
7
100
AcDbLine
10
260.291122093245
20
276.808877382234
30
0.0
11
259.849999475479
21
276.500000000000
31
0.0
0
LINE
5
825
100
AcDbEntity
8
0-0
6
CONTINUOUS
62
7
100
AcDbLine
10
260.599999475479
20
276.500000000000
30
0.0
11
260.291122093245
21
276.808877382234
31
0.0
0
LINE
5
826
100
AcDbEntity
8
0-0
6
CONTINUOUS
62
7
100
AcDbLine
10
260.972387075421
20
276.760748604615
30
0.0
11
260.599999475479
21
276.500000000000
31
0.0
0
LINE
5
827
100
AcDbEntity
8
0-0
6
CONTINUOUS
62
7
100
AcDbLine
10
261.349999475479
20
276.500000000000
30
0.0
11
261.100455397174
21
276.749544078305
31
0.0
0
LINE
5
828
100
AcDbEntity
8
0-0
6
CONTINUOUS
62
7
100
AcDbLine
10
261.791122093245
20
276.808877382234
30
0.0
11
261.349999475479
21
276.500000000000
31
0.0
0
LINE
5
829
100
AcDbEntity
8
0-0
6
CONTINUOUS
62
7
100
AcDbLine
10
262.099999475479
20
276.500000000000
30
0.0
11
261.791122093245
21
276.808877382234
31
0.0
0
LINE
5
82a
100
AcDbEntity
8
0-0
6
CONTINUOUS
62
7
100
AcDbLine
10
262.472387075421
20
276.760748604615
30
0.0
11
262.099999475479
21
276.500000000000
31
0.0
0
LINE
5
82b
100
AcDbEntity
8
0-0
6
CONTINUOUS
62
7
100
AcDbLine
10
262.849999475479
20
276.500000000000
30
0.0
11
262.600455397174
21
276.749544078305
31
0.0
0
LINE
5
82c
100
AcDbEntity
8
0-0
6
CONTINUOUS
62
7
100
AcDbLine
10
263.291122093245
20
276.808877382234
30
0.0
11
262.849999475479
21
276.500000000000
31
0.0
0
LINE
5
82d
100
AcDbEntity
8
0-0
6
CONTINUOUS
62
7
100
AcDbLine
10
263.599999475479
20
276.500000000000
30
0.0
11
263.291122093245
21
276.808877382234
31
0.0
0
LINE
5
82e
100
AcDbEntity
8
0-0
6
CONTINUOUS
62
7
100
AcDbLine
10
263.201158812427
20
276.949791392427
30
0.0
11
263.527851288023
21
276.560454460962
31
0.0
0
LINE
5
82f
100
AcDbEntity
8
0-0
6
CONTINUOUS
62
7
100
AcDbLine
10
260.431435435904
20
277.082436382731
30
0.0
11
263.128148584179
21
276.985448018639
31
0.0
0
LINE
5
830
100
AcDbEntity
8
0-0
6
CONTINUOUS
62
7
100
AcDbLine
10
259.921419370873
20
277.554560694769
30
0.0
11
260.364318973849
21
277.111661091793
31
0.0
0
LINE
5
831
100
AcDbEntity
8
0-0
6
CONTINUOUS
62
7
100
AcDbLine
10
259.192130048991
20
277.583850016651
30
0.0
11
259.850708692754
21
277.583850016651
31
0.0
0
LINE
5
832
100
AcDbEntity
8
0-0
6
CONTINUOUS
62
7
100
AcDbLine
10
259.092130048991
20
278.483850016651
30
0.0
11
259.092130048991
21
277.683850016650
31
0.0
0
LINE
5
833
100
AcDbEntity
8
0-0
6
CONTINUOUS
62
7
100
AcDbLine
10
259.222872366209
20
280.641098250749
30
0.0
11
259.092130048991
21
278.483850016651
31
0.0
0
LINE
5
834
100
AcDbEntity
8
0-0
6
CONTINUOUS
62
7
100
AcDbLine
10
262.025985874361
20
286.375460073916
30
0.0
11
259.328326852454
21
281.031226864448
31
0.0
0
LINE
5
835
100
AcDbEntity
8
0-0
6
CONTINUOUS
62
7
100
AcDbLine
10
262.070379675745
20
287.788043045546
30
0.0
11
262.031330496364
21
286.396588631304
31
0.0
0
LINE
5
836
100
AcDbEntity
8
0-0
6
CONTINUOUS
62
7
100
AcDbLine
10
262.699756571061
20
287.851301890827
30
0.0
11
262.176776252214
21
287.885030471936
31
0.0
0
LINE
5
837
100
AcDbEntity
8
0-0
6
CONTINUOUS
62
7
100
AcDbLine
10
262.799950163580
20
286.262851464146
30
0.0
11
262.793319648328
21
287.751954476468
31
0.0
0
LINE
5
838
100
AcDbEntity
8
0-0
6
CONTINUOUS
62
7
100
AcDbLine
10
260.337960046056
20
280.904586341753
30
0.0
11
262.795367659527
21
286.241717206236
31
0.0
0
LINE
5
839
100
AcDbEntity
8
0-0
6
CONTINUOUS
62
7
100
AcDbLine
10
260.292130048991
20
279.483850016651
30
0.0
11
260.292130048991
21
280.695470085967
31
0.0
0
LINE
5
83a
100
AcDbEntity
8
0-0
6
CONTINUOUS
62
7
100
AcDbLine
10
260.799999475479
20
280.000000000000
30
0.0
11
260.799999475479
21
279.705202524907
31
0.0
0
LINE
5
83b
100
AcDbEntity
8
0-0
6
CONTINUOUS
62
7
100
AcDbLine
10
264.092892694292
20
280.500000000000
30
0.0
11
261.299999475479
21
280.500000000000
31
0.0
0
LINE
5
83c
100
AcDbEntity
8
0-0
6
CONTINUOUS
62
7
100
AcDbLine
10
266.353552866072
20
282.553553390593
30
0.0
11
264.446446084886
21
280.646446609407
31
0.0
0
LINE
5
83d
100
AcDbEntity
8
0-0
6
CONTINUOUS
62
7
100
AcDbLine
10
266.499999475479
20
284.500000000000
30
0.0
11
266.499999475479
21
282.907106781186
31
0.0
0
LINE
5
83e
100
AcDbEntity
8
0-0
6
CONTINUOUS
62
7
100
AcDbLine
10
264.799999475479
20
285.000000000000
30
0.0
11
265.999999475479
21
285.000000000000
31
0.0
0
LINE
5
83f
100
AcDbEntity
8
0-0
6
CONTINUOUS
62
7
100
AcDbLine
10
264.299999475479
20
286.500000000000
30
0.0
11
264.299999475479
21
285.500000000000
31
0.0
0
LINE
5
840
100
AcDbEntity
8
0-0
6
CONTINUOUS
62
7
100
AcDbLine
10
269.199999475479
20
287.000000000000
30
0.0
11
264.799999475479
21
287.000000000000
31
0.0
0
LINE
5
841
100
AcDbEntity
8
0-0
6
CONTINUOUS
62
7
100
AcDbLine
10
269.699999475479
20
285.500000000000
30
0.0
11
269.699999475479
21
286.500000000000
31
0.0
0
LINE
5
842
100
AcDbEntity
8
0-0
6
CONTINUOUS
62
7
100
AcDbLine
10
268.699999475479
20
281.907106781186
30
0.0
11
268.699999475479
21
284.500000000000
31
0.0
0
LINE
5
843
100
AcDbEntity
8
0-0
6
CONTINUOUS
62
7
100
AcDbLine
10
269.753553390593
20
280.646446084886
30
0.0
11
268.846446084886
21
281.553553390593
31
0.0
0
LINE
5
844
100
AcDbEntity
8
0-0
6
CONTINUOUS
62
7
100
AcDbLine
10
269.900000000000
20
275.500000000000
30
0.0
11
269.900000000000
21
280.292892694292
31
0.0
0
ARC
5
845
100
AcDbEntity
8
0-0
6
CONTINUOUS
62
7
100
AcDbCircle
10
167.757882299340
20
275.999999999999
30
0.0
40
1.000000000000
100
AcDbArc
50
180.000000000000
51
270.000000000000
0
ARC
5
846
100
AcDbEntity
8
0-0
6
CONTINUOUS
62
7
100
AcDbCircle
10
167.600935939903
20
283.099999999999
30
0.0
40
0.500000000000
100
AcDbArc
50
90.000000000000
51
173.088772880975
0
ARC
5
847
100
AcDbEntity
8
0-0
6
CONTINUOUS
62
7
100
AcDbCircle
10
168.857882299340
20
277.373205080756
30
0.0
40
0.100000000000
100
AcDbArc
50
299.999999999994
51
360.000000000000
0
ARC
5
848
100
AcDbEntity
8
0-0
6
CONTINUOUS
62
7
100
AcDbCircle
10
168.957882299340
20
277.199999999999
30
0.0
40
0.100000000000
100
AcDbArc
50
119.999999999997
51
180.000000000000
0
ARC
5
849
100
AcDbEntity
8
0-0
6
CONTINUOUS
62
7
100
AcDbCircle
10
168.957882299340
20
277.099999999999
30
0.0
40
0.100000000000
100
AcDbArc
50
180.000000000000
51
270.000000000000
0
ARC
5
84a
100
AcDbEntity
8
0-0
6
CONTINUOUS
62
7
100
AcDbCircle
10
179.081590586418
20
270.848296940831
30
0.0
40
1.000000000000
100
AcDbArc
50
272.004175386924
51
347.101804149761
0
ARC
5
84b
100
AcDbEntity
8
0-0
6
CONTINUOUS
62
7
100
AcDbCircle
10
179.081590586418
20
270.848296940831
30
0.0
40
2.000000000000
100
AcDbArc
50
272.036624913128
51
347.101804149754
0
ARC
5
84c
100
AcDbEntity
8
0-0
6
CONTINUOUS
62
7
100
AcDbCircle
10
180.707882299339
20
272.350215906740
30
0.0
40
0.750000000000
100
AcDbArc
50
347.101804149757
51
597.630583515260
0
ARC
5
84d
100
AcDbEntity
8
0-0
6
CONTINUOUS
62
7
100
AcDbCircle
10
174.670519842652
20
271.881649602052
30
0.0
40
2.000000000000
100
AcDbArc
50
185.000000000000
51
267.000000000000
0
ARC
5
84e
100
AcDbEntity
8
0-0
6
CONTINUOUS
62
7
100
AcDbCircle
10
174.670519842652
20
271.881649602052
30
0.0
40
3.000000000000
100
AcDbArc
50
185.000000000002
51
267.000000000000
0
ARC
5
84f
100
AcDbEntity
8
0-0
6
CONTINUOUS
62
7
100
AcDbCircle
10
173.857882299339
20
274.499999999998
30
0.0
40
0.500000000000
100
AcDbArc
50
90.000000000000
51
180.000000000000
0
ARC
5
850
100
AcDbEntity
8
0-0
6
CONTINUOUS
62
7
100
AcDbCircle
10
174.257882299339
20
276.699999999999
30
0.0
40
0.300000000000
100
AcDbArc
50
0.000000000000
51
90.000000000000
0
ARC
5
851
100
AcDbEntity
8
0-0
6
CONTINUOUS
62
7
100
AcDbCircle
10
177.261149676678
20
321.313811572403
30
0.0
40
51.500000000000
100
AcDbArc
50
267.000000000000
51
272.115408383711
0
ARC
5
852
100
AcDbEntity
8
0-0
6
CONTINUOUS
62
7
100
AcDbCircle
10
177.261149676678
20
321.313811572403
30
0.0
40
52.500000000000
100
AcDbArc
50
267.000000000000
51
272.114525832004
0
LINE
5
853
100
AcDbEntity
8
0-0
6
CONTINUOUS
62
7
100
AcDbLine
10
181.031127033392
20
270.401858096281
30
0.0
11
181.438958466954
21
272.182801340034
31
0.0
0
LINE
5
854
100
AcDbEntity
8
0-0
6
CONTINUOUS
62
7
100
AcDbLine
10
180.306350276284
20
271.716755541397
30
0.0
11
180.056358809905
21
270.625077518556
31
0.0
0
LINE
5
855
100
AcDbEntity
8
0-0
6
CONTINUOUS
62
7
100
AcDbLine
10
168.957882299340
20
283.599999999999
30
0.0
11
167.600935939903
21
283.599999999999
31
0.0
0
LINE
5
856
100
AcDbEntity
8
0-0
6
CONTINUOUS
62
7
100
AcDbLine
10
168.957882299340
20
277.373205080756
30
0.0
11
168.957882299340
21
283.599999999998
31
0.0
0
LINE
5
857
100
AcDbEntity
8
0-0
6
CONTINUOUS
62
7
100
AcDbLine
10
168.857882299340
20
277.099999999999
30
0.0
11
168.857882299340
21
277.199999999999
31
0.0
0
LINE
5
858
100
AcDbEntity
8
0-0
6
CONTINUOUS
62
7
100
AcDbLine
10
174.257882299339
20
276.999999999999
30
0.0
11
168.957882299340
21
276.999999999999
31
0.0
0
LINE
5
859
100
AcDbEntity
8
0-0
6
CONTINUOUS
62
7
100
AcDbLine
10
174.557882299339
20
274.999999999998
30
0.0
11
174.557882299339
21
276.699999999999
31
0.0
0
LINE
5
85a
100
AcDbEntity
8
0-0
6
CONTINUOUS
62
7
100
AcDbLine
10
173.857882299339
20
274.999999999998
30
0.0
11
174.557882299339
21
274.999999999998
31
0.0
0
LINE
5
85b
100
AcDbEntity
8
0-0
6
CONTINUOUS
62
7
100
AcDbLine
10
173.357882299339
20
272.691709623134
30
0.0
11
173.357882299339
21
274.499999999998
31
0.0
0
LINE
5
85c
100
AcDbEntity
8
0-0
6
CONTINUOUS
62
7
100
AcDbLine
10
172.628834473606
20
272.270793664695
30
0.0
11
173.357882299339
21
272.691709623134
31
0.0
0
LINE
5
85d
100
AcDbEntity
8
0-0
6
CONTINUOUS
62
7
100
AcDbLine
10
172.678130446469
20
271.707338116557
30
0.0
11
172.628834473606
21
272.270793664695
31
0.0
0
LINE
5
85e
100
AcDbEntity
8
0-0
6
CONTINUOUS
62
7
100
AcDbLine
10
171.557882299339
20
273.038119784648
30
0.0
11
171.681935748377
21
271.620182373809
31
0.0
0
LINE
5
85f
100
AcDbEntity
8
0-0
6
CONTINUOUS
62
7
100
AcDbLine
10
171.857882299339
20
273.211324865404
30
0.0
11
171.557882299339
21
273.038119784648
31
0.0
0
LINE
5
860
100
AcDbEntity
8
0-0
6
CONTINUOUS
62
7
100
AcDbLine
10
171.857882299339
20
274.999999999999
30
0.0
11
171.857882299339
21
273.211324865404
31
0.0
0
LINE
5
861
100
AcDbEntity
8
0-0
6
CONTINUOUS
62
7
100
AcDbLine
10
167.757882299340
20
274.999999999999
30
0.0
11
171.857882299339
21
274.999999999999
31
0.0
0
LINE
5
862
100
AcDbEntity
8
0-0
6
CONTINUOUS
62
7
100
AcDbLine
10
166.757882299340
20
280.299999999999
30
0.0
11
166.757882299340
21
275.999999999999
31
0.0
0
LINE
5
863
100
AcDbEntity
8
0-0
6
CONTINUOUS
62
7
100
AcDbLine
10
167.104569048886
20
283.160165683759
30
0.0
11
166.757882299340
21
280.299999999999
31
0.0
0
ARC
5
864
100
AcDbEntity
8
0-1
6
PHANTOM
62
4
100
AcDbCircle
10
125.874550295416
20
269.099999999999
30
0.0
40
0.300000000000
100
AcDbArc
50
225.000000000000
51
270.000000000000
0
LINE
5
865
100
AcDbEntity
8
0-1
6
PHANTOM
62
4
100
AcDbLine
10
135.226022157993
20
268.799999999999
30
0.0
11
125.874550295416
21
268.799999999999
31
0.0
0
ARC
5
866
100
AcDbEntity
8
0-1
6
PHANTOM
62
4
100
AcDbCircle
10
126.650286226705
20
274.699999999999
30
0.0
40
0.300000000000
100
AcDbArc
50
0.000000000000
51
90.000000000000
0
LINE
5
867
100
AcDbEntity
8
0-1
6
PHANTOM
62
4
100
AcDbLine
10
126.950286226704
20
273.499999999999
30
0.0
11
126.950286226704
21
274.699999999999
31
0.0
0
ARC
5
868
100
AcDbEntity
8
0-1
6
PHANTOM
62
4
100
AcDbCircle
10
126.650286226705
20
273.499999999999
30
0.0
40
0.300000000000
100
AcDbArc
50
270.000000000000
51
360.000000000000
0
LINE
5
869
100
AcDbEntity
8
0-1
6
PHANTOM
62
4
100
AcDbLine
10
124.850286226704
20
273.199999999999
30
0.0
11
126.650286226705
21
273.199999999999
31
0.0
0
ARC
5
86a
100
AcDbEntity
8
0-1
6
PHANTOM
62
4
100
AcDbCircle
10
124.850286226704
20
272.899999999999
30
0.0
40
0.300000000000
100
AcDbArc
50
90.000000000000
51
180.000000000000
0
LINE
5
86b
100
AcDbEntity
8
0-1
6
PHANTOM
62
4
100
AcDbLine
10
124.550286226705
20
270.124264068711
30
0.0
11
124.550286226705
21
272.899999999999
31
0.0
0
ARC
5
86c
100
AcDbEntity
8
0-1
6
PHANTOM
62
4
100
AcDbCircle
10
124.850286226704
20
270.124264068711
30
0.0
40
0.300000000000
100
AcDbArc
50
180.000000000000
51
225.000000000000
0
LINE
5
86d
100
AcDbEntity
8
0-1
6
PHANTOM
62
4
100
AcDbLine
10
125.662418261061
20
268.887867965643
30
0.0
11
124.638154192349
21
269.912132034355
31
0.0
0
LINE
5
86e
100
AcDbEntity
8
0-1
6
PHANTOM
62
4
100
AcDbLine
10
136.462418261060
20
269.912132034355
30
0.0
11
135.438154192348
21
268.887867965643
31
0.0
0
ARC
5
86f
100
AcDbEntity
8
0-1
6
PHANTOM
62
4
100
AcDbCircle
10
136.250286226705
20
270.124264068711
30
0.0
40
0.300000000000
100
AcDbArc
50
315.000000000000
51
360.000000000000
0
LINE
5
870
100
AcDbEntity
8
0-1
6
PHANTOM
62
4
100
AcDbLine
10
136.550286226705
20
272.899999999999
30
0.0
11
136.550286226705
21
270.124264068711
31
0.0
0
ARC
5
871
100
AcDbEntity
8
0-1
6
PHANTOM
62
4
100
AcDbCircle
10
136.250286226705
20
272.899999999999
30
0.0
40
0.300000000000
100
AcDbArc
50
0.000000000000
51
90.000000000000
0
LINE
5
872
100
AcDbEntity
8
0-1
6
PHANTOM
62
4
100
AcDbLine
10
136.250286226705
20
273.199999999999
30
0.0
11
134.450286226704
21
273.199999999999
31
0.0
0
ARC
5
873
100
AcDbEntity
8
0-1
6
PHANTOM
62
4
100
AcDbCircle
10
134.450286226704
20
274.699999999999
30
0.0
40
0.300000000000
100
AcDbArc
50
90.000000000000
51
180.000000000000
0
ARC
5
874
100
AcDbEntity
8
0-1
6
PHANTOM
62
4
100
AcDbCircle
10
134.450286226704
20
273.499999999999
30
0.0
40
0.300000000000
100
AcDbArc
50
180.000000000000
51
270.000000000000
0
LINE
5
875
100
AcDbEntity
8
0-1
6
PHANTOM
62
4
100
AcDbLine
10
134.150286226705
20
273.499999999999
30
0.0
11
134.150286226705
21
274.699999999999
31
0.0
0
ARC
5
876
100
AcDbEntity
8
0-1
6
PHANTOM
62
4
100
AcDbCircle
10
142.050286226705
20
273.999999999999
30
0.0
40
1.000000000000
100
AcDbArc
50
0.000000000000
51
90.000000000000
0
LINE
5
877
100
AcDbEntity
8
0-1
6
PHANTOM
62
4
100
AcDbLine
10
143.050286226705
20
273.999999999999
30
0.0
11
143.050286226705
21
266.399999999999
31
0.0
0
ARC
5
878
100
AcDbEntity
8
0-1
6
PHANTOM
62
4
100
AcDbCircle
10
137.150286226705
20
267.175735931287
30
0.0
40
0.300000000000
100
AcDbArc
50
135.000000000000
51
180.000000000000
0
LINE
5
879
100
AcDbEntity
8
0-1
6
PHANTOM
62
4
100
AcDbLine
10
136.850286226705
20
257.824264068711
30
0.0
11
136.850286226705
21
267.175735931287
31
0.0
0
ARC
5
87a
100
AcDbEntity
8
0-1
6
PHANTOM
62
4
100
AcDbCircle
10
142.750286226705
20
266.399999999999
30
0.0
40
0.300000000000
100
AcDbArc
50
270.000000000000
51
360.000000000000
0
LINE
5
87b
100
AcDbEntity
8
0-1
6
PHANTOM
62
4
100
AcDbLine
10
141.550286226705
20
266.099999999999
30
0.0
11
142.750286226705
21
266.099999999999
31
0.0
0
ARC
5
87c
100
AcDbEntity
8
0-1
6
PHANTOM
62
4
100
AcDbCircle
10
141.550286226705
20
266.399999999999
30
0.0
40
0.300000000000
100
AcDbArc
50
180.000000000000
51
270.000000000000
0
LINE
5
87d
100
AcDbEntity
8
0-1
6
PHANTOM
62
4
100
AcDbLine
10
141.250286226705
20
268.199999999999
30
0.0
11
141.250286226705
21
266.399999999999
31
0.0
0
ARC
5
87e
100
AcDbEntity
8
0-1
6
PHANTOM
62
4
100
AcDbCircle
10
140.950286226705
20
268.199999999999
30
0.0
40
0.300000000000
100
AcDbArc
50
0.000000000000
51
90.000000000000
0
LINE
5
87f
100
AcDbEntity
8
0-1
6
PHANTOM
62
4
100
AcDbLine
10
138.174550295417
20
268.499999999999
30
0.0
11
140.950286226705
21
268.499999999999
31
0.0
0
ARC
5
880
100
AcDbEntity
8
0-1
6
PHANTOM
62
4
100
AcDbCircle
10
138.174550295417
20
268.199999999999
30
0.0
40
0.300000000000
100
AcDbArc
50
90.000000000000
51
135.000000000000
0
LINE
5
881
100
AcDbEntity
8
0-1
6
PHANTOM
62
4
100
AcDbLine
10
136.938154192349
20
267.387867965643
30
0.0
11
137.962418261061
21
268.412132034355
31
0.0
0
LINE
5
882
100
AcDbEntity
8
0-1
6
PHANTOM
62
4
100
AcDbLine
10
137.962418261061
20
256.587867965643
30
0.0
11
136.938154192349
21
257.612132034355
31
0.0
0
ARC
5
883
100
AcDbEntity
8
0-1
6
PHANTOM
62
4
100
AcDbCircle
10
138.174550295417
20
256.799999999999
30
0.0
40
0.300000000000
100
AcDbArc
50
225.000000000000
51
270.000000000000
0
LINE
5
884
100
AcDbEntity
8
0-1
6
PHANTOM
62
4
100
AcDbLine
10
140.950286226705
20
256.499999999999
30
0.0
11
138.174550295417
21
256.499999999999
31
0.0
0
ARC
5
885
100
AcDbEntity
8
0-1
6
PHANTOM
62
4
100
AcDbCircle
10
140.950286226705
20
256.799999999999
30
0.0
40
0.300000000000
100
AcDbArc
50
270.000000000000
51
360.000000000000
0
LINE
5
886
100
AcDbEntity
8
0-1
6
PHANTOM
62
4
100
AcDbLine
10
141.250286226705
20
256.799999999999
30
0.0
11
141.250286226705
21
258.599999999999
31
0.0
0
ARC
5
887
100
AcDbEntity
8
0-1
6
PHANTOM
62
4
100
AcDbCircle
10
142.750286226705
20
258.599999999999
30
0.0
40
0.300000000000
100
AcDbArc
50
0.000000000000
51
90.000000000000
0
ARC
5
888
100
AcDbEntity
8
0-1
6
PHANTOM
62
4
100
AcDbCircle
10
141.550286226705
20
258.599999999999
30
0.0
40
0.300000000000
100
AcDbArc
50
90.000000000000
51
180.000000000000
0
LINE
5
889
100
AcDbEntity
8
0-1
6
PHANTOM
62
4
100
AcDbLine
10
141.550286226705
20
258.899999999999
30
0.0
11
142.750286226705
21
258.899999999999
31
0.0
0
LINE
5
88a
100
AcDbEntity
8
0-1
6
PHANTOM
62
4
100
AcDbLine
10
143.050286226705
20
258.599999999999
30
0.0
11
143.050286226705
21
250.999999999999
31
0.0
0
ARC
5
88b
100
AcDbEntity
8
0-1
6
PHANTOM
62
4
100
AcDbCircle
10
142.050286226705
20
250.999999999999
30
0.0
40
1.000000000000
100
AcDbArc
50
270.000000000000
51
360.000000000000
0
LINE
5
88c
100
AcDbEntity
8
0-1
6
PHANTOM
62
4
100
AcDbLine
10
142.050286226705
20
249.999999999999
30
0.0
11
134.450286226705
21
249.999999999999
31
0.0
0
ARC
5
88d
100
AcDbEntity
8
0-1
6
PHANTOM
62
4
100
AcDbCircle
10
135.226022157993
20
255.899999999999
30
0.0
40
0.300000000000
100
AcDbArc
50
45.000000000000
51
90.000000000000
0
LINE
5
88e
100
AcDbEntity
8
0-1
6
PHANTOM
62
4
100
AcDbLine
10
125.874550295417
20
256.199999999999
30
0.0
11
135.226022157993
21
256.199999999999
31
0.0
0
ARC
5
88f
100
AcDbEntity
8
0-1
6
PHANTOM
62
4
100
AcDbCircle
10
134.450286226705
20
250.299999999999
30
0.0
40
0.300000000000
100
AcDbArc
50
180.000000000000
51
270.000000000000
0
LINE
5
890
100
AcDbEntity
8
0-1
6
PHANTOM
62
4
100
AcDbLine
10
134.150286226705
20
251.499999999999
30
0.0
11
134.150286226705
21
250.299999999999
31
0.0
0
ARC
5
891
100
AcDbEntity
8
0-1
6
PHANTOM
62
4
100
AcDbCircle
10
134.450286226705
20
251.499999999999
30
0.0
40
0.300000000000
100
AcDbArc
50
90.000000000000
51
180.000000000000
0
LINE
5
892
100
AcDbEntity
8
0-1
6
PHANTOM
62
4
100
AcDbLine
10
136.250286226705
20
251.799999999999
30
0.0
11
134.450286226705
21
251.799999999999
31
0.0
0
ARC
5
893
100
AcDbEntity
8
0-1
6
PHANTOM
62
4
100
AcDbCircle
10
136.250286226705
20
252.099999999999
30
0.0
40
0.300000000000
100
AcDbArc
50
270.000000000000
51
360.000000000000
0
LINE
5
894
100
AcDbEntity
8
0-1
6
PHANTOM
62
4
100
AcDbLine
10
136.550286226705
20
254.875735931287
30
0.0
11
136.550286226705
21
252.099999999999
31
0.0
0
ARC
5
895
100
AcDbEntity
8
0-1
6
PHANTOM
62
4
100
AcDbCircle
10
136.250286226705
20
254.875735931287
30
0.0
40
0.300000000000
100
AcDbArc
50
360.000000000000
51
405.000000000000
0
LINE
5
896
100
AcDbEntity
8
0-1
6
PHANTOM
62
4
100
AcDbLine
10
135.438154192349
20
256.112132034355
30
0.0
11
136.462418261061
21
255.087867965643
31
0.0
0
LINE
5
897
100
AcDbEntity
8
0-1
6
PHANTOM
62
4
100
AcDbLine
10
124.638154192349
20
255.087867965643
30
0.0
11
125.662418261061
21
256.112132034355
31
0.0
0
ARC
5
898
100
AcDbEntity
8
0-1
6
PHANTOM
62
4
100
AcDbCircle
10
124.850286226705
20
254.875735931287
30
0.0
40
0.300000000000
100
AcDbArc
50
135.000000000000
51
180.000000000000
0
LINE
5
899
100
AcDbEntity
8
0-1
6
PHANTOM
62
4
100
AcDbLine
10
124.550286226705
20
252.099999999999
30
0.0
11
124.550286226705
21
254.875735931287
31
0.0
0
ARC
5
89a
100
AcDbEntity
8
0-1
6
PHANTOM
62
4
100
AcDbCircle
10
124.850286226705
20
252.099999999999
30
0.0
40
0.300000000000
100
AcDbArc
50
180.000000000000
51
270.000000000000
0
LINE
5
89b
100
AcDbEntity
8
0-1
6
PHANTOM
62
4
100
AcDbLine
10
124.850286226705
20
251.799999999999
30
0.0
11
126.650286226705
21
251.799999999999
31
0.0
0
ARC
5
89c
100
AcDbEntity
8
0-1
6
PHANTOM
62
4
100
AcDbCircle
10
126.650286226705
20
250.299999999999
30
0.0
40
0.300000000000
100
AcDbArc
50
270.000000000000
51
360.000000000000
0
ARC
5
89d
100
AcDbEntity
8
0-1
6
PHANTOM
62
4
100
AcDbCircle
10
126.650286226705
20
251.499999999999
30
0.0
40
0.300000000000
100
AcDbArc
50
0.000000000000
51
90.000000000000
0
LINE
5
89e
100
AcDbEntity
8
0-1
6
PHANTOM
62
4
100
AcDbLine
10
126.950286226705
20
251.499999999999
30
0.0
11
126.950286226705
21
250.299999999999
31
0.0
0
LINE
5
89f
100
AcDbEntity
8
0-1
6
PHANTOM
62
4
100
AcDbLine
10
126.650286226705
20
249.999999999999
30
0.0
11
119.050286226705
21
249.999999999999
31
0.0
0
ARC
5
8a0
100
AcDbEntity
8
0-1
6
PHANTOM
62
4
100
AcDbCircle
10
119.050286226705
20
250.999999999999
30
0.0
40
1.000000000000
100
AcDbArc
50
180.000000000000
51
270.000000000000
0
LINE
5
8a1
100
AcDbEntity
8
0-1
6
PHANTOM
62
4
100
AcDbLine
10
118.050286226705
20
250.999999999999
30
0.0
11
118.050286226705
21
258.599999999999
31
0.0
0
ARC
5
8a2
100
AcDbEntity
8
0-1
6
PHANTOM
62
4
100
AcDbCircle
10
123.950286226704
20
257.824264068711
30
0.0
40
0.300000000000
100
AcDbArc
50
315.000000000000
51
360.000000000000
0
LINE
5
8a3
100
AcDbEntity
8
0-1
6
PHANTOM
62
4
100
AcDbLine
10
124.250286226705
20
267.175735931287
30
0.0
11
124.250286226705
21
257.824264068711
31
0.0
0
ARC
5
8a4
100
AcDbEntity
8
0-1
6
PHANTOM
62
4
100
AcDbCircle
10
118.350286226705
20
258.599999999999
30
0.0
40
0.300000000000
100
AcDbArc
50
90.000000000000
51
180.000000000000
0
LINE
5
8a5
100
AcDbEntity
8
0-1
6
PHANTOM
62
4
100
AcDbLine
10
119.550286226705
20
258.899999999999
30
0.0
11
118.350286226705
21
258.899999999999
31
0.0
0
ARC
5
8a6
100
AcDbEntity
8
0-1
6
PHANTOM
62
4
100
AcDbCircle
10
119.550286226705
20
258.599999999999
30
0.0
40
0.300000000000
100
AcDbArc
50
0.000000000000
51
90.000000000000
0
LINE
5
8a7
100
AcDbEntity
8
0-1
6
PHANTOM
62
4
100
AcDbLine
10
119.850286226704
20
256.799999999999
30
0.0
11
119.850286226704
21
258.599999999999
31
0.0
0
ARC
5
8a8
100
AcDbEntity
8
0-1
6
PHANTOM
62
4
100
AcDbCircle
10
120.150286226705
20
256.799999999999
30
0.0
40
0.300000000000
100
AcDbArc
50
180.000000000000
51
270.000000000000
0
LINE
5
8a9
100
AcDbEntity
8
0-1
6
PHANTOM
62
4
100
AcDbLine
10
122.926022157993
20
256.499999999999
30
0.0
11
120.150286226705
21
256.499999999999
31
0.0
0
ARC
5
8aa
100
AcDbEntity
8
0-1
6
PHANTOM
62
4
100
AcDbCircle
10
122.926022157993
20
256.799999999999
30
0.0
40
0.300000000000
100
AcDbArc
50
270.000000000000
51
315.000000000000
0
LINE
5
8ab
100
AcDbEntity
8
0-1
6
PHANTOM
62
4
100
AcDbLine
10
124.162418261061
20
257.612132034355
30
0.0
11
123.138154192349
21
256.587867965643
31
0.0
0
LINE
5
8ac
100
AcDbEntity
8
0-1
6
PHANTOM
62
4
100
AcDbLine
10
123.138154192349
20
268.412132034355
30
0.0
11
124.162418261061
21
267.387867965643
31
0.0
0
ARC
5
8ad
100
AcDbEntity
8
0-1
6
PHANTOM
62
4
100
AcDbCircle
10
122.926022157993
20
268.199999999999
30
0.0
40
0.300000000000
100
AcDbArc
50
45.000000000000
51
90.000000000000
0
LINE
5
8ae
100
AcDbEntity
8
0-1
6
PHANTOM
62
4
100
AcDbLine
10
120.150286226705
20
268.499999999999
30
0.0
11
122.926022157993
21
268.499999999999
31
0.0
0
ARC
5
8af
100
AcDbEntity
8
0-1
6
PHANTOM
62
4
100
AcDbCircle
10
120.150286226705
20
268.199999999999
30
0.0
40
0.300000000000
100
AcDbArc
50
90.000000000000
51
180.000000000000
0
LINE
5
8b0
100
AcDbEntity
8
0-1
6
PHANTOM
62
4
100
AcDbLine
10
119.850286226704
20
268.199999999999
30
0.0
11
119.850286226704
21
266.399999999999
31
0.0
0
ARC
5
8b1
100
AcDbEntity
8
0-1
6
PHANTOM
62
4
100
AcDbCircle
10
118.350286226705
20
266.399999999999
30
0.0
40
0.300000000000
100
AcDbArc
50
180.000000000000
51
270.000000000000
0
ARC
5
8b2
100
AcDbEntity
8
0-1
6
PHANTOM
62
4
100
AcDbCircle
10
119.550286226705
20
266.399999999999
30
0.0
40
0.300000000000
100
AcDbArc
50
270.000000000000
51
360.000000000000
0
LINE
5
8b3
100
AcDbEntity
8
0-1
6
PHANTOM
62
4
100
AcDbLine
10
119.550286226705
20
266.099999999999
30
0.0
11
118.350286226705
21
266.099999999999
31
0.0
0
LINE
5
8b4
100
AcDbEntity
8
0-1
6
PHANTOM
62
4
100
AcDbLine
10
118.050286226705
20
266.399999999999
30
0.0
11
118.050286226705
21
273.999999999999
31
0.0
0
ARC
5
8b5
100
AcDbEntity
8
0-1
6
PHANTOM
62
4
100
AcDbCircle
10
119.050286226705
20
273.999999999999
30
0.0
40
1.000000000000
100
AcDbArc
50
90.000000000000
51
180.000000000000
0
ARC
5
8b6
100
AcDbEntity
8
0-1
6
PHANTOM
62
4
100
AcDbCircle
10
67.946528801271
20
269.100000000000
30
0.0
40
0.300000000000
100
AcDbArc
50
225.000000000000
51
270.000000000000
0
LINE
5
8b7
100
AcDbEntity
8
0-1
6
PHANTOM
62
4
100
AcDbLine
10
77.298000663847
20
268.800000000000
30
0.0
11
67.946528801271
21
268.800000000000
31
0.0
0
ARC
5
8b8
100
AcDbEntity
8
0-1
6
PHANTOM
62
4
100
AcDbCircle
10
68.722264732560
20
274.699999999999
30
0.0
40
0.300000000000
100
AcDbArc
50
0.000000000000
51
90.000000000000
0
ARC
5
8b9
100
AcDbEntity
8
0-1
6
PHANTOM
62
4
100
AcDbCircle
10
68.722264732560
20
273.499999999999
30
0.0
40
0.300000000000
100
AcDbArc
50
270.000000000000
51
360.000000000000
0
LINE
5
8ba
100
AcDbEntity
8
0-1
6
PHANTOM
62
4
100
AcDbLine
10
66.922264732559
20
273.200000000000
30
0.0
11
68.722264732560
21
273.200000000000
31
0.0
0
ARC
5
8bb
100
AcDbEntity
8
0-1
6
PHANTOM
62
4
100
AcDbCircle
10
66.922264732559
20
272.900000000000
30
0.0
40
0.300000000000
100
AcDbArc
50
90.000000000000
51
180.000000000000
0
LINE
5
8bc
100
AcDbEntity
8
0-1
6
PHANTOM
62
4
100
AcDbLine
10
66.622264732560
20
270.124264068711
30
0.0
11
66.622264732560
21
272.900000000000
31
0.0
0
ARC
5
8bd
100
AcDbEntity
8
0-1
6
PHANTOM
62
4
100
AcDbCircle
10
66.922264732559
20
270.124264068711
30
0.0
40
0.300000000000
100
AcDbArc
50
180.000000000000
51
225.000000000000
0
LINE
5
8be
100
AcDbEntity
8
0-1
6
PHANTOM
62
4
100
AcDbLine
10
67.734396766916
20
268.887867965644
30
0.0
11
66.710132698204
21
269.912132034356
31
0.0
0
LINE
5
8bf
100
AcDbEntity
8
0-1
6
PHANTOM
62
4
100
AcDbLine
10
78.534396766915
20
269.912132034356
30
0.0
11
77.510132698203
21
268.887867965644
31
0.0
0
ARC
5
8c0
100
AcDbEntity
8
0-1
6
PHANTOM
62
4
100
AcDbCircle
10
78.322264732559
20
270.124264068711
30
0.0
40
0.300000000000
100
AcDbArc
50
315.000000000000
51
360.000000000000
0
LINE
5
8c1
100
AcDbEntity
8
0-1
6
PHANTOM
62
4
100
AcDbLine
10
78.622264732560
20
272.900000000000
30
0.0
11
78.622264732560
21
270.124264068711
31
0.0
0
ARC
5
8c2
100
AcDbEntity
8
0-1
6
PHANTOM
62
4
100
AcDbCircle
10
78.322264732559
20
272.900000000000
30
0.0
40
0.300000000000
100
AcDbArc
50
0.000000000000
51
90.000000000000
0
LINE
5
8c3
100
AcDbEntity
8
0-1
6
PHANTOM
62
4
100
AcDbLine
10
78.322264732559
20
273.200000000000
30
0.0
11
76.522264732559
21
273.200000000000
31
0.0
0
ARC
5
8c4
100
AcDbEntity
8
0-1
6
PHANTOM
62
4
100
AcDbCircle
10
76.522264732559
20
274.699999999999
30
0.0
40
0.300000000000
100
AcDbArc
50
90.000000000000
51
180.000000000000
0
ARC
5
8c5
100
AcDbEntity
8
0-1
6
PHANTOM
62
4
100
AcDbCircle
10
76.522264732559
20
273.499999999999
30
0.0
40
0.300000000000
100
AcDbArc
50
180.000000000000
51
270.000000000000
0
LINE
5
8c6
100
AcDbEntity
8
0-1
6
PHANTOM
62
4
100
AcDbLine
10
76.222264732560
20
273.499999999999
30
0.0
11
76.222264732560
21
274.699999999999
31
0.0
0
ARC
5
8c7
100
AcDbEntity
8
0-1
6
PHANTOM
62
4
100
AcDbCircle
10
84.122264732560
20
273.999999999999
30
0.0
40
1.000000000000
100
AcDbArc
50
0.000000000000
51
90.000000000000
0
LINE
5
8c8
100
AcDbEntity
8
0-1
6
PHANTOM
62
4
100
AcDbLine
10
85.122264732560
20
273.999999999999
30
0.0
11
85.122264732560
21
266.400000000000
31
0.0
0
ARC
5
8c9
100
AcDbEntity
8
0-1
6
PHANTOM
62
4
100
AcDbCircle
10
79.222264732560
20
267.175735931288
30
0.0
40
0.300000000000
100
AcDbArc
50
135.000000000000
51
180.000000000000
0
LINE
5
8ca
100
AcDbEntity
8
0-1
6
PHANTOM
62
4
100
AcDbLine
10
78.922264732560
20
257.824264068712
30
0.0
11
78.922264732560
21
267.175735931288
31
0.0
0
ARC
5
8cb
100
AcDbEntity
8
0-1
6
PHANTOM
62
4
100
AcDbCircle
10
84.822264732560
20
266.400000000000
30
0.0
40
0.300000000000
100
AcDbArc
50
270.000000000000
51
360.000000000000
0
LINE
5
8cc
100
AcDbEntity
8
0-1
6
PHANTOM
62
4
100
AcDbLine
10
83.622264732560
20
266.100000000000
30
0.0
11
84.822264732560
21
266.100000000000
31
0.0
0
ARC
5
8cd
100
AcDbEntity
8
0-1
6
PHANTOM
62
4
100
AcDbCircle
10
83.622264732560
20
266.400000000000
30
0.0
40
0.300000000000
100
AcDbArc
50
180.000000000000
51
270.000000000000
0
LINE
5
8ce
100
AcDbEntity
8
0-1
6
PHANTOM
62
4
100
AcDbLine
10
83.322264732560
20
268.200000000000
30
0.0
11
83.322264732560
21
266.400000000000
31
0.0
0
ARC
5
8cf
100
AcDbEntity
8
0-1
6
PHANTOM
62
4
100
AcDbCircle
10
83.022264732560
20
268.200000000000
30
0.0
40
0.300000000000
100
AcDbArc
50
0.000000000000
51
90.000000000000
0
LINE
5
8d0
100
AcDbEntity
8
0-1
6
PHANTOM
62
4
100
AcDbLine
10
80.246528801272
20
268.499999999999
30
0.0
11
83.022264732560
21
268.499999999999
31
0.0
0
ARC
5
8d1
100
AcDbEntity
8
0-1
6
PHANTOM
62
4
100
AcDbCircle
10
80.246528801272
20
268.200000000000
30
0.0
40
0.300000000000
100
AcDbArc
50
90.000000000000
51
135.000000000000
0
LINE
5
8d2
100
AcDbEntity
8
0-1
6
PHANTOM
62
4
100
AcDbLine
10
79.010132698204
20
267.387867965644
30
0.0
11
80.034396766916
21
268.412132034356
31
0.0
0
LINE
5
8d3
100
AcDbEntity
8
0-1
6
PHANTOM
62
4
100
AcDbLine
10
80.034396766916
20
256.587867965644
30
0.0
11
79.010132698204
21
257.612132034356
31
0.0
0
ARC
5
8d4
100
AcDbEntity
8
0-1
6
PHANTOM
62
4
100
AcDbCircle
10
80.246528801272
20
256.800000000000
30
0.0
40
0.300000000000
100
AcDbArc
50
225.000000000000
51
270.000000000000
0
LINE
5
8d5
100
AcDbEntity
8
0-1
6
PHANTOM
62
4
100
AcDbLine
10
83.022264732560
20
256.499999999999
30
0.0
11
80.246528801272
21
256.499999999999
31
0.0
0
ARC
5
8d6
100
AcDbEntity
8
0-1
6
PHANTOM
62
4
100
AcDbCircle
10
83.022264732560
20
256.800000000000
30
0.0
40
0.300000000000
100
AcDbArc
50
270.000000000000
51
360.000000000000
0
LINE
5
8d7
100
AcDbEntity
8
0-1
6
PHANTOM
62
4
100
AcDbLine
10
83.322264732560
20
256.800000000000
30
0.0
11
83.322264732560
21
258.600000000000
31
0.0
0
ARC
5
8d8
100
AcDbEntity
8
0-1
6
PHANTOM
62
4
100
AcDbCircle
10
84.822264732560
20
258.600000000000
30
0.0
40
0.300000000000
100
AcDbArc
50
0.000000000000
51
90.000000000000
0
ARC
5
8d9
100
AcDbEntity
8
0-1
6
PHANTOM
62
4
100
AcDbCircle
10
83.622264732560
20
258.600000000000
30
0.0
40
0.300000000000
100
AcDbArc
50
90.000000000000
51
180.000000000000
0
LINE
5
8da
100
AcDbEntity
8
0-1
6
PHANTOM
62
4
100
AcDbLine
10
83.622264732560
20
258.900000000000
30
0.0
11
84.822264732560
21
258.900000000000
31
0.0
0
LINE
5
8db
100
AcDbEntity
8
0-1
6
PHANTOM
62
4
100
AcDbLine
10
85.122264732560
20
258.600000000000
30
0.0
11
85.122264732560
21
250.999999999999
31
0.0
0
ARC
5
8dc
100
AcDbEntity
8
0-1
6
PHANTOM
62
4
100
AcDbCircle
10
84.122264732560
20
250.999999999999
30
0.0
40
1.000000000000
100
AcDbArc
50
270.000000000000
51
360.000000000000
0
LINE
5
8dd
100
AcDbEntity
8
0-1
6
PHANTOM
62
4
100
AcDbLine
10
84.122264732560
20
249.999999999999
30
0.0
11
76.522264732560
21
249.999999999999
31
0.0
0
ARC
5
8de
100
AcDbEntity
8
0-1
6
PHANTOM
62
4
100
AcDbCircle
10
77.298000663848
20
255.899999999999
30
0.0
40
0.300000000000
100
AcDbArc
50
45.000000000000
51
90.000000000000
0
LINE
5
8df
100
AcDbEntity
8
0-1
6
PHANTOM
62
4
100
AcDbLine
10
67.946528801272
20
256.199999999999
30
0.0
11
77.298000663848
21
256.199999999999
31
0.0
0
ARC
5
8e0
100
AcDbEntity
8
0-1
6
PHANTOM
62
4
100
AcDbCircle
10
76.522264732560
20
250.299999999999
30
0.0
40
0.300000000000
100
AcDbArc
50
180.000000000000
51
270.000000000000
0
LINE
5
8e1
100
AcDbEntity
8
0-1
6
PHANTOM
62
4
100
AcDbLine
10
76.222264732560
20
251.499999999999
30
0.0
11
76.222264732560
21
250.299999999999
31
0.0
0
ARC
5
8e2
100
AcDbEntity
8
0-1
6
PHANTOM
62
4
100
AcDbCircle
10
76.522264732560
20
251.499999999999
30
0.0
40
0.300000000000
100
AcDbArc
50
90.000000000000
51
180.000000000000
0
LINE
5
8e3
100
AcDbEntity
8
0-1
6
PHANTOM
62
4
100
AcDbLine
10
78.322264732560
20
251.799999999999
30
0.0
11
76.522264732560
21
251.799999999999
31
0.0
0
ARC
5
8e4
100
AcDbEntity
8
0-1
6
PHANTOM
62
4
100
AcDbCircle
10
78.322264732560
20
252.099999999999
30
0.0
40
0.300000000000
100
AcDbArc
50
270.000000000000
51
360.000000000000
0
LINE
5
8e5
100
AcDbEntity
8
0-1
6
PHANTOM
62
4
100
AcDbLine
10
78.622264732560
20
254.875735931288
30
0.0
11
78.622264732560
21
252.099999999999
31
0.0
0
ARC
5
8e6
100
AcDbEntity
8
0-1
6
PHANTOM
62
4
100
AcDbCircle
10
78.322264732560
20
254.875735931288
30
0.0
40
0.300000000000
100
AcDbArc
50
360.000000000000
51
405.000000000000
0
LINE
5
8e7
100
AcDbEntity
8
0-1
6
PHANTOM
62
4
100
AcDbLine
10
77.510132698204
20
256.112132034355
30
0.0
11
78.534396766916
21
255.087867965643
31
0.0
0
LINE
5
8e8
100
AcDbEntity
8
0-1
6
PHANTOM
62
4
100
AcDbLine
10
66.710132698204
20
255.087867965643
30
0.0
11
67.734396766916
21
256.112132034355
31
0.0
0
ARC
5
8e9
100
AcDbEntity
8
0-1
6
PHANTOM
62
4
100
AcDbCircle
10
66.922264732560
20
254.875735931288
30
0.0
40
0.300000000000
100
AcDbArc
50
135.000000000000
51
180.000000000000
0
LINE
5
8ea
100
AcDbEntity
8
0-1
6
PHANTOM
62
4
100
AcDbLine
10
66.622264732560
20
252.099999999999
30
0.0
11
66.622264732560
21
254.875735931288
31
0.0
0
ARC
5
8eb
100
AcDbEntity
8
0-1
6
PHANTOM
62
4
100
AcDbCircle
10
66.922264732560
20
252.099999999999
30
0.0
40
0.300000000000
100
AcDbArc
50
180.000000000000
51
270.000000000000
0
LINE
5
8ec
100
AcDbEntity
8
0-1
6
PHANTOM
62
4
100
AcDbLine
10
66.922264732560
20
251.799999999999
30
0.0
11
68.722264732560
21
251.799999999999
31
0.0
0
ARC
5
8ed
100
AcDbEntity
8
0-1
6
PHANTOM
62
4
100
AcDbCircle
10
68.722264732560
20
250.299999999999
30
0.0
40
0.300000000000
100
AcDbArc
50
270.000000000000
51
360.000000000000
0
ARC
5
8ee
100
AcDbEntity
8
0-1
6
PHANTOM
62
4
100
AcDbCircle
10
68.722264732560
20
251.499999999999
30
0.0
40
0.300000000000
100
AcDbArc
50
0.000000000000
51
90.000000000000
0
LINE
5
8ef
100
AcDbEntity
8
0-1
6
PHANTOM
62
4
100
AcDbLine
10
69.022264732560
20
251.499999999999
30
0.0
11
69.022264732560
21
250.299999999999
31
0.0
0
LINE
5
8f0
100
AcDbEntity
8
0-1
6
PHANTOM
62
4
100
AcDbLine
10
68.722264732560
20
249.999999999999
30
0.0
11
61.122264732560
21
249.999999999999
31
0.0
0
ARC
5
8f1
100
AcDbEntity
8
0-1
6
PHANTOM
62
4
100
AcDbCircle
10
61.122264732560
20
250.999999999999
30
0.0
40
1.000000000000
100
AcDbArc
50
180.000000000000
51
270.000000000000
0
LINE
5
8f2
100
AcDbEntity
8
0-1
6
PHANTOM
62
4
100
AcDbLine
10
60.122264732560
20
250.999999999999
30
0.0
11
60.122264732560
21
258.599999999999
31
0.0
0
ARC
5
8f3
100
AcDbEntity
8
0-1
6
PHANTOM
62
4
100
AcDbCircle
10
66.022264732559
20
257.824264068711
30
0.0
40
0.300000000000
100
AcDbArc
50
315.000000000000
51
360.000000000000
0
LINE
5
8f4
100
AcDbEntity
8
0-1
6
PHANTOM
62
4
100
AcDbLine
10
66.322264732559
20
267.175735931287
30
0.0
11
66.322264732559
21
257.824264068711
31
0.0
0
ARC
5
8f5
100
AcDbEntity
8
0-1
6
PHANTOM
62
4
100
AcDbCircle
10
60.422264732560
20
258.599999999999
30
0.0
40
0.300000000000
100
AcDbArc
50
90.000000000000
51
180.000000000000
0
LINE
5
8f6
100
AcDbEntity
8
0-1
6
PHANTOM
62
4
100
AcDbLine
10
61.622264732560
20
258.899999999999
30
0.0
11
60.422264732560
21
258.899999999999
31
0.0
0
ARC
5
8f7
100
AcDbEntity
8
0-1
6
PHANTOM
62
4
100
AcDbCircle
10
61.622264732560
20
258.599999999999
30
0.0
40
0.300000000000
100
AcDbArc
50
0.000000000000
51
90.000000000000
0
LINE
5
8f8
100
AcDbEntity
8
0-1
6
PHANTOM
62
4
100
AcDbLine
10
61.922264732559
20
256.799999999999
30
0.0
11
61.922264732559
21
258.599999999999
31
0.0
0
ARC
5
8f9
100
AcDbEntity
8
0-1
6
PHANTOM
62
4
100
AcDbCircle
10
62.222264732560
20
256.799999999999
30
0.0
40
0.300000000000
100
AcDbArc
50
180.000000000000
51
270.000000000000
0
LINE
5
8fa
100
AcDbEntity
8
0-1
6
PHANTOM
62
4
100
AcDbLine
10
64.998000663848
20
256.499999999999
30
0.0
11
62.222264732560
21
256.499999999999
31
0.0
0
ARC
5
8fb
100
AcDbEntity
8
0-1
6
PHANTOM
62
4
100
AcDbCircle
10
64.998000663848
20
256.799999999999
30
0.0
40
0.300000000000
100
AcDbArc
50
270.000000000000
51
315.000000000000
0
LINE
5
8fc
100
AcDbEntity
8
0-1
6
PHANTOM
62
4
100
AcDbLine
10
66.234396766916
20
257.612132034355
30
0.0
11
65.210132698204
21
256.587867965643
31
0.0
0
LINE
5
8fd
100
AcDbEntity
8
0-1
6
PHANTOM
62
4
100
AcDbLine
10
65.210132698204
20
268.412132034355
30
0.0
11
66.234396766916
21
267.387867965643
31
0.0
0
ARC
5
8fe
100
AcDbEntity
8
0-1
6
PHANTOM
62
4
100
AcDbCircle
10
64.998000663848
20
268.199999999999
30
0.0
40
0.300000000000
100
AcDbArc
50
45.000000000000
51
90.000000000000
0
LINE
5
8ff
100
AcDbEntity
8
0-1
6
PHANTOM
62
4
100
AcDbLine
10
62.222264732560
20
268.499999999999
30
0.0
11
64.998000663848
21
268.499999999999
31
0.0
0
ARC
5
900
100
AcDbEntity
8
0-1
6
PHANTOM
62
4
100
AcDbCircle
10
62.222264732560
20
268.199999999999
30
0.0
40
0.300000000000
100
AcDbArc
50
90.000000000000
51
180.000000000000
0
LINE
5
901
100
AcDbEntity
8
0-1
6
PHANTOM
62
4
100
AcDbLine
10
61.922264732559
20
268.199999999999
30
0.0
11
61.922264732559
21
266.399999999999
31
0.0
0
ARC
5
902
100
AcDbEntity
8
0-1
6
PHANTOM
62
4
100
AcDbCircle
10
60.422264732560
20
266.399999999999
30
0.0
40
0.300000000000
100
AcDbArc
50
180.000000000000
51
270.000000000000
0
ARC
5
903
100
AcDbEntity
8
0-1
6
PHANTOM
62
4
100
AcDbCircle
10
61.622264732560
20
266.399999999999
30
0.0
40
0.300000000000
100
AcDbArc
50
270.000000000000
51
360.000000000000
0
LINE
5
904
100
AcDbEntity
8
0-1
6
PHANTOM
62
4
100
AcDbLine
10
61.622264732560
20
266.099999999999
30
0.0
11
60.422264732560
21
266.099999999999
31
0.0
0
LINE
5
905
100
AcDbEntity
8
0-1
6
PHANTOM
62
4
100
AcDbLine
10
60.122264732560
20
266.399999999999
30
0.0
11
60.122264732560
21
273.999999999999
31
0.0
0
ARC
5
906
100
AcDbEntity
8
0-1
6
PHANTOM
62
4
100
AcDbCircle
10
61.122264732560
20
273.999999999999
30
0.0
40
1.000000000000
100
AcDbArc
50
90.000000000000
51
180.000000000000
0
ARC
5
907
100
AcDbEntity
8
0-1
6
PHANTOM
62
4
100
AcDbCircle
10
7.824264068712
20
269.100000000000
30
0.0
40
0.300000000000
100
AcDbArc
50
225.000000000000
51
270.000000000000
0
LINE
5
908
100
AcDbEntity
8
0-1
6
PHANTOM
62
4
100
AcDbLine
10
17.175735931288
20
268.800000000000
30
0.0
11
7.824264068712
21
268.800000000000
31
0.0
0
ARC
5
909
100
AcDbEntity
8
0-1
6
PHANTOM
62
4
100
AcDbCircle
10
8.600000000000
20
274.700000000000
30
0.0
40
0.300000000000
100
AcDbArc
50
0.000000000000
51
90.000000000000
0
LINE
5
90a
100
AcDbEntity
8
0-1
6
PHANTOM
62
4
100
AcDbLine
10
8.900000000000
20
273.500000000000
30
0.0
11
8.900000000000
21
274.700000000000
31
0.0
0
ARC
5
90b
100
AcDbEntity
8
0-1
6
PHANTOM
62
4
100
AcDbCircle
10
8.600000000000
20
273.500000000000
30
0.0
40
0.300000000000
100
AcDbArc
50
270.000000000000
51
360.000000000000
0
LINE
5
90c
100
AcDbEntity
8
0-1
6
PHANTOM
62
4
100
AcDbLine
10
6.800000000000
20
273.200000000000
30
0.0
11
8.600000000000
21
273.200000000000
31
0.0
0
ARC
5
90d
100
AcDbEntity
8
0-1
6
PHANTOM
62
4
100
AcDbCircle
10
6.800000000000
20
272.900000000000
30
0.0
40
0.300000000000
100
AcDbArc
50
90.000000000000
51
180.000000000000
0
LINE
5
90e
100
AcDbEntity
8
0-1
6
PHANTOM
62
4
100
AcDbLine
10
6.500000000000
20
270.124264068712
30
0.0
11
6.500000000000
21
272.900000000000
31
0.0
0
ARC
5
90f
100
AcDbEntity
8
0-1
6
PHANTOM
62
4
100
AcDbCircle
10
6.800000000000
20
270.124264068712
30
0.0
40
0.300000000000
100
AcDbArc
50
180.000000000000
51
225.000000000000
0
LINE
5
910
100
AcDbEntity
8
0-1
6
PHANTOM
62
4
100
AcDbLine
10
7.612132034356
20
268.887867965644
30
0.0
11
6.587867965644
21
269.912132034356
31
0.0
0
LINE
5
911
100
AcDbEntity
8
0-1
6
PHANTOM
62
4
100
AcDbLine
10
18.412132034356
20
269.912132034356
30
0.0
11
17.387867965644
21
268.887867965644
31
0.0
0
ARC
5
912
100
AcDbEntity
8
0-1
6
PHANTOM
62
4
100
AcDbCircle
10
18.200000000000
20
270.124264068712
30
0.0
40
0.300000000000
100
AcDbArc
50
315.000000000000
51
360.000000000000
0
LINE
5
913
100
AcDbEntity
8
0-1
6
PHANTOM
62
4
100
AcDbLine
10
18.500000000000
20
272.900000000000
30
0.0
11
18.500000000000
21
270.124264068712
31
0.0
0
ARC
5
914
100
AcDbEntity
8
0-1
6
PHANTOM
62
4
100
AcDbCircle
10
18.200000000000
20
272.900000000000
30
0.0
40
0.300000000000
100
AcDbArc
50
0.000000000000
51
90.000000000000
0
LINE
5
915
100
AcDbEntity
8
0-1
6
PHANTOM
62
4
100
AcDbLine
10
18.200000000000
20
273.200000000000
30
0.0
11
16.400000000000
21
273.200000000000
31
0.0
0
ARC
5
916
100
AcDbEntity
8
0-1
6
PHANTOM
62
4
100
AcDbCircle
10
16.400000000000
20
274.700000000000
30
0.0
40
0.300000000000
100
AcDbArc
50
90.000000000000
51
180.000000000000
0
ARC
5
917
100
AcDbEntity
8
0-1
6
PHANTOM
62
4
100
AcDbCircle
10
16.400000000000
20
273.500000000000
30
0.0
40
0.300000000000
100
AcDbArc
50
180.000000000000
51
270.000000000000
0
LINE
5
918
100
AcDbEntity
8
0-1
6
PHANTOM
62
4
100
AcDbLine
10
16.100000000000
20
273.500000000000
30
0.0
11
16.100000000000
21
274.700000000000
31
0.0
0
ARC
5
919
100
AcDbEntity
8
0-1
6
PHANTOM
62
4
100
AcDbCircle
10
24.000000000000
20
274.000000000000
30
0.0
40
1.000000000000
100
AcDbArc
50
0.000000000000
51
90.000000000000
0
LINE
5
91a
100
AcDbEntity
8
0-1
6
PHANTOM
62
4
100
AcDbLine
10
25.000000000000
20
274.000000000000
30
0.0
11
25.000000000000
21
266.400000000000
31
0.0
0
ARC
5
91b
100
AcDbEntity
8
0-1
6
PHANTOM
62
4
100
AcDbCircle
10
19.100000000000
20
267.175735931288
30
0.0
40
0.300000000000
100
AcDbArc
50
135.000000000000
51
180.000000000000
0
LINE
5
91c
100
AcDbEntity
8
0-1
6
PHANTOM
62
4
100
AcDbLine
10
18.800000000000
20
257.824264068712
30
0.0
11
18.800000000000
21
267.175735931288
31
0.0
0
ARC
5
91d
100
AcDbEntity
8
0-1
6
PHANTOM
62
4
100
AcDbCircle
10
24.700000000000
20
266.400000000000
30
0.0
40
0.300000000000
100
AcDbArc
50
270.000000000000
51
360.000000000000
0
LINE
5
91e
100
AcDbEntity
8
0-1
6
PHANTOM
62
4
100
AcDbLine
10
23.500000000000
20
266.100000000000
30
0.0
11
24.700000000000
21
266.100000000000
31
0.0
0
ARC
5
91f
100
AcDbEntity
8
0-1
6
PHANTOM
62
4
100
AcDbCircle
10
23.500000000000
20
266.400000000000
30
0.0
40
0.300000000000
100
AcDbArc
50
180.000000000000
51
270.000000000000
0
LINE
5
920
100
AcDbEntity
8
0-1
6
PHANTOM
62
4
100
AcDbLine
10
23.200000000000
20
268.200000000000
30
0.0
11
23.200000000000
21
266.400000000000
31
0.0
0
ARC
5
921
100
AcDbEntity
8
0-1
6
PHANTOM
62
4
100
AcDbCircle
10
22.900000000000
20
268.200000000000
30
0.0
40
0.300000000000
100
AcDbArc
50
0.000000000000
51
90.000000000000
0
LINE
5
922
100
AcDbEntity
8
0-1
6
PHANTOM
62
4
100
AcDbLine
10
20.124264068712
20
268.500000000000
30
0.0
11
22.900000000000
21
268.500000000000
31
0.0
0
ARC
5
923
100
AcDbEntity
8
0-1
6
PHANTOM
62
4
100
AcDbCircle
10
20.124264068712
20
268.200000000000
30
0.0
40
0.300000000000
100
AcDbArc
50
90.000000000000
51
135.000000000000
0
LINE
5
924
100
AcDbEntity
8
0-1
6
PHANTOM
62
4
100
AcDbLine
10
18.887867965644
20
267.387867965644
30
0.0
11
19.912132034356
21
268.412132034356
31
0.0
0
LINE
5
925
100
AcDbEntity
8
0-1
6
PHANTOM
62
4
100
AcDbLine
10
19.912132034356
20
256.587867965644
30
0.0
11
18.887867965644
21
257.612132034356
31
0.0
0
ARC
5
926
100
AcDbEntity
8
0-1
6
PHANTOM
62
4
100
AcDbCircle
10
20.124264068712
20
256.800000000000
30
0.0
40
0.300000000000
100
AcDbArc
50
225.000000000000
51
270.000000000000
0
LINE
5
927
100
AcDbEntity
8
0-1
6
PHANTOM
62
4
100
AcDbLine
10
22.900000000000
20
256.500000000000
30
0.0
11
20.124264068712
21
256.500000000000
31
0.0
0
ARC
5
928
100
AcDbEntity
8
0-1
6
PHANTOM
62
4
100
AcDbCircle
10
22.900000000000
20
256.800000000000
30
0.0
40
0.300000000000
100
AcDbArc
50
270.000000000000
51
360.000000000000
0
LINE
5
929
100
AcDbEntity
8
0-1
6
PHANTOM
62
4
100
AcDbLine
10
23.200000000000
20
256.800000000000
30
0.0
11
23.200000000000
21
258.600000000000
31
0.0
0
ARC
5
92a
100
AcDbEntity
8
0-1
6
PHANTOM
62
4
100
AcDbCircle
10
24.700000000000
20
258.600000000000
30
0.0
40
0.300000000000
100
AcDbArc
50
0.000000000000
51
90.000000000000
0
ARC
5
92b
100
AcDbEntity
8
0-1
6
PHANTOM
62
4
100
AcDbCircle
10
23.500000000000
20
258.600000000000
30
0.0
40
0.300000000000
100
AcDbArc
50
90.000000000000
51
180.000000000000
0
LINE
5
92c
100
AcDbEntity
8
0-1
6
PHANTOM
62
4
100
AcDbLine
10
23.500000000000
20
258.900000000000
30
0.0
11
24.700000000000
21
258.900000000000
31
0.0
0
LINE
5
92d
100
AcDbEntity
8
0-1
6
PHANTOM
62
4
100
AcDbLine
10
25.000000000000
20
258.600000000000
30
0.0
11
25.000000000000
21
251.000000000000
31
0.0
0
ARC
5
92e
100
AcDbEntity
8
0-1
6
PHANTOM
62
4
100
AcDbCircle
10
24.000000000000
20
251.000000000000
30
0.0
40
1.000000000000
100
AcDbArc
50
270.000000000000
51
360.000000000000
0
LINE
5
92f
100
AcDbEntity
8
0-1
6
PHANTOM
62
4
100
AcDbLine
10
24.000000000000
20
250.000000000000
30
0.0
11
16.400000000000
21
250.000000000000
31
0.0
0
ARC
5
930
100
AcDbEntity
8
0-1
6
PHANTOM
62
4
100
AcDbCircle
10
17.175735931288
20
255.900000000000
30
0.0
40
0.300000000000
100
AcDbArc
50
45.000000000000
51
90.000000000000
0
ARC
5
931
100
AcDbEntity
8
0-1
6
PHANTOM
62
4
100
AcDbCircle
10
16.400000000000
20
250.300000000000
30
0.0
40
0.300000000000
100
AcDbArc
50
180.000000000000
51
270.000000000000
0
LINE
5
932
100
AcDbEntity
8
0-1
6
PHANTOM
62
4
100
AcDbLine
10
16.100000000000
20
251.500000000000
30
0.0
11
16.100000000000
21
250.300000000000
31
0.0
0
ARC
5
933
100
AcDbEntity
8
0-1
6
PHANTOM
62
4
100
AcDbCircle
10
16.400000000000
20
251.500000000000
30
0.0
40
0.300000000000
100
AcDbArc
50
90.000000000000
51
180.000000000000
0
LINE
5
934
100
AcDbEntity
8
0-1
6
PHANTOM
62
4
100
AcDbLine
10
18.200000000000
20
251.800000000000
30
0.0
11
16.400000000000
21
251.800000000000
31
0.0
0
ARC
5
935
100
AcDbEntity
8
0-1
6
PHANTOM
62
4
100
AcDbCircle
10
18.200000000000
20
252.100000000000
30
0.0
40
0.300000000000
100
AcDbArc
50
270.000000000000
51
360.000000000000
0
LINE
5
936
100
AcDbEntity
8
0-1
6
PHANTOM
62
4
100
AcDbLine
10
18.500000000000
20
254.875735931288
30
0.0
11
18.500000000000
21
252.100000000000
31
0.0
0
ARC
5
937
100
AcDbEntity
8
0-1
6
PHANTOM
62
4
100
AcDbCircle
10
18.200000000000
20
254.875735931288
30
0.0
40
0.300000000000
100
AcDbArc
50
360.000000000000
51
405.000000000000
0
LINE
5
938
100
AcDbEntity
8
0-1
6
PHANTOM
62
4
100
AcDbLine
10
17.387867965644
20
256.112132034356
30
0.0
11
18.412132034356
21
255.087867965644
31
0.0
0
LINE
5
939
100
AcDbEntity
8
0-1
6
PHANTOM
62
4
100
AcDbLine
10
6.587867965644
20
255.087867965644
30
0.0
11
7.612132034356
21
256.112132034356
31
0.0
0
ARC
5
93a
100
AcDbEntity
8
0-1
6
PHANTOM
62
4
100
AcDbCircle
10
6.800000000000
20
254.875735931288
30
0.0
40
0.300000000000
100
AcDbArc
50
135.000000000000
51
180.000000000000
0
LINE
5
93b
100
AcDbEntity
8
0-1
6
PHANTOM
62
4
100
AcDbLine
10
6.500000000000
20
252.100000000000
30
0.0
11
6.500000000000
21
254.875735931288
31
0.0
0
ARC
5
93c
100
AcDbEntity
8
0-1
6
PHANTOM
62
4
100
AcDbCircle
10
6.800000000000
20
252.100000000000
30
0.0
40
0.300000000000
100
AcDbArc
50
180.000000000000
51
270.000000000000
0
LINE
5
93d
100
AcDbEntity
8
0-1
6
PHANTOM
62
4
100
AcDbLine
10
6.800000000000
20
251.800000000000
30
0.0
11
8.600000000000
21
251.800000000000
31
0.0
0
ARC
5
93e
100
AcDbEntity
8
0-1
6
PHANTOM
62
4
100
AcDbCircle
10
8.600000000000
20
250.300000000000
30
0.0
40
0.300000000000
100
AcDbArc
50
270.000000000000
51
360.000000000000
0
ARC
5
93f
100
AcDbEntity
8
0-1
6
PHANTOM
62
4
100
AcDbCircle
10
8.600000000000
20
251.500000000000
30
0.0
40
0.300000000000
100
AcDbArc
50
0.000000000000
51
90.000000000000
0
LINE
5
940
100
AcDbEntity
8
0-1
6
PHANTOM
62
4
100
AcDbLine
10
8.900000000000
20
251.500000000000
30
0.0
11
8.900000000000
21
250.300000000000
31
0.0
0
LINE
5
941
100
AcDbEntity
8
0-1
6
PHANTOM
62
4
100
AcDbLine
10
8.600000000000
20
250.000000000000
30
0.0
11
1.000000000000
21
250.000000000000
31
0.0
0
ARC
5
942
100
AcDbEntity
8
0-1
6
PHANTOM
62
4
100
AcDbCircle
10
1.000000000000
20
251.000000000000
30
0.0
40
1.000000000000
100
AcDbArc
50
180.000000000000
51
270.000000000000
0
LINE
5
943
100
AcDbEntity
8
0-1
6
PHANTOM
62
4
100
AcDbLine
10
0.000000000000
20
251.000000000000
30
0.0
11
0.000000000000
21
258.600000000000
31
0.0
0
ARC
5
944
100
AcDbEntity
8
0-1
6
PHANTOM
62
4
100
AcDbCircle
10
5.900000000000
20
257.824264068712
30
0.0
40
0.300000000000
100
AcDbArc
50
315.000000000000
51
360.000000000000
0
LINE
5
945
100
AcDbEntity
8
0-1
6
PHANTOM
62
4
100
AcDbLine
10
6.200000000000
20
267.175735931288
30
0.0
11
6.200000000000
21
257.824264068712
31
0.0
0
ARC
5
946
100
AcDbEntity
8
0-1
6
PHANTOM
62
4
100
AcDbCircle
10
0.300000000000
20
258.600000000000
30
0.0
40
0.300000000000
100
AcDbArc
50
90.000000000000
51
180.000000000000
0
LINE
5
947
100
AcDbEntity
8
0-1
6
PHANTOM
62
4
100
AcDbLine
10
1.500000000000
20
258.900000000000
30
0.0
11
0.300000000000
21
258.900000000000
31
0.0
0
ARC
5
948
100
AcDbEntity
8
0-1
6
PHANTOM
62
4
100
AcDbCircle
10
1.500000000000
20
258.600000000000
30
0.0
40
0.300000000000
100
AcDbArc
50
0.000000000000
51
90.000000000000
0
LINE
5
949
100
AcDbEntity
8
0-1
6
PHANTOM
62
4
100
AcDbLine
10
1.800000000000
20
256.800000000000
30
0.0
11
1.800000000000
21
258.600000000000
31
0.0
0
ARC
5
94a
100
AcDbEntity
8
0-1
6
PHANTOM
62
4
100
AcDbCircle
10
2.100000000000
20
256.800000000000
30
0.0
40
0.300000000000
100
AcDbArc
50
180.000000000000
51
270.000000000000
0
LINE
5
94b
100
AcDbEntity
8
0-1
6
PHANTOM
62
4
100
AcDbLine
10
4.875735931288
20
256.500000000000
30
0.0
11
2.100000000000
21
256.500000000000
31
0.0
0
ARC
5
94c
100
AcDbEntity
8
0-1
6
PHANTOM
62
4
100
AcDbCircle
10
4.875735931288
20
256.800000000000
30
0.0
40
0.300000000000
100
AcDbArc
50
270.000000000000
51
315.000000000000
0
LINE
5
94d
100
AcDbEntity
8
0-1
6
PHANTOM
62
4
100
AcDbLine
10
6.112132034356
20
257.612132034356
30
0.0
11
5.087867965644
21
256.587867965644
31
0.0
0
LINE
5
94e
100
AcDbEntity
8
0-1
6
PHANTOM
62
4
100
AcDbLine
10
5.087867965644
20
268.412132034356
30
0.0
11
6.112132034356
21
267.387867965644
31
0.0
0
ARC
5
94f
100
AcDbEntity
8
0-1
6
PHANTOM
62
4
100
AcDbCircle
10
4.875735931288
20
268.200000000000
30
0.0
40
0.300000000000
100
AcDbArc
50
45.000000000000
51
90.000000000000
0
LINE
5
950
100
AcDbEntity
8
0-1
6
PHANTOM
62
4
100
AcDbLine
10
2.100000000000
20
268.500000000000
30
0.0
11
4.875735931288
21
268.500000000000
31
0.0
0
ARC
5
951
100
AcDbEntity
8
0-1
6
PHANTOM
62
4
100
AcDbCircle
10
2.100000000000
20
268.200000000000
30
0.0
40
0.300000000000
100
AcDbArc
50
90.000000000000
51
180.000000000000
0
LINE
5
952
100
AcDbEntity
8
0-1
6
PHANTOM
62
4
100
AcDbLine
10
1.800000000000
20
268.200000000000
30
0.0
11
1.800000000000
21
266.400000000000
31
0.0
0
ARC
5
953
100
AcDbEntity
8
0-1
6
PHANTOM
62
4
100
AcDbCircle
10
0.300000000000
20
266.400000000000
30
0.0
40
0.300000000000
100
AcDbArc
50
180.000000000000
51
270.000000000000
0
ARC
5
954
100
AcDbEntity
8
0-1
6
PHANTOM
62
4
100
AcDbCircle
10
1.500000000000
20
266.400000000000
30
0.0
40
0.300000000000
100
AcDbArc
50
270.000000000000
51
360.000000000000
0
LINE
5
955
100
AcDbEntity
8
0-1
6
PHANTOM
62
4
100
AcDbLine
10
1.500000000000
20
266.100000000000
30
0.0
11
0.300000000000
21
266.100000000000
31
0.0
0
LINE
5
956
100
AcDbEntity
8
0-1
6
PHANTOM
62
4
100
AcDbLine
10
0.000000000000
20
266.400000000000
30
0.0
11
0.000000000000
21
274.000000000000
31
0.0
0
ARC
5
957
100
AcDbEntity
8
0-1
6
PHANTOM
62
4
100
AcDbCircle
10
1.000000000000
20
274.000000000000
30
0.0
40
1.000000000000
100
AcDbArc
50
90.000000000000
51
180.000000000000
0
ARC
5
958
100
AcDbEntity
8
0-0
6
CONTINUOUS
62
7
100
AcDbCircle
10
4.800000000000
20
276.000000000000
30
0.0
40
1.000000000000
100
AcDbArc
50
180.000000000000
51
270.000000000000
0
ARC
5
959
100
AcDbEntity
8
0-0
6
CONTINUOUS
62
7
100
AcDbCircle
10
4.643053640563
20
283.100000000000
30
0.0
40
0.500000000000
100
AcDbArc
50
90.000000000000
51
173.088772880975
0
ARC
5
95a
100
AcDbEntity
8
0-0
6
CONTINUOUS
62
7
100
AcDbCircle
10
5.900000000000
20
277.373205080757
30
0.0
40
0.100000000000
100
AcDbArc
50
299.999999999994
51
360.000000000000
0
ARC
5
95b
100
AcDbEntity
8
0-0
6
CONTINUOUS
62
7
100
AcDbCircle
10
6.000000000000
20
277.200000000000
30
0.0
40
0.100000000000
100
AcDbArc
50
119.999999999997
51
180.000000000000
0
ARC
5
95c
100
AcDbEntity
8
0-0
6
CONTINUOUS
62
7
100
AcDbCircle
10
6.000000000000
20
277.100000000000
30
0.0
40
0.100000000000
100
AcDbArc
50
180.000000000000
51
270.000000000000
0
ARC
5
95d
100
AcDbEntity
8
0-0
6
CONTINUOUS
62
7
100
AcDbCircle
10
16.123708287079
20
270.848296940832
30
0.0
40
1.000000000000
100
AcDbArc
50
272.004175386924
51
347.101804149761
0
ARC
5
95e
100
AcDbEntity
8
0-0
6
CONTINUOUS
62
7
100
AcDbCircle
10
16.123708287079
20
270.848296940832
30
0.0
40
2.000000000000
100
AcDbArc
50
272.036624913128
51
347.101804149754
0
ARC
5
95f
100
AcDbEntity
8
0-0
6
CONTINUOUS
62
7
100
AcDbCircle
10
17.749999999999
20
272.350215906741
30
0.0
40
0.750000000000
100
AcDbArc
50
347.101804149757
51
597.630583515260
0
ARC
5
960
100
AcDbEntity
8
0-0
6
CONTINUOUS
62
7
100
AcDbCircle
10
11.712637543312
20
271.881649602053
30
0.0
40
2.000000000000
100
AcDbArc
50
185.000000000000
51
267.000000000000
0
ARC
5
961
100
AcDbEntity
8
0-0
6
CONTINUOUS
62
7
100
AcDbCircle
10
11.712637543312
20
271.881649602053
30
0.0
40
3.000000000000
100
AcDbArc
50
185.000000000002
51
267.000000000000
0
ARC
5
962
100
AcDbEntity
8
0-0
6
CONTINUOUS
62
7
100
AcDbCircle
10
10.899999999999
20
274.500000000000
30
0.0
40
0.500000000000
100
AcDbArc
50
90.000000000000
51
180.000000000000
0
ARC
5
963
100
AcDbEntity
8
0-0
6
CONTINUOUS
62
7
100
AcDbCircle
10
11.300000000000
20
276.700000000001
30
0.0
40
0.300000000000
100
AcDbArc
50
0.000000000000
51
90.000000000000
0
ARC
5
964
100
AcDbEntity
8
0-0
6
CONTINUOUS
62
7
100
AcDbCircle
10
14.303267377338
20
321.313811572405
30
0.0
40
51.500000000000
100
AcDbArc
50
267.000000000000
51
272.115408383711
0
ARC
5
965
100
AcDbEntity
8
0-0
6
CONTINUOUS
62
7
100
AcDbCircle
10
14.303267377338
20
321.313811572405
30
0.0
40
52.500000000000
100
AcDbArc
50
267.000000000000
51
272.114525832004
0
LINE
5
966
100
AcDbEntity
8
0-0
6
CONTINUOUS
62
7
100
AcDbLine
10
18.073244734052
20
270.401858096282
30
0.0
11
18.481076167614
21
272.182801340035
31
0.0
0
LINE
5
967
100
AcDbEntity
8
0-0
6
CONTINUOUS
62
7
100
AcDbLine
10
17.348467976944
20
271.716755541398
30
0.0
11
17.098476510565
21
270.625077518557
31
0.0
0
LINE
5
968
100
AcDbEntity
8
0-0
6
CONTINUOUS
62
7
100
AcDbLine
10
6.000000000000
20
283.600000000000
30
0.0
11
4.643053640563
21
283.600000000000
31
0.0
0
LINE
5
969
100
AcDbEntity
8
0-0
6
CONTINUOUS
62
7
100
AcDbLine
10
6.000000000000
20
277.373205080757
30
0.0
11
6.000000000000
21
283.599999999999
31
0.0
0
LINE
5
96a
100
AcDbEntity
8
0-0
6
CONTINUOUS
62
7
100
AcDbLine
10
5.900000000000
20
277.100000000000
30
0.0
11
5.900000000000
21
277.200000000000
31
0.0
0
LINE
5
96b
100
AcDbEntity
8
0-0
6
CONTINUOUS
62
7
100
AcDbLine
10
11.300000000000
20
277.000000000000
30
0.0
11
6.000000000000
21
277.000000000000
31
0.0
0
LINE
5
96c
100
AcDbEntity
8
0-0
6
CONTINUOUS
62
7
100
AcDbLine
10
11.600000000000
20
275.000000000000
30
0.0
11
11.600000000000
21
276.700000000001
31
0.0
0
LINE
5
96d
100
AcDbEntity
8
0-0
6
CONTINUOUS
62
7
100
AcDbLine
10
10.899999999999
20
275.000000000000
30
0.0
11
11.600000000000
21
275.000000000000
31
0.0
0
LINE
5
96e
100
AcDbEntity
8
0-0
6
CONTINUOUS
62
7
100
AcDbLine
10
10.399999999999
20
272.691709623135
30
0.0
11
10.399999999999
21
274.500000000000
31
0.0
0
LINE
5
96f
100
AcDbEntity
8
0-0
6
CONTINUOUS
62
7
100
AcDbLine
10
9.670952174266
20
272.270793664696
30
0.0
11
10.399999999999
21
272.691709623135
31
0.0
0
LINE
5
970
100
AcDbEntity
8
0-0
6
CONTINUOUS
62
7
100
AcDbLine
10
9.720248147129
20
271.707338116558
30
0.0
11
9.670952174266
21
272.270793664696
31
0.0
0
LINE
5
971
100
AcDbEntity
8
0-0
6
CONTINUOUS
62
7
100
AcDbLine
10
8.599999999999
20
273.038119784649
30
0.0
11
8.724053449037
21
271.620182373810
31
0.0
0
LINE
5
972
100
AcDbEntity
8
0-0
6
CONTINUOUS
62
7
100
AcDbLine
10
8.899999999999
20
273.211324865406
30
0.0
11
8.599999999999
21
273.038119784649
31
0.0
0
LINE
5
973
100
AcDbEntity
8
0-0
6
CONTINUOUS
62
7
100
AcDbLine
10
8.899999999999
20
275.000000000000
30
0.0
11
8.899999999999
21
273.211324865406
31
0.0
0
LINE
5
974
100
AcDbEntity
8
0-0
6
CONTINUOUS
62
7
100
AcDbLine
10
4.800000000000
20
275.000000000000
30
0.0
11
8.899999999999
21
275.000000000000
31
0.0
0
LINE
5
975
100
AcDbEntity
8
0-0
6
CONTINUOUS
62
7
100
AcDbLine
10
3.800000000000
20
280.300000000000
30
0.0
11
3.800000000000
21
276.000000000000
31
0.0
0
LINE
5
976
100
AcDbEntity
8
0-0
6
CONTINUOUS
62
7
100
AcDbLine
10
4.146686749546
20
283.160165683760
30
0.0
11
3.800000000000
21
280.300000000000
31
0.0
0
ARC
5
977
100
AcDbEntity
8
0-0
6
CONTINUOUS
62
7
100
AcDbCircle
10
64.922264732559
20
275.999999999999
30
0.0
40
1.000000000000
100
AcDbArc
50
180.000000000000
51
270.000000000000
0
ARC
5
978
100
AcDbEntity
8
0-0
6
CONTINUOUS
62
7
100
AcDbCircle
10
64.765318373123
20
283.099999999999
30
0.0
40
0.500000000000
100
AcDbArc
50
90.000000000000
51
173.088772880975
0
ARC
5
979
100
AcDbEntity
8
0-0
6
CONTINUOUS
62
7
100
AcDbCircle
10
66.022264732559
20
277.373205080756
30
0.0
40
0.100000000000
100
AcDbArc
50
299.999999999994
51
360.000000000000
0
ARC
5
97a
100
AcDbEntity
8
0-0
6
CONTINUOUS
62
7
100
AcDbCircle
10
66.122264732559
20
277.199999999999
30
0.0
40
0.100000000000
100
AcDbArc
50
119.999999999997
51
180.000000000000
0
ARC
5
97b
100
AcDbEntity
8
0-0
6
CONTINUOUS
62
7
100
AcDbCircle
10
66.122264732559
20
277.099999999999
30
0.0
40
0.100000000000
100
AcDbArc
50
180.000000000000
51
270.000000000000
0
ARC
5
97c
100
AcDbEntity
8
0-0
6
CONTINUOUS
62
7
100
AcDbCircle
10
76.245973019638
20
270.848296940832
30
0.0
40
1.000000000000
100
AcDbArc
50
272.004175386924
51
347.101804149761
0
ARC
5
97d
100
AcDbEntity
8
0-0
6
CONTINUOUS
62
7
100
AcDbCircle
10
76.245973019638
20
270.848296940832
30
0.0
40
2.000000000000
100
AcDbArc
50
272.036624913128
51
347.101804149754
0
ARC
5
97e
100
AcDbEntity
8
0-0
6
CONTINUOUS
62
7
100
AcDbCircle
10
77.872264732559
20
272.350215906741
30
0.0
40
0.750000000000
100
AcDbArc
50
347.101804149757
51
597.630583515260
0
ARC
5
97f
100
AcDbEntity
8
0-0
6
CONTINUOUS
62
7
100
AcDbCircle
10
71.834902275872
20
271.881649602053
30
0.0
40
2.000000000000
100
AcDbArc
50
185.000000000000
51
267.000000000000
0
ARC
5
980
100
AcDbEntity
8
0-0
6
CONTINUOUS
62
7
100
AcDbCircle
10
71.834902275872
20
271.881649602053
30
0.0
40
3.000000000000
100
AcDbArc
50
185.000000000002
51
267.000000000000
0
ARC
5
981
100
AcDbEntity
8
0-0
6
CONTINUOUS
62
7
100
AcDbCircle
10
71.022264732559
20
274.499999999999
30
0.0
40
0.500000000000
100
AcDbArc
50
90.000000000000
51
180.000000000000
0
ARC
5
982
100
AcDbEntity
8
0-0
6
CONTINUOUS
62
7
100
AcDbCircle
10
71.422264732559
20
276.700000000000
30
0.0
40
0.300000000000
100
AcDbArc
50
0.000000000000
51
90.000000000000
0
ARC
5
983
100
AcDbEntity
8
0-0
6
CONTINUOUS
62
7
100
AcDbCircle
10
74.425532109898
20
321.313811572404
30
0.0
40
51.500000000000
100
AcDbArc
50
267.000000000000
51
272.115408383711
0
ARC
5
984
100
AcDbEntity
8
0-0
6
CONTINUOUS
62
7
100
AcDbCircle
10
74.425532109898
20
321.313811572404
30
0.0
40
52.500000000000
100
AcDbArc
50
267.000000000000
51
272.114525832004
0
LINE
5
985
100
AcDbEntity
8
0-0
6
CONTINUOUS
62
7
100
AcDbLine
10
78.195509466611
20
270.401858096281
30
0.0
11
78.603340900174
21
272.182801340034
31
0.0
0
LINE
5
986
100
AcDbEntity
8
0-0
6
CONTINUOUS
62
7
100
AcDbLine
10
77.470732709504
20
271.716755541397
30
0.0
11
77.220741243125
21
270.625077518557
31
0.0
0
LINE
5
987
100
AcDbEntity
8
0-0
6
CONTINUOUS
62
7
100
AcDbLine
10
66.122264732559
20
283.599999999999
30
0.0
11
64.765318373123
21
283.599999999999
31
0.0
0
LINE
5
988
100
AcDbEntity
8
0-0
6
CONTINUOUS
62
7
100
AcDbLine
10
66.122264732559
20
277.373205080756
30
0.0
11
66.122264732559
21
283.599999999999
31
0.0
0
LINE
5
989
100
AcDbEntity
8
0-0
6
CONTINUOUS
62
7
100
AcDbLine
10
66.022264732559
20
277.099999999999
30
0.0
11
66.022264732559
21
277.199999999999
31
0.0
0
LINE
5
98a
100
AcDbEntity
8
0-0
6
CONTINUOUS
62
7
100
AcDbLine
10
71.422264732559
20
276.999999999999
30
0.0
11
66.122264732559
21
276.999999999999
31
0.0
0
LINE
5
98b
100
AcDbEntity
8
0-0
6
CONTINUOUS
62
7
100
AcDbLine
10
71.722264732559
20
274.999999999999
30
0.0
11
71.722264732559
21
276.700000000000
31
0.0
0
LINE
5
98c
100
AcDbEntity
8
0-0
6
CONTINUOUS
62
7
100
AcDbLine
10
71.022264732559
20
274.999999999999
30
0.0
11
71.722264732559
21
274.999999999999
31
0.0
0
LINE
5
98d
100
AcDbEntity
8
0-0
6
CONTINUOUS
62
7
100
AcDbLine
10
70.522264732559
20
272.691709623134
30
0.0
11
70.522264732559
21
274.499999999999
31
0.0
0
LINE
5
98e
100
AcDbEntity
8
0-0
6
CONTINUOUS
62
7
100
AcDbLine
10
69.793216906826
20
272.270793664695
30
0.0
11
70.522264732559
21
272.691709623134
31
0.0
0
LINE
5
98f
100
AcDbEntity
8
0-0
6
CONTINUOUS
62
7
100
AcDbLine
10
69.842512879688
20
271.707338116557
30
0.0
11
69.793216906826
21
272.270793664695
31
0.0
0
LINE
5
990
100
AcDbEntity
8
0-0
6
CONTINUOUS
62
7
100
AcDbLine
10
68.722264732559
20
273.038119784648
30
0.0
11
68.846318181597
21
271.620182373810
31
0.0
0
LINE
5
991
100
AcDbEntity
8
0-0
6
CONTINUOUS
62
7
100
AcDbLine
10
69.022264732559
20
273.211324865405
30
0.0
11
68.722264732559
21
273.038119784648
31
0.0
0
LINE
5
992
100
AcDbEntity
8
0-0
6
CONTINUOUS
62
7
100
AcDbLine
10
69.022264732559
20
274.999999999999
30
0.0
11
69.022264732559
21
273.211324865405
31
0.0
0
LINE
5
993
100
AcDbEntity
8
0-0
6
CONTINUOUS
62
7
100
AcDbLine
10
64.922264732559
20
274.999999999999
30
0.0
11
69.022264732559
21
274.999999999999
31
0.0
0
LINE
5
994
100
AcDbEntity
8
0-0
6
CONTINUOUS
62
7
100
AcDbLine
10
63.922264732559
20
280.300000000000
30
0.0
11
63.922264732559
21
275.999999999999
31
0.0
0
LINE
5
995
100
AcDbEntity
8
0-0
6
CONTINUOUS
62
7
100
AcDbLine
10
64.268951482106
20
283.160165683759
30
0.0
11
63.922264732559
21
280.300000000000
31
0.0
0
ARC
5
996
100
AcDbEntity
8
0-0
6
CONTINUOUS
62
7
100
AcDbCircle
10
122.850286226704
20
275.999999999999
30
0.0
40
1.000000000000
100
AcDbArc
50
180.000000000000
51
270.000000000000
0
ARC
5
997
100
AcDbEntity
8
0-0
6
CONTINUOUS
62
7
100
AcDbCircle
10
122.693339867268
20
283.099999999999
30
0.0
40
0.500000000000
100
AcDbArc
50
90.000000000000
51
173.088772880975
0
ARC
5
998
100
AcDbEntity
8
0-0
6
CONTINUOUS
62
7
100
AcDbCircle
10
123.950286226704
20
277.373205080756
30
0.0
40
0.100000000000
100
AcDbArc
50
299.999999999994
51
360.000000000000
0
ARC
5
999
100
AcDbEntity
8
0-0
6
CONTINUOUS
62
7
100
AcDbCircle
10
124.050286226704
20
277.199999999999
30
0.0
40
0.100000000000
100
AcDbArc
50
119.999999999997
51
180.000000000000
0
ARC
5
99a
100
AcDbEntity
8
0-0
6
CONTINUOUS
62
7
100
AcDbCircle
10
124.050286226704
20
277.099999999999
30
0.0
40
0.100000000000
100
AcDbArc
50
180.000000000000
51
270.000000000000
0
ARC
5
99b
100
AcDbEntity
8
0-0
6
CONTINUOUS
62
7
100
AcDbCircle
10
134.173994513783
20
270.848296940831
30
0.0
40
1.000000000000
100
AcDbArc
50
272.004175386924
51
347.101804149761
0
ARC
5
99c
100
AcDbEntity
8
0-0
6
CONTINUOUS
62
7
100
AcDbCircle
10
134.173994513783
20
270.848296940831
30
0.0
40
2.000000000000
100
AcDbArc
50
272.036624913128
51
347.101804149754
0
ARC
5
99d
100
AcDbEntity
8
0-0
6
CONTINUOUS
62
7
100
AcDbCircle
10
135.800286226704
20
272.350215906740
30
0.0
40
0.750000000000
100
AcDbArc
50
347.101804149757
51
597.630583515260
0
ARC
5
99e
100
AcDbEntity
8
0-0
6
CONTINUOUS
62
7
100
AcDbCircle
10
129.762923770017
20
271.881649602052
30
0.0
40
2.000000000000
100
AcDbArc
50
185.000000000000
51
267.000000000000
0
ARC
5
99f
100
AcDbEntity
8
0-0
6
CONTINUOUS
62
7
100
AcDbCircle
10
129.762923770017
20
271.881649602052
30
0.0
40
3.000000000000
100
AcDbArc
50
185.000000000002
51
267.000000000000
0
ARC
5
9a0
100
AcDbEntity
8
0-0
6
CONTINUOUS
62
7
100
AcDbCircle
10
128.950286226704
20
274.499999999998
30
0.0
40
0.500000000000
100
AcDbArc
50
90.000000000000
51
180.000000000000
0
ARC
5
9a1
100
AcDbEntity
8
0-0
6
CONTINUOUS
62
7
100
AcDbCircle
10
129.350286226704
20
276.699999999999
30
0.0
40
0.300000000000
100
AcDbArc
50
0.000000000000
51
90.000000000000
0
ARC
5
9a2
100
AcDbEntity
8
0-0
6
CONTINUOUS
62
7
100
AcDbCircle
10
132.353553604043
20
321.313811572403
30
0.0
40
51.500000000000
100
AcDbArc
50
267.000000000000
51
272.115408383711
0
ARC
5
9a3
100
AcDbEntity
8
0-0
6
CONTINUOUS
62
7
100
AcDbCircle
10
132.353553604043
20
321.313811572403
30
0.0
40
52.500000000000
100
AcDbArc
50
267.000000000000
51
272.114525832004
0
LINE
5
9a4
100
AcDbEntity
8
0-0
6
CONTINUOUS
62
7
100
AcDbLine
10
136.123530960756
20
270.401858096281
30
0.0
11
136.531362394319
21
272.182801340034
31
0.0
0
LINE
5
9a5
100
AcDbEntity
8
0-0
6
CONTINUOUS
62
7
100
AcDbLine
10
135.398754203649
20
271.716755541397
30
0.0
11
135.148762737270
21
270.625077518556
31
0.0
0
LINE
5
9a6
100
AcDbEntity
8
0-0
6
CONTINUOUS
62
7
100
AcDbLine
10
124.050286226704
20
283.599999999999
30
0.0
11
122.693339867268
21
283.599999999999
31
0.0
0
LINE
5
9a7
100
AcDbEntity
8
0-0
6
CONTINUOUS
62
7
100
AcDbLine
10
124.050286226704
20
277.373205080756
30
0.0
11
124.050286226704
21
283.599999999998
31
0.0
0
LINE
5
9a8
100
AcDbEntity
8
0-0
6
CONTINUOUS
62
7
100
AcDbLine
10
123.950286226704
20
277.099999999999
30
0.0
11
123.950286226704
21
277.199999999999
31
0.0
0
LINE
5
9a9
100
AcDbEntity
8
0-0
6
CONTINUOUS
62
7
100
AcDbLine
10
129.350286226704
20
276.999999999999
30
0.0
11
124.050286226704
21
276.999999999999
31
0.0
0
LINE
5
9aa
100
AcDbEntity
8
0-0
6
CONTINUOUS
62
7
100
AcDbLine
10
129.650286226704
20
274.999999999998
30
0.0
11
129.650286226704
21
276.699999999999
31
0.0
0
LINE
5
9ab
100
AcDbEntity
8
0-0
6
CONTINUOUS
62
7
100
AcDbLine
10
128.950286226704
20
274.999999999998
30
0.0
11
129.650286226704
21
274.999999999998
31
0.0
0
LINE
5
9ac
100
AcDbEntity
8
0-0
6
CONTINUOUS
62
7
100
AcDbLine
10
128.450286226704
20
272.691709623134
30
0.0
11
128.450286226704
21
274.499999999998
31
0.0
0
LINE
5
9ad
100
AcDbEntity
8
0-0
6
CONTINUOUS
62
7
100
AcDbLine
10
127.721238400971
20
272.270793664695
30
0.0
11
128.450286226704
21
272.691709623134
31
0.0
0
LINE
5
9ae
100
AcDbEntity
8
0-0
6
CONTINUOUS
62
7
100
AcDbLine
10
127.770534373834
20
271.707338116557
30
0.0
11
127.721238400971
21
272.270793664695
31
0.0
0
LINE
5
9af
100
AcDbEntity
8
0-0
6
CONTINUOUS
62
7
100
AcDbLine
10
126.650286226704
20
273.038119784648
30
0.0
11
126.774339675742
21
271.620182373809
31
0.0
0
LINE
5
9b0
100
AcDbEntity
8
0-0
6
CONTINUOUS
62
7
100
AcDbLine
10
126.950286226704
20
273.211324865404
30
0.0
11
126.650286226704
21
273.038119784648
31
0.0
0
LINE
5
9b1
100
AcDbEntity
8
0-0
6
CONTINUOUS
62
7
100
AcDbLine
10
126.950286226704
20
274.999999999999
30
0.0
11
126.950286226704
21
273.211324865404
31
0.0
0
LINE
5
9b2
100
AcDbEntity
8
0-0
6
CONTINUOUS
62
7
100
AcDbLine
10
122.850286226704
20
274.999999999999
30
0.0
11
126.950286226704
21
274.999999999999
31
0.0
0
LINE
5
9b3
100
AcDbEntity
8
0-0
6
CONTINUOUS
62
7
100
AcDbLine
10
121.850286226704
20
280.299999999999
30
0.0
11
121.850286226704
21
275.999999999999
31
0.0
0
LINE
5
9b4
100
AcDbEntity
8
0-0
6
CONTINUOUS
62
7
100
AcDbLine
10
122.196972976251
20
283.160165683759
30
0.0
11
121.850286226704
21
280.299999999999
31
0.0
0
LINE
5
9b5
100
AcDbEntity
8
0-3
6
CONTINUOUS
62
5
100
AcDbLine
10
129.050286226704
20
277.499999999999
30
0.0
11
129.050286226704
21
286.738102169359
31
0.0
0
LINE
5
9b6
100
AcDbEntity
8
0-3
6
CONTINUOUS
62
5
100
AcDbLine
10
124.050286226704
20
286.738102169359
30
0.0
11
124.050286226704
21
277.499999999999
31
0.0
0
LINE
5
9b7
100
AcDbEntity
8
0-3
6
CONTINUOUS
62
5
100
AcDbLine
10
7.500000000000
20
286.738102169359
30
0.0
11
7.500000000000
21
277.500000000000
31
0.0
0
LINE
5
9b8
100
AcDbEntity
8
0-3
6
CONTINUOUS
62
5
100
AcDbLine
10
6.000000000000
20
277.500000000000
30
0.0
11
6.000000000000
21
286.738102169359
31
0.0
0
LINE
5
9b9
100
AcDbEntity
8
0-3
6
CONTINUOUS
62
5
100
AcDbLine
10
7.500000000000
20
277.500000000000
30
0.0
11
6.000000000000
21
277.500000000000
31
0.0
0
LINE
5
9ba
100
AcDbEntity
8
0-3
6
CONTINUOUS
62
5
100
AcDbLine
10
69.122264732559
20
286.738102169359
30
0.0
11
69.122264732559
21
277.499999999999
31
0.0
0
LINE
5
9bb
100
AcDbEntity
8
0-3
6
CONTINUOUS
62
5
100
AcDbLine
10
66.122264732559
20
277.499999999999
30
0.0
11
66.122264732559
21
286.738102169359
31
0.0
0
LINE
5
9bc
100
AcDbEntity
8
0-3
6
CONTINUOUS
62
5
100
AcDbLine
10
69.122264732559
20
277.499999999999
30
0.0
11
66.122264732559
21
277.499999999999
31
0.0
0
LINE
5
9bd
100
AcDbEntity
8
0-3
6
CONTINUOUS
62
5
100
AcDbLine
10
124.050286226704
20
277.499999999999
30
0.0
11
129.050286226704
21
277.499999999999
31
0.0
0
ARC
5
9be
100
AcDbEntity
8
0-2
6
CONTINUOUS
62
16
100
AcDbCircle
10
9.299999999840
20
283.300000000008
30
0.0
40
0.300000000000
100
AcDbArc
50
90.000000000000
51
250.528779365528
0
ARC
5
9bf
100
AcDbEntity
8
0-2
6
CONTINUOUS
62
16
100
AcDbCircle
10
9.299999999840
20
277.700000000008
30
0.0
40
0.300000000000
100
AcDbArc
50
109.471220634472
51
270.000000000000
0
ARC
5
9c0
100
AcDbEntity
8
0-2
6
CONTINUOUS
62
16
100
AcDbCircle
10
9.299999999840
20
279.100000000008
30
0.0
40
0.300000000000
100
AcDbArc
50
109.471220634484
51
250.528779365528
0
ARC
5
9c1
100
AcDbEntity
8
0-2
6
CONTINUOUS
62
16
100
AcDbCircle
10
9.299999999840
20
280.500000000008
30
0.0
40
0.300000000000
100
AcDbArc
50
109.471220634472
51
250.528779365516
0
ARC
5
9c2
100
AcDbEntity
8
0-2
6
CONTINUOUS
62
16
100
AcDbCircle
10
9.299999999840
20
281.900000000008
30
0.0
40
0.300000000000
100
AcDbArc
50
109.471220634472
51
250.528779365528
0
ARC
5
9c3
100
AcDbEntity
8
0-2
6
CONTINUOUS
62
16
100
AcDbCircle
10
7.799999999840
20
277.700000000008
30
0.0
40
0.300000000000
100
AcDbArc
50
109.471220634472
51
270.000000000000
0
ARC
5
9c4
100
AcDbEntity
8
0-2
6
CONTINUOUS
62
16
100
AcDbCircle
10
7.799999999840
20
279.100000000008
30
0.0
40
0.300000000000
100
AcDbArc
50
109.471220634484
51
250.528779365528
0
ARC
5
9c5
100
AcDbEntity
8
0-2
6
CONTINUOUS
62
16
100
AcDbCircle
10
7.799999999840
20
280.500000000008
30
0.0
40
0.300000000000
100
AcDbArc
50
109.471220634472
51
250.528779365516
0
ARC
5
9c6
100
AcDbEntity
8
0-2
6
CONTINUOUS
62
16
100
AcDbCircle
10
7.799999999840
20
281.900000000008
30
0.0
40
0.300000000000
100
AcDbArc
50
109.471220634472
51
250.528779365528
0
ARC
5
9c7
100
AcDbEntity
8
0-2
6
CONTINUOUS
62
16
100
AcDbCircle
10
7.799999999840
20
283.300000000008
30
0.0
40
0.300000000000
100
AcDbArc
50
90.000000000000
51
250.528779365528
0
ELLIPSE
  5
9c8
100
AcDbEntity
8
0-2
6
CONTINUOUS
62
16
100
AcDbEllipse
10
18.026730499603
20
276.147222356280
30
0.0
11
1.500000000000
21
0.000000000000
31
0.0
210
0.0
220
0.0
230
1.0
40
0.980769230800
41
0.133586996591
42
0.941527950518
0
ELLIPSE
  5
9c9
100
AcDbEntity
8
0-2
6
CONTINUOUS
62
16
100
AcDbEllipse
10
16.098580132935
20
277.719166370663
30
0.0
11
1.500000000000
21
0.000000000000
31
0.0
210
0.0
220
0.0
230
1.0
40
0.980769230800
41
0.823561238053
42
1.307705133686
0
ELLIPSE
  5
9ca
100
AcDbEntity
8
0-2
6
CONTINUOUS
62
16
100
AcDbEllipse
10
16.917696289701
20
280.600000000025
30
0.0
11
1.500000000000
21
0.000000000000
31
0.0
210
0.0
220
0.0
230
1.0
40
0.980769230800
41
3.769911184308
42
4.411134712620
0
ELLIPSE
  5
9cb
100
AcDbEntity
8
0-2
6
CONTINUOUS
62
16
100
AcDbEllipse
10
19.609162533708
20
275.134980266318
30
0.0
11
0.150000000000
21
0.000000000000
31
0.0
210
0.0
220
0.0
230
1.0
40
0.980769230800
41
4.859791232002
42
6.885602156206
0
ELLIPSE
  5
9cc
100
AcDbEntity
8
0-2
6
CONTINUOUS
62
16
100
AcDbEllipse
10
19.434615384720
20
273.500000000000
30
0.0
11
1.500000000000
21
0.000000000000
31
0.0
210
0.0
220
0.0
230
1.0
40
0.980769230800
41
1.437064737385
42
1.570796326795
0
ELLIPSE
  5
9cd
100
AcDbEntity
8
0-2
6
CONTINUOUS
62
16
100
AcDbEllipse
10
11.792429787227
20
274.399999999999
30
0.0
11
0.600000000000
21
0.000000000000
31
0.0
210
0.0
220
0.0
230
1.0
40
0.980769230800
41
0.413290808844
42
1.570796326795
0
ELLIPSE
  5
9ce
100
AcDbEntity
8
0-2
6
CONTINUOUS
62
16
100
AcDbEllipse
10
12.211948136683
20
282.100000000008
30
0.0
11
1.500000000000
21
0.000000000000
31
0.0
210
0.0
220
0.0
230
1.0
40
0.980769230800
41
0.628318530718
42
1.570796326795
0
ELLIPSE
  5
9cf
100
AcDbEntity
8
0-2
6
CONTINUOUS
62
16
100
AcDbEllipse
10
16.560840290321
20
275.274793017034
30
0.0
11
0.500000000000
21
0.000000000000
31
0.0
210
0.0
220
0.0
230
1.0
40
0.980769230800
41
1.210348670362
42
3.246312408709
0
ELLIPSE
  5
9d0
100
AcDbEntity
8
0-2
6
CONTINUOUS
62
16
100
AcDbEllipse
10
11.427173382737
20
279.042656112710
30
0.0
11
0.500000000000
21
0.000000000000
31
0.0
210
0.0
220
0.0
230
1.0
40
0.980769230800
41
5.497787143782
42
6.544984694979
0
ELLIPSE
  5
9d1
100
AcDbEntity
8
0-2
6
CONTINUOUS
62
16
100
AcDbEllipse
10
11.882692307560
20
275.900000000008
30
0.0
11
1.500000000000
21
0.000000000000
31
0.0
210
0.0
220
0.0
230
1.0
40
0.980769230800
41
0.000000000000
42
1.570796326795
0
ELLIPSE
  5
9d2
100
AcDbEntity
8
0-2
6
CONTINUOUS
62
16
100
AcDbEllipse
10
14.061509434105
20
272.200000000009
30
0.0
11
1.000000000000
21
0.000000000000
31
0.0
210
0.0
220
0.0
230
1.0
40
0.980769230800
41
4.712388980385
42
5.759586531581
0
ELLIPSE
  5
9d3
100
AcDbEntity
8
0-2
6
CONTINUOUS
62
16
100
AcDbEllipse
10
15.119230769200
20
274.067949192441
30
0.0
11
1.000000000000
21
0.000000000000
31
0.0
210
0.0
220
0.0
230
1.0
40
0.980769230800
41
5.759586531581
42
6.283185307180
0
ELLIPSE
  5
9d4
100
AcDbEntity
8
0-2
6
CONTINUOUS
62
16
100
AcDbEllipse
10
13.127482078241
20
272.700000000009
30
0.0
11
1.500000000000
21
0.000000000000
31
0.0
210
0.0
220
0.0
230
1.0
40
0.980769230800
41
3.403392041389
42
4.712388980385
0
ELLIPSE
  5
9d5
100
AcDbEntity
8
0-2
6
CONTINUOUS
62
16
100
AcDbEllipse
10
13.059615384520
20
273.694744111667
30
0.0
11
0.300000000000
21
0.000000000000
31
0.0
210
0.0
220
0.0
230
1.0
40
0.980769230800
41
3.665191429188
42
6.283185307180
0
LINE
5
9d6
100
AcDbEntity
8
0-2
6
CONTINUOUS
62
16
100
AcDbLine
10
12.211948136683
20
283.600000000008
30
0.0
11
9.299999999840
21
283.600000000008
31
0.0
0
LINE
5
9d7
100
AcDbEntity
8
0-2
6
CONTINUOUS
62
16
100
AcDbLine
10
15.727507826785
20
279.718322121586
30
0.0
11
13.402136599598
21
282.981677878447
31
0.0
0
LINE
5
9d8
100
AcDbEntity
8
0-2
6
CONTINUOUS
62
16
100
AcDbLine
10
18.244933563871
20
277.840640157200
30
0.0
11
18.892583139230
21
277.359909842726
31
0.0
0
LINE
5
9d9
100
AcDbEntity
8
0-2
6
CONTINUOUS
62
16
100
AcDbLine
10
17.098395562368
20
278.819522481221
30
0.0
11
18.244933563871
21
277.840640157200
31
0.0
0
LINE
5
9da
100
AcDbEntity
8
0-2
6
CONTINUOUS
62
16
100
AcDbLine
10
17.472805687832
20
275.443517606264
30
0.0
11
16.733795589056
21
275.742662533075
31
0.0
0
LINE
5
9db
100
AcDbEntity
8
0-2
6
CONTINUOUS
62
16
100
AcDbLine
10
18.194011820168
20
275.173579942445
30
0.0
11
17.472805687832
21
275.443517606264
31
0.0
0
LINE
5
9dc
100
AcDbEntity
8
0-2
6
CONTINUOUS
62
16
100
AcDbLine
10
18.869571994762
20
275.000000000000
30
0.0
11
18.194011820168
21
275.173579942445
31
0.0
0
LINE
5
9dd
100
AcDbEntity
8
0-2
6
CONTINUOUS
62
16
100
AcDbLine
10
19.434615384720
20
275.000000000000
30
0.0
11
18.869571994762
21
275.000000000000
31
0.0
0
LINE
5
9de
100
AcDbEntity
8
0-2
6
CONTINUOUS
62
16
100
AcDbLine
10
19.512662556558
20
276.135438370193
30
0.0
11
19.484777127832
21
276.347007401512
31
0.0
0
LINE
5
9df
100
AcDbEntity
8
0-2
6
CONTINUOUS
62
16
100
AcDbLine
10
19.703906371651
20
275.271915013602
30
0.0
11
19.512662556558
21
276.135438370193
31
0.0
0
LINE
5
9e0
100
AcDbEntity
8
0-2
6
CONTINUOUS
62
16
100
AcDbLine
10
19.730380983881
20
275.219975596410
30
0.0
11
19.703906371651
21
275.271915013602
31
0.0
0
LINE
5
9e1
100
AcDbEntity
8
0-2
6
CONTINUOUS
62
16
100
AcDbLine
10
16.073142053154
20
275.222528785400
30
0.0
11
16.100000000000
21
274.699999999999
31
0.0
0
LINE
5
9e2
100
AcDbEntity
8
0-2
6
CONTINUOUS
62
16
100
AcDbLine
10
13.353846153760
20
273.694744111667
30
0.0
11
13.353846153760
21
275.900000000008
31
0.0
0
LINE
5
9e3
100
AcDbEntity
8
0-2
6
CONTINUOUS
62
16
100
AcDbLine
10
14.061509434105
20
271.200000000009
30
0.0
11
13.127482078241
21
271.200000000009
31
0.0
0
LINE
5
9e4
100
AcDbEntity
8
0-2
6
CONTINUOUS
62
16
100
AcDbLine
10
15.968601838323
20
273.567949192441
30
0.0
11
14.910880503227
21
271.700000000009
31
0.0
0
LINE
5
9e5
100
AcDbEntity
8
0-2
6
CONTINUOUS
62
16
100
AcDbLine
10
16.100000000000
20
274.699999999999
30
0.0
11
16.100000000000
21
274.067949192441
31
0.0
0
LINE
5
9e6
100
AcDbEntity
8
0-2
6
CONTINUOUS
62
16
100
AcDbLine
10
11.792429787227
20
274.999999999999
30
0.0
11
10.999999999840
21
274.999999999999
31
0.0
0
LINE
5
9e7
100
AcDbEntity
8
0-2
6
CONTINUOUS
62
16
100
AcDbLine
10
12.790157636317
20
273.574256541185
30
0.0
11
12.331345284004
21
274.640975140099
31
0.0
0
LINE
5
9e8
100
AcDbEntity
8
0-2
6
CONTINUOUS
62
16
100
AcDbLine
10
10.999999999837
20
275.000000000009
30
0.0
11
11.706456583752
21
272.311771432355
31
0.0
0
LINE
5
9e9
100
AcDbEntity
8
0-2
6
CONTINUOUS
62
16
100
AcDbLine
10
11.773927669676
20
278.689102722117
30
0.0
11
10.999999999840
21
277.899999999955
31
0.0
0
LINE
5
9ea
100
AcDbEntity
8
0-2
6
CONTINUOUS
62
16
100
AcDbLine
10
10.999999999840
20
282.599999999902
30
0.0
11
11.900848547567
21
279.172065635261
31
0.0
0
LINE
5
9eb
100
AcDbEntity
8
0-2
6
CONTINUOUS
62
16
100
AcDbLine
10
10.999999999840
20
277.400000000008
30
0.0
11
10.999999999840
21
283.600000000008
31
0.0
0
LINE
5
9ec
100
AcDbEntity
8
0-2
6
CONTINUOUS
62
16
100
AcDbLine
10
9.299999999840
20
277.400000000008
30
0.0
11
11.882692307560
21
277.400000000008
31
0.0
0
LINE
5
9ed
100
AcDbEntity
8
0-2
6
CONTINUOUS
62
16
100
AcDbLine
10
9.199999999840
20
278.808578643784
30
0.0
11
9.199999999840
21
277.982842712483
31
0.0
0
LINE
5
9ee
100
AcDbEntity
8
0-2
6
CONTINUOUS
62
16
100
AcDbLine
10
9.199999999840
20
280.217157287534
30
0.0
11
9.199999999840
21
279.382842712483
31
0.0
0
LINE
5
9ef
100
AcDbEntity
8
0-2
6
CONTINUOUS
62
16
100
AcDbLine
10
9.199999999840
20
281.617157287533
30
0.0
11
9.199999999840
21
280.782842712483
31
0.0
0
LINE
5
9f0
100
AcDbEntity
8
0-2
6
CONTINUOUS
62
16
100
AcDbLine
10
9.199999999840
20
283.017157287534
30
0.0
11
9.199999999840
21
282.182842712483
31
0.0
0
LINE
5
9f1
100
AcDbEntity
8
0-2
6
CONTINUOUS
62
16
100
AcDbLine
10
7.699999999840
20
282.182842712483
30
0.0
11
7.699999999840
21
283.017157287534
31
0.0
0
LINE
5
9f2
100
AcDbEntity
8
0-2
6
CONTINUOUS
62
16
100
AcDbLine
10
7.699999999840
20
280.782842712483
30
0.0
11
7.699999999840
21
281.617157287533
31
0.0
0
LINE
5
9f3
100
AcDbEntity
8
0-2
6
CONTINUOUS
62
16
100
AcDbLine
10
7.699999999840
20
279.382842712483
30
0.0
11
7.699999999840
21
280.217157287534
31
0.0
0
LINE
5
9f4
100
AcDbEntity
8
0-2
6
CONTINUOUS
62
16
100
AcDbLine
10
7.699999999840
20
277.982842712483
30
0.0
11
7.699999999840
21
278.808578643784
31
0.0
0
LINE
5
9f5
100
AcDbEntity
8
0-2
6
CONTINUOUS
62
16
100
AcDbLine
10
8.999999999840
20
277.400000000008
30
0.0
11
7.799999999840
21
277.400000000008
31
0.0
0
LINE
5
9f6
100
AcDbEntity
8
0-2
6
CONTINUOUS
62
16
100
AcDbLine
10
8.999999999840
20
283.600000000008
30
0.0
11
8.999999999840
21
277.400000000008
31
0.0
0
LINE
5
9f7
100
AcDbEntity
8
0-2
6
CONTINUOUS
62
16
100
AcDbLine
10
7.799999999840
20
283.600000000008
30
0.0
11
8.999999999840
21
283.600000000008
31
0.0
0
ARC
5
9f8
100
AcDbEntity
8
0-2
6
CONTINUOUS
62
16
100
AcDbCircle
10
69.422264732400
20
283.300000000007
30
0.0
40
0.300000000000
100
AcDbArc
50
90.000000000000
51
250.528779365528
0
ARC
5
9f9
100
AcDbEntity
8
0-2
6
CONTINUOUS
62
16
100
AcDbCircle
10
69.422264732400
20
277.700000000008
30
0.0
40
0.300000000000
100
AcDbArc
50
109.471220634472
51
270.000000000000
0
ARC
5
9fa
100
AcDbEntity
8
0-2
6
CONTINUOUS
62
16
100
AcDbCircle
10
69.422264732400
20
279.100000000008
30
0.0
40
0.300000000000
100
AcDbArc
50
109.471220634484
51
250.528779365528
0
ARC
5
9fb
100
AcDbEntity
8
0-2
6
CONTINUOUS
62
16
100
AcDbCircle
10
69.422264732400
20
280.500000000008
30
0.0
40
0.300000000000
100
AcDbArc
50
109.471220634472
51
250.528779365516
0
ARC
5
9fc
100
AcDbEntity
8
0-2
6
CONTINUOUS
62
16
100
AcDbCircle
10
69.422264732400
20
281.900000000007
30
0.0
40
0.300000000000
100
AcDbArc
50
109.471220634472
51
250.528779365528
0
ELLIPSE
  5
9fd
100
AcDbEntity
8
0-2
6
CONTINUOUS
62
16
100
AcDbEllipse
10
78.148995232163
20
276.147222356279
30
0.0
11
1.500000000000
21
0.000000000000
31
0.0
210
0.0
220
0.0
230
1.0
40
0.980769230800
41
0.133586996591
42
0.941527950518
0
ELLIPSE
  5
9fe
100
AcDbEntity
8
0-2
6
CONTINUOUS
62
16
100
AcDbEllipse
10
76.220844865494
20
277.719166370662
30
0.0
11
1.500000000000
21
0.000000000000
31
0.0
210
0.0
220
0.0
230
1.0
40
0.980769230800
41
0.823561238053
42
1.307705133686
0
ELLIPSE
  5
9ff
100
AcDbEntity
8
0-2
6
CONTINUOUS
62
16
100
AcDbEllipse
10
77.039961022261
20
280.600000000024
30
0.0
11
1.500000000000
21
0.000000000000
31
0.0
210
0.0
220
0.0
230
1.0
40
0.980769230800
41
3.769911184308
42
4.411134712620
0
ELLIPSE
  5
a00
100
AcDbEntity
8
0-2
6
CONTINUOUS
62
16
100
AcDbEllipse
10
79.731427266268
20
275.134980266317
30
0.0
11
0.150000000000
21
0.000000000000
31
0.0
210
0.0
220
0.0
230
1.0
40
0.980769230800
41
4.859791232002
42
6.885602156206
0
ELLIPSE
  5
a01
100
AcDbEntity
8
0-2
6
CONTINUOUS
62
16
100
AcDbEllipse
10
79.556880117280
20
273.499999999999
30
0.0
11
1.500000000000
21
0.000000000000
31
0.0
210
0.0
220
0.0
230
1.0
40
0.980769230800
41
1.437064737385
42
1.570796326795
0
ELLIPSE
  5
a02
100
AcDbEntity
8
0-2
6
CONTINUOUS
62
16
100
AcDbEllipse
10
71.914694519786
20
274.399999999998
30
0.0
11
0.600000000000
21
0.000000000000
31
0.0
210
0.0
220
0.0
230
1.0
40
0.980769230800
41
0.413290808844
42
1.570796326795
0
ELLIPSE
  5
a03
100
AcDbEntity
8
0-2
6
CONTINUOUS
62
16
100
AcDbEllipse
10
72.334212869242
20
282.100000000008
30
0.0
11
1.500000000000
21
0.000000000000
31
0.0
210
0.0
220
0.0
230
1.0
40
0.980769230800
41
0.628318530718
42
1.570796326795
0
ELLIPSE
  5
a04
100
AcDbEntity
8
0-2
6
CONTINUOUS
62
16
100
AcDbEllipse
10
76.683105022880
20
275.274793017033
30
0.0
11
0.500000000000
21
0.000000000000
31
0.0
210
0.0
220
0.0
230
1.0
40
0.980769230800
41
1.210348670362
42
3.246312408709
0
ELLIPSE
  5
a05
100
AcDbEntity
8
0-2
6
CONTINUOUS
62
16
100
AcDbEllipse
10
71.549438115297
20
279.042656112709
30
0.0
11
0.500000000000
21
0.000000000000
31
0.0
210
0.0
220
0.0
230
1.0
40
0.980769230800
41
5.497787143782
42
6.544984694979
0
ELLIPSE
  5
a06
100
AcDbEntity
8
0-2
6
CONTINUOUS
62
16
100
AcDbEllipse
10
72.004957040120
20
275.900000000007
30
0.0
11
1.500000000000
21
0.000000000000
31
0.0
210
0.0
220
0.0
230
1.0
40
0.980769230800
41
0.000000000000
42
1.570796326795
0
ELLIPSE
  5
a07
100
AcDbEntity
8
0-2
6
CONTINUOUS
62
16
100
AcDbEllipse
10
74.183774166664
20
272.200000000008
30
0.0
11
1.000000000000
21
0.000000000000
31
0.0
210
0.0
220
0.0
230
1.0
40
0.980769230800
41
4.712388980385
42
5.759586531581
0
ELLIPSE
  5
a08
100
AcDbEntity
8
0-2
6
CONTINUOUS
62
16
100
AcDbEllipse
10
75.241495501760
20
274.067949192440
30
0.0
11
1.000000000000
21
0.000000000000
31
0.0
210
0.0
220
0.0
230
1.0
40
0.980769230800
41
5.759586531581
42
6.283185307180
0
ELLIPSE
  5
a09
100
AcDbEntity
8
0-2
6
CONTINUOUS
62
16
100
AcDbEllipse
10
73.249746810801
20
272.700000000008
30
0.0
11
1.500000000000
21
0.000000000000
31
0.0
210
0.0
220
0.0
230
1.0
40
0.980769230800
41
3.403392041389
42
4.712388980385
0
ELLIPSE
  5
a0a
100
AcDbEntity
8
0-2
6
CONTINUOUS
62
16
100
AcDbEllipse
10
73.181880117080
20
273.694744111667
30
0.0
11
0.300000000000
21
0.000000000000
31
0.0
210
0.0
220
0.0
230
1.0
40
0.980769230800
41
3.665191429188
42
6.283185307180
0
LINE
5
a0b
100
AcDbEntity
8
0-2
6
CONTINUOUS
62
16
100
AcDbLine
10
72.334212869242
20
283.600000000008
30
0.0
11
69.422264732400
21
283.600000000008
31
0.0
0
LINE
5
a0c
100
AcDbEntity
8
0-2
6
CONTINUOUS
62
16
100
AcDbLine
10
75.849772559345
20
279.718322121585
30
0.0
11
73.524401332158
21
282.981677878446
31
0.0
0
LINE
5
a0d
100
AcDbEntity
8
0-2
6
CONTINUOUS
62
16
100
AcDbLine
10
78.367198296430
20
277.840640157199
30
0.0
11
79.014847871790
21
277.359909842725
31
0.0
0
LINE
5
a0e
100
AcDbEntity
8
0-2
6
CONTINUOUS
62
16
100
AcDbLine
10
77.220660294927
20
278.819522481221
30
0.0
11
78.367198296430
21
277.840640157199
31
0.0
0
LINE
5
a0f
100
AcDbEntity
8
0-2
6
CONTINUOUS
62
16
100
AcDbLine
10
77.595070420392
20
275.443517606264
30
0.0
11
76.856060321615
21
275.742662533075
31
0.0
0
LINE
5
a10
100
AcDbEntity
8
0-2
6
CONTINUOUS
62
16
100
AcDbLine
10
78.316276552728
20
275.173579942444
30
0.0
11
77.595070420392
21
275.443517606264
31
0.0
0
LINE
5
a11
100
AcDbEntity
8
0-2
6
CONTINUOUS
62
16
100
AcDbLine
10
78.991836727321
20
274.999999999999
30
0.0
11
78.316276552728
21
275.173579942444
31
0.0
0
LINE
5
a12
100
AcDbEntity
8
0-2
6
CONTINUOUS
62
16
100
AcDbLine
10
79.556880117280
20
274.999999999999
30
0.0
11
78.991836727321
21
274.999999999999
31
0.0
0
LINE
5
a13
100
AcDbEntity
8
0-2
6
CONTINUOUS
62
16
100
AcDbLine
10
79.634927289118
20
276.135438370192
30
0.0
11
79.607041860392
21
276.347007401511
31
0.0
0
LINE
5
a14
100
AcDbEntity
8
0-2
6
CONTINUOUS
62
16
100
AcDbLine
10
79.826171104210
20
275.271915013602
30
0.0
11
79.634927289118
21
276.135438370192
31
0.0
0
LINE
5
a15
100
AcDbEntity
8
0-2
6
CONTINUOUS
62
16
100
AcDbLine
10
79.852645716441
20
275.219975596409
30
0.0
11
79.826171104210
21
275.271915013602
31
0.0
0
LINE
5
a16
100
AcDbEntity
8
0-2
6
CONTINUOUS
62
16
100
AcDbLine
10
76.195406785714
20
275.222528785399
30
0.0
11
76.222264732560
21
274.699999999998
31
0.0
0
LINE
5
a17
100
AcDbEntity
8
0-2
6
CONTINUOUS
62
16
100
AcDbLine
10
73.476110886320
20
273.694744111667
30
0.0
11
73.476110886320
21
275.900000000007
31
0.0
0
LINE
5
a18
100
AcDbEntity
8
0-2
6
CONTINUOUS
62
16
100
AcDbLine
10
74.183774166664
20
271.200000000008
30
0.0
11
73.249746810801
21
271.200000000008
31
0.0
0
LINE
5
a19
100
AcDbEntity
8
0-2
6
CONTINUOUS
62
16
100
AcDbLine
10
76.090866570883
20
273.567949192440
30
0.0
11
75.033145235787
21
271.700000000008
31
0.0
0
LINE
5
a1a
100
AcDbEntity
8
0-2
6
CONTINUOUS
62
16
100
AcDbLine
10
76.222264732560
20
274.699999999999
30
0.0
11
76.222264732560
21
274.067949192440
31
0.0
0
LINE
5
a1b
100
AcDbEntity
8
0-2
6
CONTINUOUS
62
16
100
AcDbLine
10
71.914694519786
20
274.999999999998
30
0.0
11
71.122264732400
21
274.999999999998
31
0.0
0
LINE
5
a1c
100
AcDbEntity
8
0-2
6
CONTINUOUS
62
16
100
AcDbLine
10
72.912422368877
20
273.574256541185
30
0.0
11
72.453610016564
21
274.640975140098
31
0.0
0
LINE
5
a1d
100
AcDbEntity
8
0-2
6
CONTINUOUS
62
16
100
AcDbLine
10
71.122264732397
20
275.000000000009
30
0.0
11
71.828721316312
21
272.311771432355
31
0.0
0
LINE
5
a1e
100
AcDbEntity
8
0-2
6
CONTINUOUS
62
16
100
AcDbLine
10
71.896192402236
20
278.689102722116
30
0.0
11
71.122264732400
21
277.899999999955
31
0.0
0
LINE
5
a1f
100
AcDbEntity
8
0-2
6
CONTINUOUS
62
16
100
AcDbLine
10
71.122264732400
20
282.599999999901
30
0.0
11
72.023113280127
21
279.172065635260
31
0.0
0
LINE
5
a20
100
AcDbEntity
8
0-2
6
CONTINUOUS
62
16
100
AcDbLine
10
71.122264732400
20
277.400000000007
30
0.0
11
71.122264732400
21
283.600000000008
31
0.0
0
LINE
5
a21
100
AcDbEntity
8
0-2
6
CONTINUOUS
62
16
100
AcDbLine
10
69.422264732400
20
277.400000000007
30
0.0
11
72.004957040120
21
277.400000000007
31
0.0
0
LINE
5
a22
100
AcDbEntity
8
0-2
6
CONTINUOUS
62
16
100
AcDbLine
10
69.322264732400
20
278.808578643783
30
0.0
11
69.322264732400
21
277.982842712482
31
0.0
0
LINE
5
a23
100
AcDbEntity
8
0-2
6
CONTINUOUS
62
16
100
AcDbLine
10
69.322264732400
20
280.217157287533
30
0.0
11
69.322264732400
21
279.382842712482
31
0.0
0
LINE
5
a24
100
AcDbEntity
8
0-2
6
CONTINUOUS
62
16
100
AcDbLine
10
69.322264732400
20
281.617157287533
30
0.0
11
69.322264732400
21
280.782842712482
31
0.0
0
LINE
5
a25
100
AcDbEntity
8
0-2
6
CONTINUOUS
62
16
100
AcDbLine
10
69.322264732400
20
283.017157287533
30
0.0
11
69.322264732400
21
282.182842712482
31
0.0
0
LINE
5
a26
100
AcDbEntity
8
0-2
6
CONTINUOUS
62
16
100
AcDbLine
10
129.050286226545
20
277.400000000007
30
0.0
11
129.932978534265
21
277.400000000007
31
0.0
0
LINE
5
a27
100
AcDbEntity
8
0-2
6
CONTINUOUS
62
16
100
AcDbLine
10
129.050286226545
20
277.899999999954
30
0.0
11
129.050286226545
21
277.400000000007
31
0.0
0
LINE
5
a28
100
AcDbEntity
8
0-2
6
CONTINUOUS
62
16
100
AcDbLine
10
130.262234363387
20
283.600000000007
30
0.0
11
129.050286226545
21
283.600000000007
31
0.0
0
LINE
5
a29
100
AcDbEntity
8
0-2
6
CONTINUOUS
62
16
100
AcDbLine
10
129.050286226545
20
282.599999999901
30
0.0
11
129.050286226545
21
283.600000000007
31
0.0
0
ELLIPSE
  5
a2a
100
AcDbEntity
8
0-2
6
CONTINUOUS
62
16
100
AcDbEllipse
10
136.077016726308
20
276.147222356279
30
0.0
11
1.500000000000
21
0.000000000000
31
0.0
210
0.0
220
0.0
230
1.0
40
0.980769230800
41
0.133586996591
42
0.941527950518
0
ELLIPSE
  5
a2b
100
AcDbEntity
8
0-2
6
CONTINUOUS
62
16
100
AcDbEllipse
10
134.148866359639
20
277.719166370662
30
0.0
11
1.500000000000
21
0.000000000000
31
0.0
210
0.0
220
0.0
230
1.0
40
0.980769230800
41
0.823561238053
42
1.307705133686
0
ELLIPSE
  5
a2c
100
AcDbEntity
8
0-2
6
CONTINUOUS
62
16
100
AcDbEllipse
10
134.967982516406
20
280.600000000024
30
0.0
11
1.500000000000
21
0.000000000000
31
0.0
210
0.0
220
0.0
230
1.0
40
0.980769230800
41
3.769911184308
42
4.411134712620
0
ELLIPSE
  5
a2d
100
AcDbEntity
8
0-2
6
CONTINUOUS
62
16
100
AcDbEllipse
10
137.659448760413
20
275.134980266316
30
0.0
11
0.150000000000
21
0.000000000000
31
0.0
210
0.0
220
0.0
230
1.0
40
0.980769230800
41
4.859791232002
42
6.885602156206
0
ELLIPSE
  5
a2e
100
AcDbEntity
8
0-2
6
CONTINUOUS
62
16
100
AcDbEllipse
10
137.484901611425
20
273.499999999998
30
0.0
11
1.500000000000
21
0.000000000000
31
0.0
210
0.0
220
0.0
230
1.0
40
0.980769230800
41
1.437064737385
42
1.570796326795
0
ELLIPSE
  5
a2f
100
AcDbEntity
8
0-2
6
CONTINUOUS
62
16
100
AcDbEllipse
10
129.842716013931
20
274.399999999998
30
0.0
11
0.600000000000
21
0.000000000000
31
0.0
210
0.0
220
0.0
230
1.0
40
0.980769230800
41
0.413290808844
42
1.570796326795
0
ELLIPSE
  5
a30
100
AcDbEntity
8
0-2
6
CONTINUOUS
62
16
100
AcDbEllipse
10
130.262234363387
20
282.100000000007
30
0.0
11
1.500000000000
21
0.000000000000
31
0.0
210
0.0
220
0.0
230
1.0
40
0.980769230800
41
0.628318530718
42
1.570796326795
0
ELLIPSE
  5
a31
100
AcDbEntity
8
0-2
6
CONTINUOUS
62
16
100
AcDbEllipse
10
134.611126517025
20
275.274793017033
30
0.0
11
0.500000000000
21
0.000000000000
31
0.0
210
0.0
220
0.0
230
1.0
40
0.980769230800
41
1.210348670362
42
3.246312408709
0
ELLIPSE
  5
a32
100
AcDbEntity
8
0-2
6
CONTINUOUS
62
16
100
AcDbEllipse
10
129.477459609442
20
279.042656112709
30
0.0
11
0.500000000000
21
0.000000000000
31
0.0
210
0.0
220
0.0
230
1.0
40
0.980769230800
41
5.497787143782
42
6.544984694979
0
ELLIPSE
  5
a33
100
AcDbEntity
8
0-2
6
CONTINUOUS
62
16
100
AcDbEllipse
10
129.932978534265
20
275.900000000007
30
0.0
11
1.500000000000
21
0.000000000000
31
0.0
210
0.0
220
0.0
230
1.0
40
0.980769230800
41
0.000000000000
42
1.570796326795
0
ELLIPSE
  5
a34
100
AcDbEntity
8
0-2
6
CONTINUOUS
62
16
100
AcDbEllipse
10
132.111795660809
20
272.200000000008
30
0.0
11
1.000000000000
21
0.000000000000
31
0.0
210
0.0
220
0.0
230
1.0
40
0.980769230800
41
4.712388980385
42
5.759586531581
0
ELLIPSE
  5
a35
100
AcDbEntity
8
0-2
6
CONTINUOUS
62
16
100
AcDbEllipse
10
133.169516995905
20
274.067949192440
30
0.0
11
1.000000000000
21
0.000000000000
31
0.0
210
0.0
220
0.0
230
1.0
40
0.980769230800
41
5.759586531581
42
6.283185307180
0
ELLIPSE
  5
a36
100
AcDbEntity
8
0-2
6
CONTINUOUS
62
16
100
AcDbEllipse
10
131.177768304946
20
272.700000000008
30
0.0
11
1.500000000000
21
0.000000000000
31
0.0
210
0.0
220
0.0
230
1.0
40
0.980769230800
41
3.403392041389
42
4.712388980385
0
ELLIPSE
  5
a37
100
AcDbEntity
8
0-2
6
CONTINUOUS
62
16
100
AcDbEllipse
10
131.109901611225
20
273.694744111666
30
0.0
11
0.300000000000
21
0.000000000000
31
0.0
210
0.0
220
0.0
230
1.0
40
0.980769230800
41
3.665191429188
42
6.283185307180
0
LINE
5
a38
100
AcDbEntity
8
0-2
6
CONTINUOUS
62
16
100
AcDbLine
10
133.777794053490
20
279.718322121585
30
0.0
11
131.452422826303
21
282.981677878446
31
0.0
0
LINE
5
a39
100
AcDbEntity
8
0-2
6
CONTINUOUS
62
16
100
AcDbLine
10
136.295219790575
20
277.840640157199
30
0.0
11
136.942869365935
21
277.359909842724
31
0.0
0
LINE
5
a3a
100
AcDbEntity
8
0-2
6
CONTINUOUS
62
16
100
AcDbLine
10
135.148681789072
20
278.819522481220
30
0.0
11
136.295219790575
21
277.840640157199
31
0.0
0
LINE
5
a3b
100
AcDbEntity
8
0-2
6
CONTINUOUS
62
16
100
AcDbLine
10
135.523091914537
20
275.443517606263
30
0.0
11
134.784081815760
21
275.742662533074
31
0.0
0
LINE
5
a3c
100
AcDbEntity
8
0-2
6
CONTINUOUS
62
16
100
AcDbLine
10
136.244298046873
20
275.173579942444
30
0.0
11
135.523091914537
21
275.443517606263
31
0.0
0
LINE
5
a3d
100
AcDbEntity
8
0-2
6
CONTINUOUS
62
16
100
AcDbLine
10
136.919858221466
20
274.999999999998
30
0.0
11
136.244298046873
21
275.173579942444
31
0.0
0
LINE
5
a3e
100
AcDbEntity
8
0-2
6
CONTINUOUS
62
16
100
AcDbLine
10
137.484901611425
20
274.999999999998
30
0.0
11
136.919858221466
21
274.999999999998
31
0.0
0
LINE
5
a3f
100
AcDbEntity
8
0-2
6
CONTINUOUS
62
16
100
AcDbLine
10
137.562948783263
20
276.135438370192
30
0.0
11
137.535063354537
21
276.347007401511
31
0.0
0
LINE
5
a40
100
AcDbEntity
8
0-2
6
CONTINUOUS
62
16
100
AcDbLine
10
137.754192598355
20
275.271915013601
30
0.0
11
137.562948783263
21
276.135438370192
31
0.0
0
LINE
5
a41
100
AcDbEntity
8
0-2
6
CONTINUOUS
62
16
100
AcDbLine
10
137.780667210586
20
275.219975596409
30
0.0
11
137.754192598355
21
275.271915013601
31
0.0
0
LINE
5
a42
100
AcDbEntity
8
0-2
6
CONTINUOUS
62
16
100
AcDbLine
10
134.123428279859
20
275.222528785399
30
0.0
11
134.150286226705
21
274.699999999998
31
0.0
0
LINE
5
a43
100
AcDbEntity
8
0-2
6
CONTINUOUS
62
16
100
AcDbLine
10
131.404132380465
20
273.694744111666
30
0.0
11
131.404132380465
21
275.900000000007
31
0.0
0
LINE
5
a44
100
AcDbEntity
8
0-2
6
CONTINUOUS
62
16
100
AcDbLine
10
132.111795660809
20
271.200000000008
30
0.0
11
131.177768304946
21
271.200000000008
31
0.0
0
LINE
5
a45
100
AcDbEntity
8
0-2
6
CONTINUOUS
62
16
100
AcDbLine
10
134.018888065028
20
273.567949192440
30
0.0
11
132.961166729932
21
271.700000000008
31
0.0
0
LINE
5
a46
100
AcDbEntity
8
0-2
6
CONTINUOUS
62
16
100
AcDbLine
10
134.150286226705
20
274.699999999998
30
0.0
11
134.150286226705
21
274.067949192440
31
0.0
0
LINE
5
a47
100
AcDbEntity
8
0-2
6
CONTINUOUS
62
16
100
AcDbLine
10
129.842716013931
20
274.999999999998
30
0.0
11
129.050286226545
21
274.999999999998
31
0.0
0
LINE
5
a48
100
AcDbEntity
8
0-2
6
CONTINUOUS
62
16
100
AcDbLine
10
130.840443863022
20
273.574256541184
30
0.0
11
130.381631510709
21
274.640975140097
31
0.0
0
LINE
5
a49
100
AcDbEntity
8
0-2
6
CONTINUOUS
62
16
100
AcDbLine
10
129.050286226542
20
275.000000000008
30
0.0
11
129.756742810457
21
272.311771432354
31
0.0
0
LINE
5
a4a
100
AcDbEntity
8
0-2
6
CONTINUOUS
62
16
100
AcDbLine
10
129.824213896381
20
278.689102722115
30
0.0
11
129.050286226545
21
277.899999999954
31
0.0
0
LINE
5
a4b
100
AcDbEntity
8
0-2
6
CONTINUOUS
62
16
100
AcDbLine
10
129.050286226545
20
282.599999999901
30
0.0
11
129.951134774272
21
279.172065635260
31
0.0
0
ARC
5
a4c
100
AcDbEntity
8
0-2
6
CONTINUOUS
62
16
100
AcDbCircle
10
204.210604089509
20
283.351390548137
30
0.0
40
0.300000000000
100
AcDbArc
50
90.000000000000
51
250.528779365528
0
ARC
5
a4d
100
AcDbEntity
8
0-2
6
CONTINUOUS
62
16
100
AcDbCircle
10
204.210604089509
20
277.751390548137
30
0.0
40
0.300000000000
100
AcDbArc
50
109.471220634472
51
270.000000000000
0
ARC
5
a4e
100
AcDbEntity
8
0-2
6
CONTINUOUS
62
16
100
AcDbCircle
10
204.210604089509
20
279.151390548137
30
0.0
40
0.300000000000
100
AcDbArc
50
109.471220634484
51
250.528779365528
0
ARC
5
a4f
100
AcDbEntity
8
0-2
6
CONTINUOUS
62
16
100
AcDbCircle
10
204.210604089509
20
280.551390548137
30
0.0
40
0.300000000000
100
AcDbArc
50
109.471220634472
51
250.528779365516
0
ARC
5
a50
100
AcDbEntity
8
0-2
6
CONTINUOUS
62
16
100
AcDbCircle
10
204.210604089509
20
281.951390548137
30
0.0
40
0.300000000000
100
AcDbArc
50
109.471220634472
51
250.528779365528
0
ARC
5
a51
100
AcDbEntity
8
0-2
6
CONTINUOUS
62
16
100
AcDbCircle
10
202.710604089509
20
277.751390548137
30
0.0
40
0.300000000000
100
AcDbArc
50
109.471220634472
51
270.000000000000
0
ARC
5
a52
100
AcDbEntity
8
0-2
6
CONTINUOUS
62
16
100
AcDbCircle
10
202.710604089509
20
279.151390548137
30
0.0
40
0.300000000000
100
AcDbArc
50
109.471220634484
51
250.528779365528
0
ARC
5
a53
100
AcDbEntity
8
0-2
6
CONTINUOUS
62
16
100
AcDbCircle
10
202.710604089509
20
280.551390548137
30
0.0
40
0.300000000000
100
AcDbArc
50
109.471220634472
51
250.528779365516
0
ARC
5
a54
100
AcDbEntity
8
0-2
6
CONTINUOUS
62
16
100
AcDbCircle
10
202.710604089509
20
281.951390548137
30
0.0
40
0.300000000000
100
AcDbArc
50
109.471220634472
51
250.528779365528
0
ARC
5
a55
100
AcDbEntity
8
0-2
6
CONTINUOUS
62
16
100
AcDbCircle
10
202.710604089509
20
283.351390548137
30
0.0
40
0.300000000000
100
AcDbArc
50
90.000000000000
51
250.528779365528
0
ELLIPSE
  5
a56
100
AcDbEntity
8
0-2
6
CONTINUOUS
62
16
100
AcDbEllipse
10
212.937334589272
20
276.198612904409
30
0.0
11
1.500000000000
21
0.000000000000
31
0.0
210
0.0
220
0.0
230
1.0
40
0.980769230800
41
0.133586996591
42
0.941527950518
0
ELLIPSE
  5
a57
100
AcDbEntity
8
0-2
6
CONTINUOUS
62
16
100
AcDbEllipse
10
211.009184222604
20
277.770556918792
30
0.0
11
1.500000000000
21
0.000000000000
31
0.0
210
0.0
220
0.0
230
1.0
40
0.980769230800
41
0.823561238053
42
1.307705133686
0
ELLIPSE
  5
a58
100
AcDbEntity
8
0-2
6
CONTINUOUS
62
16
100
AcDbEllipse
10
211.828300379370
20
280.651390548154
30
0.0
11
1.500000000000
21
0.000000000000
31
0.0
210
0.0
220
0.0
230
1.0
40
0.980769230800
41
3.769911184308
42
4.411134712620
0
ELLIPSE
  5
a59
100
AcDbEntity
8
0-2
6
CONTINUOUS
62
16
100
AcDbEllipse
10
214.519766623377
20
275.186370814447
30
0.0
11
0.150000000000
21
0.000000000000
31
0.0
210
0.0
220
0.0
230
1.0
40
0.980769230800
41
4.859791232002
42
6.885602156206
0
ELLIPSE
  5
a5a
100
AcDbEntity
8
0-2
6
CONTINUOUS
62
16
100
AcDbEllipse
10
214.345219474389
20
273.551390548129
30
0.0
11
1.500000000000
21
0.000000000000
31
0.0
210
0.0
220
0.0
230
1.0
40
0.980769230800
41
1.437064737385
42
1.570796326795
0
ELLIPSE
  5
a5b
100
AcDbEntity
8
0-2
6
CONTINUOUS
62
16
100
AcDbEllipse
10
206.703033876896
20
274.451390548128
30
0.0
11
0.600000000000
21
0.000000000000
31
0.0
210
0.0
220
0.0
230
1.0
40
0.980769230800
41
0.413290808844
42
1.570796326795
0
ELLIPSE
  5
a5c
100
AcDbEntity
8
0-2
6
CONTINUOUS
62
16
100
AcDbEllipse
10
207.122552226352
20
282.151390548137
30
0.0
11
1.500000000000
21
0.000000000000
31
0.0
210
0.0
220
0.0
230
1.0
40
0.980769230800
41
0.628318530718
42
1.570796326795
0
ELLIPSE
  5
a5d
100
AcDbEntity
8
0-2
6
CONTINUOUS
62
16
100
AcDbEllipse
10
211.471444379990
20
275.326183565163
30
0.0
11
0.500000000000
21
0.000000000000
31
0.0
210
0.0
220
0.0
230
1.0
40
0.980769230800
41
1.210348670362
42
3.246312408709
0
ELLIPSE
  5
a5e
100
AcDbEntity
8
0-2
6
CONTINUOUS
62
16
100
AcDbEllipse
10
206.337777472406
20
279.094046660839
30
0.0
11
0.500000000000
21
0.000000000000
31
0.0
210
0.0
220
0.0
230
1.0
40
0.980769230800
41
5.497787143782
42
6.544984694979
0
ELLIPSE
  5
a5f
100
AcDbEntity
8
0-2
6
CONTINUOUS
62
16
100
AcDbEllipse
10
206.793296397229
20
275.951390548137
30
0.0
11
1.500000000000
21
0.000000000000
31
0.0
210
0.0
220
0.0
230
1.0
40
0.980769230800
41
0.000000000000
42
1.570796326795
0
ELLIPSE
  5
a60
100
AcDbEntity
8
0-2
6
CONTINUOUS
62
16
100
AcDbEllipse
10
208.972113523774
20
272.251390548138
30
0.0
11
1.000000000000
21
0.000000000000
31
0.0
210
0.0
220
0.0
230
1.0
40
0.980769230800
41
4.712388980385
42
5.759586531581
0
ELLIPSE
  5
a61
100
AcDbEntity
8
0-2
6
CONTINUOUS
62
16
100
AcDbEllipse
10
210.029834858869
20
274.119339740570
30
0.0
11
1.000000000000
21
0.000000000000
31
0.0
210
0.0
220
0.0
230
1.0
40
0.980769230800
41
5.759586531581
42
6.283185307180
0
ELLIPSE
  5
a62
100
AcDbEntity
8
0-2
6
CONTINUOUS
62
16
100
AcDbEllipse
10
208.038086167911
20
272.751390548138
30
0.0
11
1.500000000000
21
0.000000000000
31
0.0
210
0.0
220
0.0
230
1.0
40
0.980769230800
41
3.403392041389
42
4.712388980385
0
ELLIPSE
  5
a63
100
AcDbEntity
8
0-2
6
CONTINUOUS
62
16
100
AcDbEllipse
10
207.970219474189
20
273.746134659797
30
0.0
11
0.300000000000
21
0.000000000000
31
0.0
210
0.0
220
0.0
230
1.0
40
0.980769230800
41
3.665191429188
42
6.283185307180
0
LINE
5
a64
100
AcDbEntity
8
0-2
6
CONTINUOUS
62
16
100
AcDbLine
10
209.821484592897
20
271.751390548138
30
0.0
11
210.879205927992
21
273.619339740570
31
0.0
0
LINE
5
a65
100
AcDbEntity
8
0-2
6
CONTINUOUS
62
16
100
AcDbLine
10
208.038086167911
20
271.251390548138
30
0.0
11
208.972113523774
21
271.251390548138
31
0.0
0
LINE
5
a66
100
AcDbEntity
8
0-2
6
CONTINUOUS
62
16
100
AcDbLine
10
211.010604089669
20
274.751390548128
30
0.0
11
211.010604089669
21
274.119339740570
31
0.0
0
LINE
5
a67
100
AcDbEntity
8
0-2
6
CONTINUOUS
62
16
100
AcDbLine
10
210.983746142823
20
275.273919333529
30
0.0
11
211.010604089669
21
274.751390548128
31
0.0
0
LINE
5
a68
100
AcDbEntity
8
0-2
6
CONTINUOUS
62
16
100
AcDbLine
10
208.264450243429
20
273.746134659797
30
0.0
11
208.264450243429
21
275.951390548137
31
0.0
0
LINE
5
a69
100
AcDbEntity
8
0-2
6
CONTINUOUS
62
16
100
AcDbLine
10
207.700761725987
20
273.625647089314
30
0.0
11
207.241949373673
21
274.692365688228
31
0.0
0
LINE
5
a6a
100
AcDbEntity
8
0-2
6
CONTINUOUS
62
16
100
AcDbLine
10
205.910604089507
20
275.051390548138
30
0.0
11
206.617060673422
21
272.363161980484
31
0.0
0
LINE
5
a6b
100
AcDbEntity
8
0-2
6
CONTINUOUS
62
16
100
AcDbLine
10
206.703033876896
20
275.051390548128
30
0.0
11
205.910604089509
21
275.051390548128
31
0.0
0
LINE
5
a6c
100
AcDbEntity
8
0-2
6
CONTINUOUS
62
16
100
AcDbLine
10
206.684531759345
20
278.740493270246
30
0.0
11
205.910604089509
21
277.951390548084
31
0.0
0
LINE
5
a6d
100
AcDbEntity
8
0-2
6
CONTINUOUS
62
16
100
AcDbLine
10
205.910604089509
20
282.651390548031
30
0.0
11
206.811452637236
21
279.223456183390
31
0.0
0
LINE
5
a6e
100
AcDbEntity
8
0-2
6
CONTINUOUS
62
16
100
AcDbLine
10
205.910604089509
20
277.451390548137
30
0.0
11
205.910604089509
21
283.651390548137
31
0.0
0
LINE
5
a6f
100
AcDbEntity
8
0-2
6
CONTINUOUS
62
16
100
AcDbLine
10
204.210604089509
20
277.451390548137
30
0.0
11
206.793296397229
21
277.451390548137
31
0.0
0
LINE
5
a70
100
AcDbEntity
8
0-2
6
CONTINUOUS
62
16
100
AcDbLine
10
204.110604089509
20
278.859969191913
30
0.0
11
204.110604089509
21
278.034233260612
31
0.0
0
LINE
5
a71
100
AcDbEntity
8
0-2
6
CONTINUOUS
62
16
100
AcDbLine
10
204.110604089509
20
280.268547835663
30
0.0
11
204.110604089509
21
279.434233260612
31
0.0
0
LINE
5
a72
100
AcDbEntity
8
0-2
6
CONTINUOUS
62
16
100
AcDbLine
10
204.110604089509
20
281.668547835663
30
0.0
11
204.110604089509
21
280.834233260612
31
0.0
0
LINE
5
a73
100
AcDbEntity
8
0-2
6
CONTINUOUS
62
16
100
AcDbLine
10
204.110604089509
20
283.068547835663
30
0.0
11
204.110604089509
21
282.234233260612
31
0.0
0
LINE
5
a74
100
AcDbEntity
8
0-2
6
CONTINUOUS
62
16
100
AcDbLine
10
203.910604089509
20
277.451390548137
30
0.0
11
203.910604089509
21
283.651390548137
31
0.0
0
LINE
5
a75
100
AcDbEntity
8
0-2
6
CONTINUOUS
62
16
100
AcDbLine
10
202.710604089509
20
277.451390548137
30
0.0
11
203.910604089509
21
277.451390548137
31
0.0
0
LINE
5
a76
100
AcDbEntity
8
0-2
6
CONTINUOUS
62
16
100
AcDbLine
10
202.610604089509
20
278.859969191913
30
0.0
11
202.610604089509
21
278.034233260612
31
0.0
0
LINE
5
a77
100
AcDbEntity
8
0-2
6
CONTINUOUS
62
16
100
AcDbLine
10
202.610604089509
20
280.268547835663
30
0.0
11
202.610604089509
21
279.434233260612
31
0.0
0
LINE
5
a78
100
AcDbEntity
8
0-2
6
CONTINUOUS
62
16
100
AcDbLine
10
202.610604089509
20
281.668547835663
30
0.0
11
202.610604089509
21
280.834233260612
31
0.0
0
LINE
5
a79
100
AcDbEntity
8
0-2
6
CONTINUOUS
62
16
100
AcDbLine
10
202.610604089509
20
283.068547835663
30
0.0
11
202.610604089509
21
282.234233260612
31
0.0
0
LINE
5
a7a
100
AcDbEntity
8
0-2
6
CONTINUOUS
62
16
100
AcDbLine
10
203.910604089509
20
283.651390548137
30
0.0
11
202.710604089509
21
283.651390548137
31
0.0
0
LINE
5
a7b
100
AcDbEntity
8
0-2
6
CONTINUOUS
62
16
100
AcDbLine
10
207.122552226352
20
283.651390548137
30
0.0
11
204.210604089509
21
283.651390548137
31
0.0
0
LINE
5
a7c
100
AcDbEntity
8
0-2
6
CONTINUOUS
62
16
100
AcDbLine
10
210.638111916454
20
279.769712669715
30
0.0
11
208.312740689268
21
283.033068426576
31
0.0
0
LINE
5
a7d
100
AcDbEntity
8
0-2
6
CONTINUOUS
62
16
100
AcDbLine
10
213.155537653540
20
277.892030705329
30
0.0
11
212.008999652037
21
278.870913029350
31
0.0
0
LINE
5
a7e
100
AcDbEntity
8
0-2
6
CONTINUOUS
62
16
100
AcDbLine
10
213.803187228899
20
277.411300390855
30
0.0
11
213.155537653540
21
277.892030705329
31
0.0
0
LINE
5
a7f
100
AcDbEntity
8
0-2
6
CONTINUOUS
62
16
100
AcDbLine
10
214.423266646227
20
276.186828918322
30
0.0
11
214.395381217501
21
276.398397949641
31
0.0
0
LINE
5
a80
100
AcDbEntity
8
0-2
6
CONTINUOUS
62
16
100
AcDbLine
10
214.614510461320
20
275.323305561732
30
0.0
11
214.423266646227
21
276.186828918322
31
0.0
0
LINE
5
a81
100
AcDbEntity
8
0-2
6
CONTINUOUS
62
16
100
AcDbLine
10
214.640985073550
20
275.271366144539
30
0.0
11
214.614510461320
21
275.323305561732
31
0.0
0
LINE
5
a82
100
AcDbEntity
8
0-2
6
CONTINUOUS
62
16
100
AcDbLine
10
212.383409777501
20
275.494908154393
30
0.0
11
211.644399678725
21
275.794053081204
31
0.0
0
LINE
5
a83
100
AcDbEntity
8
0-2
6
CONTINUOUS
62
16
100
AcDbLine
10
213.104615909837
20
275.224970490574
30
0.0
11
212.383409777501
21
275.494908154393
31
0.0
0
LINE
5
a84
100
AcDbEntity
8
0-2
6
CONTINUOUS
62
16
100
AcDbLine
10
213.780176084431
20
275.051390548129
30
0.0
11
213.104615909837
21
275.224970490574
31
0.0
0
LINE
5
a85
100
AcDbEntity
8
0-2
6
CONTINUOUS
62
16
100
AcDbLine
10
214.345219474389
20
275.051390548129
30
0.0
11
213.780176084431
21
275.051390548129
31
0.0
0
LINE
5
a86
100
AcDbEntity
8
0-8
6
CONTINUOUS
62
7
100
AcDbLine
10
17.792307692400
20
171.563092993773
30
0.0
11
17.792307692400
21
171.100000000000
31
0.0
0
LINE
5
a87
100
AcDbEntity
8
0-8
6
CONTINUOUS
62
7
100
AcDbLine
10
13.899999999880
20
172.800000000000
30
0.0
11
10.649999999880
21
172.800000000000
31
0.0
0
LINE
5
a88
100
AcDbEntity
8
0-8
6
CONTINUOUS
62
7
100
AcDbLine
10
14.457597682402
20
171.546546507958
30
0.0
11
13.899999999880
21
171.800000000000
31
0.0
0
POLYLINE
5
a89
100
AcDbEntity
8
0-8
6
CONTINUOUS
62
  7
100
AcDb2dPolyline
66
1
10
0.0
20
0.0
30
0.0
70
0
0
VERTEX
5
a8a
100
AcDbEntity
8
0-8
6
CONTINUOUS
62
  7
100
AcDbVertex
100
AcDb2dVertex
10
17.001220808572
20
172.560973099738
30
0.0
0
VERTEX
5
a8b
100
AcDbEntity
8
0-8
6
CONTINUOUS
62
  7
100
AcDbVertex
100
AcDb2dVertex
10
13.899999999880
20
172.800000000000
30
0.0
0
VERTEX
5
a8c
100
AcDbEntity
8
0-8
6
CONTINUOUS
62
  7
100
AcDbVertex
100
AcDb2dVertex
10
13.899999999880
20
165.800000000000
30
0.0
0
SEQEND
5
a8d
100
AcDbEntity
8
0-8
0
LINE
5
a8e
100
AcDbEntity
8
0-8
6
CONTINUOUS
62
7
100
AcDbLine
10
13.899999999880
20
172.800000000000
30
0.0
11
13.984615384500
21
171.758578643763
31
0.0
0
LINE
5
a8f
100
AcDbEntity
8
0-1
6
PHANTOM
62
4
100
AcDbLine
10
69.022264732559
20
273.499999999999
30
0.0
11
69.022264732559
21
274.699999999999
31
0.0
0
TEXT
5
a90
100
AcDbEntity
8
0-0
62
7
370
-3
100
AcDbText
10
169.130
20
284.260
30
0.0
40
3.618
1
RR2B
41
0.367
50
0.000
100
AcDbText
0
TEXT
5
a91
100
AcDbEntity
8
0-0
62
7
370
-3
100
AcDbText
10
206.083
20
284.311
30
0.0
40
3.618
1
RROP
41
0.379
50
0.000
100
AcDbText
0
TEXT
5
a92
100
AcDbEntity
8
0-0
62
7
370
-3
100
AcDbText
10
0.172
20
298.160
30
0.0
40
3.618
1
RR2SET
41
0.373
50
0.000
100
AcDbText
0
LINE
5
a93
100
AcDbEntity
8
F-F_J_ADD
6
HIDDEN
62
253
100
AcDbLine
10
0.000000000000
20
0.000000000000
30
0.0
11
0.000000000000
21
350.000000000000
31
0.0
0
TEXT
5
a94
100
AcDbEntity
8
0-0
62
7
370
-3
100
AcDbText
10
0.172
20
198.160
30
0.0
40
3.618
1
RP2C
41
0.369
50
0.000
100
AcDbText
0
TEXT
5
a95
100
AcDbEntity
8
0-0
62
7
370
-3
100
AcDbText
10
250.172
20
298.160
30
0.0
40
3.618
1
RM25
41
0.368
50
0.000
100
AcDbText
0
TEXT
5
a96
100
AcDbEntity
8
0-0
62
7
370
-3
100
AcDbText
10
250.172
20
198.160
30
0.0
40
3.618
1
RP2M
41
0.369
50
0.000
100
AcDbText
0
LINE
5
a97
100
AcDbEntity
8
F-F_J_ADD
6
HIDDEN
62
253
100
AcDbLine
10
430.000000000000
20
363.850457379049
30
0.0
11
430.000000000000
21
0.000000000000
31
0.0
0
LINE
5
a98
100
AcDbEntity
8
0-1
6
PHANTOM
62
4
100
AcDbLine
10
465.200000000000
20
156.200000000000
30
0.0
11
474.800000000000
21
156.200000000000
31
0.0
0
LINE
5
a99
100
AcDbEntity
8
0-1
6
PHANTOM
62
4
100
AcDbLine
10
470.000000000000
20
175.000000000000
30
0.0
11
470.000000000000
21
156.200000000000
31
0.0
0
LINE
5
a9a
100
AcDbEntity
8
0-1
6
PHANTOM
62
4
100
AcDbLine
10
482.500000000000
20
175.000000000000
30
0.0
11
457.500000000000
21
175.000000000000
31
0.0
0
MTEXT
5
a9b
100
AcDbEntity
8
0-1
62
7
370
-3
100
AcDbMText
10
452.411
20
184.965
30
0.0
40
3.974
41
0.000
71
7
72
1
1
\W0.972;{\W0.700;t5}用
7
STANDARD
11
1.00000
21
0.00000
31
0.0
0
LINE
5
a9c
100
AcDbEntity
8
0-1
6
PHANTOM
62
4
100
AcDbLine
10
463.700000000000
20
157.700000000000
30
0.0
11
463.700000000000
21
167.300000000000
31
0.0
0
LINE
5
a9d
100
AcDbEntity
8
0-1
6
PHANTOM
62
4
100
AcDbLine
10
462.500000000000
20
168.500000000000
30
0.0
11
463.700000000000
21
167.300000000000
31
0.0
0
LINE
5
a9e
100
AcDbEntity
8
0-1
6
PHANTOM
62
4
100
AcDbLine
10
462.500000000000
20
168.500000000000
30
0.0
11
459.300000000000
21
168.500000000000
31
0.0
0
LINE
5
a9f
100
AcDbEntity
8
0-1
6
PHANTOM
62
4
100
AcDbLine
10
459.300000000000
20
166.100000000000
30
0.0
11
459.300000000000
21
168.500000000000
31
0.0
0
LINE
5
aa0
100
AcDbEntity
8
0-1
6
PHANTOM
62
4
100
AcDbLine
10
459.300000000000
20
166.100000000000
30
0.0
11
457.500000000000
21
166.100000000000
31
0.0
0
LINE
5
aa1
100
AcDbEntity
8
0-1
6
PHANTOM
62
4
100
AcDbLine
10
457.500000000000
20
175.000000000000
30
0.0
11
457.500000000000
21
166.100000000000
31
0.0
0
LINE
5
aa2
100
AcDbEntity
8
0-1
6
PHANTOM
62
4
100
AcDbLine
10
466.400000000000
20
173.200000000000
30
0.0
11
466.400000000000
21
175.000000000000
31
0.0
0
LINE
5
aa3
100
AcDbEntity
8
0-1
6
PHANTOM
62
4
100
AcDbLine
10
464.000000000000
20
173.200000000000
30
0.0
11
466.400000000000
21
173.200000000000
31
0.0
0
LINE
5
aa4
100
AcDbEntity
8
0-1
6
PHANTOM
62
4
100
AcDbLine
10
464.000000000000
20
170.000000000000
30
0.0
11
464.000000000000
21
173.200000000000
31
0.0
0
LINE
5
aa5
100
AcDbEntity
8
0-1
6
PHANTOM
62
4
100
AcDbLine
10
465.200000000000
20
168.800000000000
30
0.0
11
464.000000000000
21
170.000000000000
31
0.0
0
LINE
5
aa6
100
AcDbEntity
8
0-1
6
PHANTOM
62
4
100
AcDbLine
10
474.800000000000
20
168.800000000000
30
0.0
11
465.200000000000
21
168.800000000000
31
0.0
0
LINE
5
aa7
100
AcDbEntity
8
0-1
6
PHANTOM
62
4
100
AcDbLine
10
476.000000000000
20
170.000000000000
30
0.0
11
474.800000000000
21
168.800000000000
31
0.0
0
LINE
5
aa8
100
AcDbEntity
8
0-1
6
PHANTOM
62
4
100
AcDbLine
10
476.000000000000
20
173.200000000000
30
0.0
11
476.000000000000
21
170.000000000000
31
0.0
0
LINE
5
aa9
100
AcDbEntity
8
0-1
6
PHANTOM
62
4
100
AcDbLine
10
473.600000000000
20
173.200000000000
30
0.0
11
476.000000000000
21
173.200000000000
31
0.0
0
LINE
5
aaa
100
AcDbEntity
8
0-1
6
PHANTOM
62
4
100
AcDbLine
10
473.600000000000
20
173.200000000000
30
0.0
11
473.600000000000
21
175.000000000000
31
0.0
0
LINE
5
aab
100
AcDbEntity
8
0-1
6
PHANTOM
62
4
100
AcDbLine
10
482.500000000000
20
166.100000000000
30
0.0
11
482.500000000000
21
175.000000000000
31
0.0
0
LINE
5
aac
100
AcDbEntity
8
0-1
6
PHANTOM
62
4
100
AcDbLine
10
482.500000000000
20
166.100000000000
30
0.0
11
480.700000000000
21
166.100000000000
31
0.0
0
LINE
5
aad
100
AcDbEntity
8
0-1
6
PHANTOM
62
4
100
AcDbLine
10
480.700000000000
20
168.500000000000
30
0.0
11
480.700000000000
21
166.100000000000
31
0.0
0
LINE
5
aae
100
AcDbEntity
8
0-1
6
PHANTOM
62
4
100
AcDbLine
10
477.500000000000
20
168.500000000000
30
0.0
11
480.700000000000
21
168.500000000000
31
0.0
0
LINE
5
aaf
100
AcDbEntity
8
0-1
6
PHANTOM
62
4
100
AcDbLine
10
476.300000000000
20
167.300000000000
30
0.0
11
477.500000000000
21
168.500000000000
31
0.0
0
LINE
5
ab0
100
AcDbEntity
8
0-1
6
PHANTOM
62
4
100
AcDbLine
10
476.300000000000
20
157.700000000000
30
0.0
11
476.300000000000
21
167.300000000000
31
0.0
0
LINE
5
ab1
100
AcDbEntity
8
0-1
6
PHANTOM
62
4
100
AcDbLine
10
476.300000000000
20
157.700000000000
30
0.0
11
477.500000000000
21
156.500000000000
31
0.0
0
LINE
5
ab2
100
AcDbEntity
8
0-1
6
PHANTOM
62
4
100
AcDbLine
10
480.700000000000
20
156.500000000000
30
0.0
11
477.500000000000
21
156.500000000000
31
0.0
0
LINE
5
ab3
100
AcDbEntity
8
0-1
6
PHANTOM
62
4
100
AcDbLine
10
480.700000000000
20
158.900000000000
30
0.0
11
480.700000000000
21
156.500000000000
31
0.0
0
LINE
5
ab4
100
AcDbEntity
8
0-1
6
PHANTOM
62
4
100
AcDbLine
10
480.700000000000
20
158.900000000000
30
0.0
11
482.500000000000
21
158.900000000000
31
0.0
0
LINE
5
ab5
100
AcDbEntity
8
0-1
6
PHANTOM
62
4
100
AcDbLine
10
482.500000000000
20
150.000000000000
30
0.0
11
482.500000000000
21
158.900000000000
31
0.0
0
LINE
5
ab6
100
AcDbEntity
8
0-1
6
PHANTOM
62
4
100
AcDbLine
10
473.600000000000
20
150.000000000000
30
0.0
11
482.500000000000
21
150.000000000000
31
0.0
0
LINE
5
ab7
100
AcDbEntity
8
0-1
6
PHANTOM
62
4
100
AcDbLine
10
473.600000000000
20
151.800000000000
30
0.0
11
473.600000000000
21
150.000000000000
31
0.0
0
LINE
5
ab8
100
AcDbEntity
8
0-1
6
PHANTOM
62
4
100
AcDbLine
10
473.600000000000
20
151.800000000000
30
0.0
11
476.000000000000
21
151.800000000000
31
0.0
0
LINE
5
ab9
100
AcDbEntity
8
0-1
6
PHANTOM
62
4
100
AcDbLine
10
476.000000000000
20
154.999999999999
30
0.0
11
476.000000000000
21
151.800000000000
31
0.0
0
LINE
5
aba
100
AcDbEntity
8
0-1
6
PHANTOM
62
4
100
AcDbLine
10
474.800000000000
20
156.200000000000
30
0.0
11
476.000000000000
21
154.999999999999
31
0.0
0
LINE
5
abb
100
AcDbEntity
8
0-1
6
PHANTOM
62
4
100
AcDbLine
10
465.200000000000
20
156.200000000000
30
0.0
11
464.000000000000
21
155.000000000000
31
0.0
0
LINE
5
abc
100
AcDbEntity
8
0-1
6
PHANTOM
62
4
100
AcDbLine
10
464.000000000000
20
151.800000000000
30
0.0
11
464.000000000000
21
155.000000000000
31
0.0
0
LINE
5
abd
100
AcDbEntity
8
0-1
6
PHANTOM
62
4
100
AcDbLine
10
462.500000000000
20
156.500000000000
30
0.0
11
463.700000000000
21
157.700000000000
31
0.0
0
LINE
5
abe
100
AcDbEntity
8
0-1
6
PHANTOM
62
4
100
AcDbLine
10
459.300000000000
20
158.900000000000
30
0.0
11
459.300000000000
21
156.500000000000
31
0.0
0
LINE
5
abf
100
AcDbEntity
8
0-1
6
PHANTOM
62
4
100
AcDbLine
10
457.500000000000
20
158.900000000000
30
0.0
11
459.300000000000
21
158.900000000000
31
0.0
0
LINE
5
ac0
100
AcDbEntity
8
0-1
6
PHANTOM
62
4
100
AcDbLine
10
457.500000000000
20
150.000000000000
30
0.0
11
457.500000000000
21
158.900000000000
31
0.0
0
LINE
5
ac1
100
AcDbEntity
8
0-1
6
PHANTOM
62
4
100
AcDbLine
10
466.400000000000
20
150.000000000000
30
0.0
11
457.500000000000
21
150.000000000000
31
0.0
0
LINE
5
ac2
100
AcDbEntity
8
0-1
6
PHANTOM
62
4
100
AcDbLine
10
466.400000000000
20
151.800000000000
30
0.0
11
464.000000000000
21
151.800000000000
31
0.0
0
LINE
5
ac3
100
AcDbEntity
8
0-1
6
PHANTOM
62
4
100
AcDbLine
10
466.400000000000
20
151.800000000000
30
0.0
11
466.400000000000
21
150.000000000000
31
0.0
0
LINE
5
ac4
100
AcDbEntity
8
0-1
6
PHANTOM
62
4
100
AcDbLine
10
459.300000000000
20
156.500000000000
30
0.0
11
462.500000000000
21
156.500000000000
31
0.0
0
ARC
5
ac5
100
AcDbEntity
8
0-0
6
CONTINUOUS
62
7
100
AcDbCircle
10
468.393999384633
20
174.855143384601
30
0.0
40
6.000000000000
100
AcDbArc
50
300.066188339966
51
341.989543095010
0
ARC
5
ac6
100
AcDbEntity
8
0-0
6
CONTINUOUS
62
7
100
AcDbCircle
10
471.300000000000
20
174.476643278614
30
0.0
40
1.000000000000
100
AcDbArc
50
0.000000000000
51
71.906980123844
0
ARC
5
ac7
100
AcDbEntity
8
0-0
6
CONTINUOUS
62
7
100
AcDbCircle
10
471.300000000000
20
172.414213562373
30
0.0
40
1.000000000000
100
AcDbArc
50
315.000000000000
51
360.000000000000
0
ARC
5
ac8
100
AcDbEntity
8
0-0
6
CONTINUOUS
62
7
100
AcDbCircle
10
474.600000000000
20
175.264446908108
30
0.0
40
1.000000000000
100
AcDbArc
50
0.000000000000
51
86.185925165709
0
LINE
5
ac9
100
AcDbEntity
8
0-0
6
CONTINUOUS
62
7
100
AcDbLine
10
474.100000000000
20
173.000000000000
30
0.0
11
473.600000000000
21
173.000000000000
31
0.0
0
LINE
5
aca
100
AcDbEntity
8
0-0
6
CONTINUOUS
62
7
100
AcDbLine
10
475.600000000000
20
175.000000000000
30
0.0
11
475.600000000000
21
175.264446908108
31
0.0
0
LINE
5
acb
100
AcDbEntity
8
0-0
6
CONTINUOUS
62
7
100
AcDbLine
10
473.600000000000
20
175.000000000000
30
0.0
11
475.600000000000
21
175.000000000000
31
0.0
0
LINE
5
acc
100
AcDbEntity
8
0-0
6
CONTINUOUS
62
7
100
AcDbLine
10
473.600000000000
20
173.000000000000
30
0.0
11
473.600000000000
21
175.000000000000
31
0.0
0
LINE
5
acd
100
AcDbEntity
8
0-0
6
CONTINUOUS
62
7
100
AcDbLine
10
471.400000000000
20
171.100000000000
30
0.0
11
471.400000000000
21
169.662460041626
31
0.0
0
LINE
5
ace
100
AcDbEntity
8
0-0
6
CONTINUOUS
62
7
100
AcDbLine
10
472.007106781187
20
171.707106781187
30
0.0
11
471.400000000000
21
171.100000000000
31
0.0
0
LINE
5
acf
100
AcDbEntity
8
0-0
6
CONTINUOUS
62
7
100
AcDbLine
10
472.300000000000
20
173.000000000000
30
0.0
11
472.300000000000
21
172.414213562373
31
0.0
0
LINE
5
ad0
100
AcDbEntity
8
0-0
6
CONTINUOUS
62
7
100
AcDbLine
10
471.400000000000
20
173.375000000000
30
0.0
11
472.300000000000
21
173.000000000000
31
0.0
0
LINE
5
ad1
100
AcDbEntity
8
0-0
6
CONTINUOUS
62
7
100
AcDbLine
10
471.400000000000
20
173.925000000000
30
0.0
11
471.400000000000
21
173.375000000000
31
0.0
0
LINE
5
ad2
100
AcDbEntity
8
0-0
6
CONTINUOUS
62
7
100
AcDbLine
10
472.300000000000
20
173.700000000000
30
0.0
11
471.400000000000
21
173.925000000000
31
0.0
0
LINE
5
ad3
100
AcDbEntity
8
0-0
6
CONTINUOUS
62
7
100
AcDbLine
10
472.300000000000
20
174.476643278614
30
0.0
11
472.300000000000
21
173.700000000000
31
0.0
0
LINE
5
ad4
100
AcDbEntity
8
0-0
6
CONTINUOUS
62
7
100
AcDbLine
10
471.400000000000
20
176.480000000000
30
0.0
11
471.610560629660
21
175.427196851699
31
0.0
0
LINE
5
ad5
100
AcDbEntity
8
0-0
6
CONTINUOUS
62
7
100
AcDbLine
10
474.666519010524
20
176.262232065965
30
0.0
11
471.400000000000
21
176.480000000000
31
0.0
0
LINE
5
ad6
100
AcDbEntity
8
0-0
6
CONTINUOUS
62
7
100
AcDbLine
10
466.400000000000
20
169.000000000000
30
0.0
11
466.400000000000
21
189.429690966324
31
0.0
0
LINE
5
ad7
100
AcDbEntity
8
0-0
6
CONTINUOUS
62
7
100
AcDbLine
10
471.400000000000
20
169.000000000000
30
0.0
11
466.400000000000
21
169.000000000000
31
0.0
0
LINE
5
ad8
100
AcDbEntity
8
0-0
6
CONTINUOUS
62
7
100
AcDbLine
10
471.400000000000
20
189.429690966324
30
0.0
11
471.400000000000
21
169.000000000000
31
0.0
0
TEXT
5
ad9
100
AcDbEntity
8
0-0
62
7
370
-3
100
AcDbText
10
430.172
20
198.160
30
0.0
40
3.618
1
RP2S
41
0.370
50
0.000
100
AcDbText
0
TEXT
5
ada
100
AcDbEntity
8
0-0
62
7
370
-3
100
AcDbText
10
0.172
20
66.660
30
0.0
40
3.618
1
PS2TA
41
0.376
50
0.000
100
AcDbText
0
LINE
5
adb
100
AcDbEntity
8
F-F_J_ADD
6
HIDDEN
62
253
100
AcDbLine
10
516.066369130547
20
0.000000000000
30
0.0
11
0.000000000000
21
0.000000000000
31
0.0
0
LINE
5
adc
100
AcDbEntity
8
F-F_J_ADD
6
HIDDEN
62
253
100
AcDbLine
10
516.066369130547
20
150.000000000000
30
0.0
11
0.000000000000
21
150.000000000000
31
0.0
0
LINE
5
add
100
AcDbEntity
8
0-8
6
DASHED
62
4
100
AcDbLine
10
-21.318478113565
20
162.500000000000
30
0.0
11
516.066369130547
21
162.500000000000
31
0.0
0
LINE
5
ade
100
AcDbEntity
8
F-F_J_ADD
6
HIDDEN
62
253
100
AcDbLine
10
-21.318478113565
20
50.000000000000
30
0.0
11
516.066369130547
21
50.000000000000
31
0.0
0
LINE
5
adf
100
AcDbEntity
8
F-F_J_ADD
6
HIDDEN
62
253
100
AcDbLine
10
-21.318478113565
20
197.500000000000
30
0.0
11
516.066369130547
21
197.500000000000
31
0.0
0
LINE
5
ae0
100
AcDbEntity
8
F-F_J_ADD
6
HIDDEN
62
253
100
AcDbLine
10
-21.318478113565
20
85.000000000000
30
0.0
11
516.066369130547
21
85.000000000000
31
0.0
0
LINE
5
ae1
100
AcDbEntity
8
F-F_J_ADD
6
HIDDEN
62
253
100
AcDbLine
10
516.066369130547
20
250.000000000000
30
0.0
11
0.000000000000
21
250.000000000000
31
0.0
0
LINE
5
ae2
100
AcDbEntity
8
F-F_J_ADD
6
HIDDEN
62
253
100
AcDbLine
10
516.066369130547
20
350.000000000000
30
0.0
11
0.000000000000
21
350.000000000000
31
0.0
0
LINE
5
ae3
100
AcDbEntity
8
0-F
6
PHANTOM
62
4
100
AcDbLine
10
-21.318478113565
20
262.500000000000
30
0.0
11
516.066369130547
21
262.500000000000
31
0.0
0
LINE
5
ae4
100
AcDbEntity
8
F-F_J_ADD
6
HIDDEN
62
253
100
AcDbLine
10
516.066369130547
20
297.500000000000
30
0.0
11
0.000000000000
21
297.500000000000
31
0.0
0
ENDSEC
 0
SECTION
  2
OBJECTS
 0
DICTIONARY
  5
C
100
AcDbDictionary
  3
ACAD_GROUP
350
D
  3
ACAD_MLINESTYLE
350
E
 0
DICTIONARY
  5
D
102
{ACAD_REACTORS
102
}
100
AcDbDictionary
 0
DICTIONARY
  5
E
102
{ACAD_REACTORS
102
}
100
AcDbDictionary
  3
STANDARD
350
13
0
MLINESTYLE
  5
13
102
{ACAD_REACTORS
102
}
100
AcDbMlineStyle
  2
STANDARD
 70
    0
3

62
256
51
90.0
52
90.0
71
0
0
ACDBPLACEHOLDER
  5
14
102
{ACAD_REACTORS
102
}
0
ENDSEC
0
EOF
