0
SECTION
2
HEADER
9
$ACADVER
1
AC1015
9
$ACADMAINTVER
 70
6
9
$DWGCODEPAGE
3
ANSI_932
9
$EXTMIN
10
0.000
20
0.000
30
0.0
9
$EXTMAX
10
1189.000
20
841.000
30
0.0
9
$LIMMIN
10
0.000
20
0.000
9
$LIMMAX
10
1189.000
20
841.000
9
$DIMSCALE
40
1.000000
9
$LTSCALE
40
2.000
9
$PDMODE
70
0
9
$PDSIZE
40
40.0
9
$HANDSEED
5
620c5
9
$UNITMODE
70
0
9
$VISRETAIN
70
0
9
$PLINEGEN
70
0
9
$PSLTSCALE
70
1
9
$TREEDEPTH
70
3020
9
$CMLSTYLE
2
STANDARD
9
$CMLJUST
70
0
9
$CMLSCALE
40
1.0
9
$PROXYGRAPHICS
70
1
9
$MEASUREMENT
70
0
9
$CELWEIGHT
370
-1
9
$ENDCAPS
280
0
9
$JOINSTYLE
280
0
9
$LWDISPLAY
290
0
9
$INSUNITS
70
0
9
$HYPERLINKBASE
1

9
$STYLESHEET
1

9
$XEDIT
290
1
9
$CEPSNTYPE
380
0
9
$PSTYLEMODE
290
1
9
$FINGERPRINTGUID
2
{5F082321-0195-11D3-BDFB-0060B0CD5109}
9
$VERSIONGUID
2
{12943756-294D-11D3-98C2-0060B087942D}
9
$EXTNAMES
290
1
9
$PSVPSCALE
40
0.0
9
$OLESTARTUP
290
0
0
ENDSEC
0
SECTION
  2
CLASSES
0
ENDSEC
0
SECTION
2
TABLES
0
TABLE
2
VPORT
5
190
100
AcDbSymbolTable
70
2
0
VPORT
5
191
100
AcDbSymbolTableRecord
100
AcDbViewportTableRecord
2
*ACTIVE
70
0
10
0.0
20
0.0
11
1.0
21
1.0
12
594.500
22
420.500
13
0.0
23
0.0
14
1.0
24
1.0
15
0.0
25
0.0
16
0.0
26
0.0
36
1.0
17
0.0
27
0.0
37
0.0
40
861.594
41
2.0
42
50.0
43
0.0
44
0.0
50
0.0
51
0.0
71
0
72
1000
73
1
74
1
75
0
76
0
77
0
78
0
0
ENDTAB
0
TABLE
2
LTYPE
5
1f4
100
AcDbSymbolTable
70
9
0
LTYPE
5
1f5
100
AcDbSymbolTableRecord
100
AcDbLinetypeTableRecord
2
BYBLOCK
70
 64
3

72
 65
73
  0
40
0.0
0
LTYPE
5
1f6
100
AcDbSymbolTableRecord
100
AcDbLinetypeTableRecord
2
BYLAYER
70
 64
3

72
 65
73
  0
40
0.0
0
LTYPE
5
1f7
100
AcDbSymbolTableRecord
100
AcDbLinetypeTableRecord
2
CONTINUOUS
70
64
3
SolidLine
72
65
73
0
40
0.0
0
LTYPE
5
1f8
100
AcDbSymbolTableRecord
100
AcDbLinetypeTableRecord
2
DOT
70
64
3
--  --  --  --  --  --  --  --     
72
65
73
2
40
3.000
49
1.000
74
0
49
-2.000
74
0
0
LTYPE
5
1f9
100
AcDbSymbolTableRecord
100
AcDbLinetypeTableRecord
2
DASHED
70
64
3
----    ----    ----    ----    
72
65
73
2
40
5.000
49
2.000
74
0
49
-3.000
74
0
0
LTYPE
5
1fa
100
AcDbSymbolTableRecord
100
AcDbLinetypeTableRecord
2
DASHED2
70
64
3
------  ------  ------  ------ 
72
65
73
2
40
10.000
49
4.000
74
0
49
-6.000
74
0
0
LTYPE
5
1fb
100
AcDbSymbolTableRecord
100
AcDbLinetypeTableRecord
2
CENTER
70
64
3
----- - ----- - ----- - ----- - 
72
65
73
4
40
10.000
49
6.000
74
0
49
-3.000
74
0
49
1.000
74
0
49
-3.000
74
0
0
LTYPE
5
1fc
100
AcDbSymbolTableRecord
100
AcDbLinetypeTableRecord
2
CENTER2
70
64
3
----------  --  ----------  -- 
72
65
73
4
40
17.000
49
12.000
74
0
49
-5.000
74
0
49
2.000
74
0
49
-5.000
74
0
0
LTYPE
5
1fd
100
AcDbSymbolTableRecord
100
AcDbLinetypeTableRecord
2
PHANTOM
70
64
3
--- - - --- - - --- - - --- - -
72
65
73
6
40
13.000
49
5.000
74
0
49
-3.000
74
0
49
1.000
74
0
49
-3.000
74
0
49
1.000
74
0
49
-3.000
74
0
0
LTYPE
5
1fe
100
AcDbSymbolTableRecord
100
AcDbLinetypeTableRecord
2
PHANTOM2
70
64
3
--------  -  -  --------  -  -
72
65
73
6
40
20.000
49
6.000
74
0
49
-5.000
74
0
49
2.000
74
0
49
-5.000
74
0
49
2.000
74
0
49
-5.000
74
0
0
LTYPE
5
1ff
100
AcDbSymbolTableRecord
100
AcDbLinetypeTableRecord
2
HIDDEN
70
64
3
-   -   -   -   -   -   -   -   
72
65
73
2
40
3.000
49
0.500
74
0
49
-2.500
74
0
0
ENDTAB
0
TABLE
2
STYLE
5
200
100
AcDbSymbolTable
70
1
0
STYLE
5
201
100
AcDbSymbolTableRecord
100
AcDbTextStyleTableRecord
2
STANDARD
70
0
40
0.0
41
1.0
50
0.0
71
0
42
0.0
3
txt.shx
4
extfont.shx
0
STYLE
5
202
100
AcDbSymbolTableRecord
100
AcDbTextStyleTableRecord
2
TATEGAKI
70
4
40
0.0
41
1.0
50
0.0
71
0
42
0.0
3
txt.shx
4
extfont.shx
0
STYLE
5
203
100
AcDbSymbolTableRecord
100
AcDbTextStyleTableRecord
2
DIM
70
0
40
0.0
41
0.75
50
0.0
71
0
42
0.0
3
txt.shx
4
extfont.shx
0
STYLE
5
204
100
AcDbSymbolTableRecord
100
AcDbTextStyleTableRecord
2
_Gothic_
70
0
40
1.0
41
1.0
50
0.0
71
0
42
10.0
3

4

1001
ACAD
1000
MS Gothic
1071
32817
0
STYLE
5
205
100
AcDbSymbolTableRecord
100
AcDbTextStyleTableRecord
2
_TateGothic_
70
4
40
0.0
41
1.0
50
0.0
71
0
42
0.0
3
@MS Gothic
4

0
ENDTAB
0
TABLE
2
VIEW
5
206
100
AcDbSymbolTable
70
0
0
ENDTAB
0
TABLE
2
UCS
5
207
100
AcDbSymbolTable
70
0
0
ENDTAB
0
TABLE
2
APPID
5
208
100
AcDbSymbolTable
70
1
0
APPID
5
209
100
AcDbSymbolTableRecord
100
AcDbRegAppTableRecord
2
ACAD
70
0
0
ENDTAB
0
TABLE
2
DIMSTYLE
5
403
330
0
100
AcDbSymbolTable
70
1
100
AcDbDimStyleTable
71
0
0
DIMSTYLE
105
404
330
402
100
AcDbSymbolTableRecord
100
AcDbDimStyleTableRecord
2
JAC_DIM
70
0
41
2.000
42
0.000
44
0.0
73
0
74
0
77
1
78
8
79
2
140
0.000
170
0
171
2
172
0
173
0
174
0
175
0
176
0
177
0
178
0
270
2
271
0
272
0
273
2
274
2
340
201
275
0
280
0
281
0
282
0
283
0
284
0
285
0
286
0
287
3
288
0
0
ENDTAB
0
TABLE
2
BLOCK_RECORD
5
405
100
AcDbSymbolTable
70
0
0
BLOCK_RECORD
5
406
100
AcDbSymbolTableRecord
100
AcDbBlockTableRecord
2
*MODEL_SPACE
0
BLOCK_RECORD
5
407
100
AcDbSymbolTableRecord
100
AcDbBlockTableRecord
2
*PAPER_SPACE
0
BLOCK_RECORD
5
408
100
AcDbSymbolTableRecord
100
AcDbBlockTableRecord
2
_JACCONVERT_
0
ENDTAB
0
TABLE
2
LAYER
5
409
100
AcDbSymbolTable
70
10
0
LAYER
5
40a
100
AcDbSymbolTableRecord
100
AcDbLayerTableRecord
2
0
70
0
62
7
6
CONTINUOUS
370
-3
390
14
0
LAYER
5
40b
100
AcDbSymbolTableRecord
100
AcDbLayerTableRecord
2
0-0
70
0
62
7
6
CONTINUOUS
370
-3
390
14
0
LAYER
5
40c
100
AcDbSymbolTableRecord
100
AcDbLayerTableRecord
2
0-1
70
0
62
7
6
CONTINUOUS
370
-3
390
14
0
LAYER
5
40d
100
AcDbSymbolTableRecord
100
AcDbLayerTableRecord
2
0-2
70
0
62
7
6
CONTINUOUS
370
-3
390
14
0
LAYER
5
40e
100
AcDbSymbolTableRecord
100
AcDbLayerTableRecord
2
0-8
70
0
62
7
6
CONTINUOUS
370
-3
390
14
0
LAYER
5
40f
100
AcDbSymbolTableRecord
100
AcDbLayerTableRecord
2
0-9
70
0
62
7
6
CONTINUOUS
370
-3
390
14
0
LAYER
5
410
100
AcDbSymbolTableRecord
100
AcDbLayerTableRecord
2
0-E
70
0
62
7
6
CONTINUOUS
370
-3
390
14
0
LAYER
5
411
100
AcDbSymbolTableRecord
100
AcDbLayerTableRecord
2
0-F
70
0
62
7
6
CONTINUOUS
370
-3
390
14
0
LAYER
5
412
100
AcDbSymbolTableRecord
100
AcDbLayerTableRecord
2
F-F_J_ADD
70
0
62
-7
6
CONTINUOUS
290
0
370
-3
390
14
0
ENDTAB
0
ENDSEC
0
SECTION
2
BLOCKS
0
BLOCK
5
413
100
AcDbEntity
67
1
8
0
100
AcDbBlockBegin
2
*MODEL_SPACE
70
0
10
0.0
20
0.0
30
0.0
3
*MODEL_SPACE
1

0
ENDBLK
5
414
100
AcDbEntity
8
0
100
AcDbBlockEnd
0
BLOCK
5
415
100
AcDbEntity
67
1
8
0
100
AcDbBlockBegin
2
*PAPER_SPACE
70
0
10
0.0
20
0.0
30
0.0
3
*PAPER_SPACE
1

0
ENDBLK
5
416
100
AcDbEntity
67
1
8
0
100
AcDbBlockEnd
0
BLOCK
5
417
100
AcDbEntity
8
0
100
AcDbBlockBegin
2
_JACCONVERT_
70
2
10
0.0
20
0.0
30
0.0
3
_JACCONVERT_
1
_JACCONVERT_
0
ATTDEF
5
418
100
AcDbEntity
8
0
62
0
100
AcDbText
10
0.0
20
0.0
30
0.0
40
1.0
1
User:UnSettingUp
100
AcDbAttributeDefinition
3

2
USER
70
8
0
ATTDEF
5
419
100
AcDbEntity
8
0
62
0
100
AcDbText
10
0.0
20
2.0
30
0.0
40
1.0
1
Date:23/07/14 16:41
100
AcDbAttributeDefinition
3

2
REVDATE
70
8
0
ATTDEF
5
41a
100
AcDbEntity
8
0
62
0
100
AcDbText
10
0.0
20
4.0
30
0.0
40
1.0
1
File:108_LECO25_foot_adjuster.dxf
100
AcDbAttributeDefinition
3

2
FNAME
70
8
0
ATTDEF
5
41b
100
AcDbEntity
8
0
62
0
100
AcDbText
10
0.0
20
6.0
30
0.0
40
1.0
1
JacConvert Version3.11 copyright (c) 2001-2016 K.Nakahara
100
AcDbAttributeDefinition
3

2
VER
70
8
0
ENDBLK
5
41c
100
AcDbEntity
67
1
8
0
100
AcDbBlockEnd
0
ENDSEC
0
SECTION
2
ENTITIES
0
POLYLINE
5
41d
100
AcDbEntity
8
0-0
6
CONTINUOUS
62
  7
100
AcDb2dPolyline
66
1
10
0.0
20
0.0
30
0.0
70
0
0
VERTEX
5
41e
100
AcDbEntity
8
0-0
6
CONTINUOUS
62
  7
100
AcDbVertex
100
AcDb2dVertex
10
320.000000000000
20
44.384732410218
30
0.0
0
VERTEX
5
41f
100
AcDbEntity
8
0-0
6
CONTINUOUS
62
  7
100
AcDbVertex
100
AcDb2dVertex
10
280.000000000000
20
44.384732410218
30
0.0
0
VERTEX
5
420
100
AcDbEntity
8
0-0
6
CONTINUOUS
62
  7
100
AcDbVertex
100
AcDb2dVertex
10
280.000000000000
20
48.384732410218
30
0.0
0
SEQEND
5
421
100
AcDbEntity
8
0-0
0
POLYLINE
5
422
100
AcDbEntity
8
0-0
6
CONTINUOUS
62
  7
100
AcDb2dPolyline
66
1
10
0.0
20
0.0
30
0.0
70
0
0
VERTEX
5
423
100
AcDbEntity
8
0-0
6
CONTINUOUS
62
  7
100
AcDbVertex
100
AcDb2dVertex
10
282.000000000000
20
44.384732410218
30
0.0
0
VERTEX
5
424
100
AcDbEntity
8
0-0
6
CONTINUOUS
62
  7
100
AcDbVertex
100
AcDb2dVertex
10
282.000000000000
20
40.384732410218
30
0.0
0
VERTEX
5
425
100
AcDbEntity
8
0-0
6
CONTINUOUS
62
  7
100
AcDbVertex
100
AcDb2dVertex
10
318.000000000000
20
40.384732410218
30
0.0
0
VERTEX
5
426
100
AcDbEntity
8
0-0
6
CONTINUOUS
62
  7
100
AcDbVertex
100
AcDb2dVertex
10
318.000000000000
20
44.384732410218
30
0.0
0
SEQEND
5
427
100
AcDbEntity
8
0-0
0
LINE
5
428
100
AcDbEntity
8
0-0
6
CONTINUOUS
62
7
100
AcDbLine
10
320.000000000000
20
44.384732410218
30
0.0
11
320.000000000000
21
48.384732410218
31
0.0
0
LINE
5
429
100
AcDbEntity
8
0-0
6
CONTINUOUS
62
7
100
AcDbLine
10
315.000000000000
20
53.384732410218
30
0.0
11
285.000000000000
21
53.384732410218
31
0.0
0
POLYLINE
5
42a
100
AcDbEntity
8
0-0
6
CONTINUOUS
62
  7
100
AcDb2dPolyline
66
1
10
0.0
20
0.0
30
0.0
70
0
0
VERTEX
5
42b
100
AcDbEntity
8
0-0
6
CONTINUOUS
62
  7
100
AcDbVertex
100
AcDb2dVertex
10
290.762390000000
20
54.099262410218
30
0.0
0
VERTEX
5
42c
100
AcDbEntity
8
0-0
6
CONTINUOUS
62
  7
100
AcDbVertex
100
AcDb2dVertex
10
290.762390000000
20
60.384732410218
30
0.0
0
VERTEX
5
42d
100
AcDbEntity
8
0-0
6
CONTINUOUS
62
  7
100
AcDbVertex
100
AcDb2dVertex
10
309.237600000000
20
60.384732410218
30
0.0
0
VERTEX
5
42e
100
AcDbEntity
8
0-0
6
CONTINUOUS
62
  7
100
AcDbVertex
100
AcDb2dVertex
10
309.237600000000
20
54.099262410218
30
0.0
0
VERTEX
5
42f
100
AcDbEntity
8
0-0
6
CONTINUOUS
62
  7
100
AcDbVertex
100
AcDb2dVertex
10
308.000000000000
20
53.384732410218
30
0.0
0
SEQEND
5
430
100
AcDbEntity
8
0-0
0
LINE
5
431
100
AcDbEntity
8
0-0
6
CONTINUOUS
62
7
100
AcDbLine
10
304.618800000000
20
54.099262410218
30
0.0
11
304.618800000000
21
60.384732410218
31
0.0
0
LINE
5
432
100
AcDbEntity
8
0-0
6
CONTINUOUS
62
7
100
AcDbLine
10
295.381190000000
20
60.384732410218
30
0.0
11
295.381190000000
21
54.099262410218
31
0.0
0
LINE
5
433
100
AcDbEntity
8
0-0
6
CONTINUOUS
62
7
100
AcDbLine
10
292.000000000000
20
53.384732410218
30
0.0
11
290.762390000000
21
54.099262410218
31
0.0
0
ARC
5
434
100
AcDbEntity
8
0-0
6
CONTINUOUS
62
7
100
AcDbCircle
10
315.000000000000
20
48.384732410218
30
0.0
40
5.000000000000
100
AcDbArc
50
0.000000000000
51
90.000000000000
0
ARC
5
435
100
AcDbEntity
8
0-0
6
CONTINUOUS
62
7
100
AcDbCircle
10
285.000000000000
20
48.384732410218
30
0.0
40
5.000000000000
100
AcDbArc
50
90.000000000000
51
180.000000000000
0
ARC
5
436
100
AcDbEntity
8
0-0
6
CONTINUOUS
62
7
100
AcDbCircle
10
306.928200000000
20
57.474042410218
30
0.0
40
4.089316400000
100
AcDbArc
50
235.615750000000
51
304.384240000000
0
ARC
5
437
100
AcDbEntity
8
0-0
6
CONTINUOUS
62
7
100
AcDbCircle
10
293.071790000000
20
57.474042410218
30
0.0
40
4.089316400000
100
AcDbArc
50
235.615750000000
51
304.384240000000
0
ARC
5
438
100
AcDbEntity
8
0-0
6
CONTINUOUS
62
7
100
AcDbCircle
10
300.000000000000
20
68.670202410219
30
0.0
40
15.285468000000
100
AcDbArc
50
252.412040000000
51
287.587950000000
0
LINE
5
439
100
AcDbEntity
8
0-0
6
CONTINUOUS
62
7
100
AcDbLine
10
290.185045242309
20
83.288259193208
30
0.0
11
290.185045242309
21
90.384732410218
31
0.0
0
LINE
5
43a
100
AcDbEntity
8
0-0
6
CONTINUOUS
62
7
100
AcDbLine
10
292.638783931732
20
82.384732410218
30
0.0
11
307.361216068268
21
82.384732410218
31
0.0
0
LINE
5
43b
100
AcDbEntity
8
0-0
6
CONTINUOUS
62
7
100
AcDbLine
10
295.092522621155
20
83.288259193208
30
0.0
11
295.092522621155
21
90.384732410218
31
0.0
0
LINE
5
43c
100
AcDbEntity
8
0-0
6
CONTINUOUS
62
7
100
AcDbLine
10
304.907477378845
20
83.288259193208
30
0.0
11
304.907477378845
21
90.384732410218
31
0.0
0
LINE
5
43d
100
AcDbEntity
8
0-0
6
CONTINUOUS
62
7
100
AcDbLine
10
309.814954757690
20
83.288259193208
30
0.0
11
309.814954757690
21
90.384732410218
31
0.0
0
ARC
5
43e
100
AcDbEntity
8
0-0
6
CONTINUOUS
62
7
100
AcDbCircle
10
300.000000000000
20
96.163897678163
30
0.0
40
13.779165267944
100
AcDbArc
50
249.135925292969
51
290.864059448242
0
POLYLINE
5
43f
100
AcDbEntity
8
0-0
6
CONTINUOUS
62
  7
100
AcDb2dPolyline
66
1
10
0.0
20
0.0
30
0.0
70
0
0
VERTEX
5
440
100
AcDbEntity
8
0-0
6
CONTINUOUS
62
  7
100
AcDbVertex
100
AcDb2dVertex
10
290.185227084706
20
83.288259604206
30
0.0
0
VERTEX
5
441
100
AcDbEntity
8
0-0
6
CONTINUOUS
62
  7
100
AcDbVertex
100
AcDb2dVertex
10
290.784795824836
20
82.875306118455
30
0.0
0
VERTEX
5
442
100
AcDbEntity
8
0-0
6
CONTINUOUS
62
  7
100
AcDbVertex
100
AcDb2dVertex
10
291.440697055431
20
82.582711376771
30
0.0
0
VERTEX
5
443
100
AcDbEntity
8
0-0
6
CONTINUOUS
62
  7
100
AcDbVertex
100
AcDb2dVertex
10
292.133001549501
20
82.419365722320
30
0.0
0
VERTEX
5
444
100
AcDbEntity
8
0-0
6
CONTINUOUS
62
  7
100
AcDbVertex
100
AcDb2dVertex
10
292.840673985317
20
82.390232330156
30
0.0
0
VERTEX
5
445
100
AcDbEntity
8
0-0
6
CONTINUOUS
62
  7
100
AcDbVertex
100
AcDb2dVertex
10
293.542212094016
20
82.496196403658
30
0.0
0
VERTEX
5
446
100
AcDbEntity
8
0-0
6
CONTINUOUS
62
  7
100
AcDbVertex
100
AcDb2dVertex
10
294.216299995160
20
82.734038278071
30
0.0
0
VERTEX
5
447
100
AcDbEntity
8
0-0
6
CONTINUOUS
62
  7
100
AcDbVertex
100
AcDb2dVertex
10
294.842455868979
20
83.096531248397
30
0.0
0
VERTEX
5
448
100
AcDbEntity
8
0-0
6
CONTINUOUS
62
  7
100
AcDbVertex
100
AcDb2dVertex
10
295.092339916394
20
83.288258888206
30
0.0
0
SEQEND
5
449
100
AcDbEntity
8
0-0
0
POLYLINE
5
44a
100
AcDbEntity
8
0-0
6
CONTINUOUS
62
  7
100
AcDb2dPolyline
66
1
10
0.0
20
0.0
30
0.0
70
0
0
VERTEX
5
44b
100
AcDbEntity
8
0-0
6
CONTINUOUS
62
  7
100
AcDbVertex
100
AcDb2dVertex
10
304.907659221242
20
83.288259604206
30
0.0
0
VERTEX
5
44c
100
AcDbEntity
8
0-0
6
CONTINUOUS
62
  7
100
AcDbVertex
100
AcDb2dVertex
10
305.507227961372
20
82.875306118455
30
0.0
0
VERTEX
5
44d
100
AcDbEntity
8
0-0
6
CONTINUOUS
62
  7
100
AcDbVertex
100
AcDb2dVertex
10
306.163129191967
20
82.582711376771
30
0.0
0
VERTEX
5
44e
100
AcDbEntity
8
0-0
6
CONTINUOUS
62
  7
100
AcDbVertex
100
AcDb2dVertex
10
306.855433686037
20
82.419365722320
30
0.0
0
VERTEX
5
44f
100
AcDbEntity
8
0-0
6
CONTINUOUS
62
  7
100
AcDbVertex
100
AcDb2dVertex
10
307.563106121852
20
82.390232330156
30
0.0
0
VERTEX
5
450
100
AcDbEntity
8
0-0
6
CONTINUOUS
62
  7
100
AcDbVertex
100
AcDb2dVertex
10
308.264644230551
20
82.496196403658
30
0.0
0
VERTEX
5
451
100
AcDbEntity
8
0-0
6
CONTINUOUS
62
  7
100
AcDbVertex
100
AcDb2dVertex
10
308.938732131696
20
82.734038278071
30
0.0
0
VERTEX
5
452
100
AcDbEntity
8
0-0
6
CONTINUOUS
62
  7
100
AcDbVertex
100
AcDb2dVertex
10
309.564888005515
20
83.096531248397
30
0.0
0
VERTEX
5
453
100
AcDbEntity
8
0-0
6
CONTINUOUS
62
  7
100
AcDbVertex
100
AcDb2dVertex
10
309.814772052930
20
83.288258888206
30
0.0
0
SEQEND
5
454
100
AcDbEntity
8
0-0
0
LINE
5
455
100
AcDbEntity
8
0-0
6
CONTINUOUS
62
7
100
AcDbLine
10
290.185045242309
20
90.384732410218
30
0.0
11
309.814954757690
21
90.384732410218
31
0.0
0
LINE
5
456
100
AcDbEntity
8
0-0
6
CONTINUOUS
62
7
100
AcDbLine
10
295.000000000000
20
139.684732410218
30
0.0
11
295.000000000000
21
90.384732410218
31
0.0
0
LINE
5
457
100
AcDbEntity
8
0-0
6
CONTINUOUS
62
7
100
AcDbLine
10
295.000000000000
20
82.384732410218
30
0.0
11
295.000000000000
21
60.384732410218
31
0.0
0
LINE
5
458
100
AcDbEntity
8
0-0
6
CONTINUOUS
62
7
100
AcDbLine
10
305.000000000000
20
139.684732410218
30
0.0
11
305.000000000000
21
90.384732410218
31
0.0
0
LINE
5
459
100
AcDbEntity
8
0-0
6
CONTINUOUS
62
7
100
AcDbLine
10
305.000000000000
20
82.384732410218
30
0.0
11
305.000000000000
21
60.384732410218
31
0.0
0
CIRCLE
5
45a
100
AcDbEntity
8
0-0
6
CONTINUOUS
62
7
100
AcDbCircle
10
299.999999997466
20
187.089176355276
30
0.0
40
19.999999997467
0
CIRCLE
5
45b
100
AcDbEntity
8
0-0
6
CONTINUOUS
62
7
100
AcDbCircle
10
299.999999997466
20
187.089176355276
30
0.0
40
14.999999997467
0
POLYLINE
5
45c
100
AcDbEntity
8
0-0
6
CONTINUOUS
62
  7
100
AcDb2dPolyline
66
1
10
0.0
20
0.0
30
0.0
70
0
0
VERTEX
5
45d
100
AcDbEntity
8
0-0
6
CONTINUOUS
62
  7
100
AcDbVertex
100
AcDb2dVertex
10
299.999999997466
20
177.274221597586
30
0.0
0
VERTEX
5
45e
100
AcDbEntity
8
0-0
6
CONTINUOUS
62
  7
100
AcDbVertex
100
AcDb2dVertex
10
308.499999997466
20
182.181698976431
30
0.0
0
VERTEX
5
45f
100
AcDbEntity
8
0-0
6
CONTINUOUS
62
  7
100
AcDbVertex
100
AcDb2dVertex
10
308.499999997466
20
191.996653734121
30
0.0
0
VERTEX
5
460
100
AcDbEntity
8
0-0
6
CONTINUOUS
62
  7
100
AcDbVertex
100
AcDb2dVertex
10
299.999999997466
20
196.904131112967
30
0.0
0
VERTEX
5
461
100
AcDbEntity
8
0-0
6
CONTINUOUS
62
  7
100
AcDbVertex
100
AcDb2dVertex
10
291.499999997466
20
191.996653734121
30
0.0
0
VERTEX
5
462
100
AcDbEntity
8
0-0
6
CONTINUOUS
62
  7
100
AcDbVertex
100
AcDb2dVertex
10
291.499999997466
20
182.181698976431
30
0.0
0
VERTEX
5
463
100
AcDbEntity
8
0-0
6
CONTINUOUS
62
  7
100
AcDbVertex
100
AcDb2dVertex
10
299.999999997466
20
177.274221597586
30
0.0
0
SEQEND
5
464
100
AcDbEntity
8
0-0
0
CIRCLE
5
465
100
AcDbEntity
8
0-0
6
CONTINUOUS
62
7
100
AcDbCircle
10
299.999999997466
20
187.089176355276
30
0.0
40
8.250000000000
0
CIRCLE
5
466
100
AcDbEntity
8
0-0
6
CONTINUOUS
62
7
100
AcDbCircle
10
299.999999997466
20
187.089176355276
30
0.0
40
5.000000000000
0
LINE
5
467
100
AcDbEntity
8
0-0
6
CONTINUOUS
62
7
100
AcDbLine
10
304.300000000000
20
140.384732410218
30
0.0
11
305.000000000000
21
139.684732410218
31
0.0
0
LINE
5
468
100
AcDbEntity
8
0-0
6
CONTINUOUS
62
7
100
AcDbLine
10
295.699990000000
20
140.384732410218
30
0.0
11
295.000000000000
21
139.684732410218
31
0.0
0
LINE
5
469
100
AcDbEntity
8
0-0
6
CONTINUOUS
62
7
100
AcDbLine
10
304.300000000000
20
140.384732410218
30
0.0
11
295.699990000000
21
140.384732410218
31
0.0
0
LINE
5
46a
100
AcDbEntity
8
0-1
6
CENTER
62
4
100
AcDbLine
10
300.000000000000
20
40.384732410218
30
0.0
11
300.000000000000
21
140.384732410218
31
0.0
0
LINE
5
46b
100
AcDbEntity
8
F-F_J_ADD
6
HIDDEN
62
4
100
AcDbLine
10
300.000000000000
20
90.384732410218
30
0.0
11
299.292893218813
21
91.091839191405
31
0.0
0
LINE
5
46c
100
AcDbEntity
8
F-F_J_ADD
6
HIDDEN
62
4
100
AcDbLine
10
300.000000000000
20
90.384732410218
30
0.0
11
300.707106781187
21
91.091839191405
31
0.0
0
LINE
5
46d
100
AcDbEntity
8
0-1
6
CONTINUOUS
62
4
100
AcDbLine
10
295.699990000000
20
60.384732410218
30
0.0
11
295.699990000000
21
82.384732410218
31
0.0
0
LINE
5
46e
100
AcDbEntity
8
0-1
6
CONTINUOUS
62
4
100
AcDbLine
10
295.699990000000
20
90.384732410218
30
0.0
11
295.699990000000
21
140.384732410218
31
0.0
0
LINE
5
46f
100
AcDbEntity
8
0-1
6
CONTINUOUS
62
4
100
AcDbLine
10
304.300000000000
20
60.384732410218
30
0.0
11
304.300000000000
21
82.384732410218
31
0.0
0
LINE
5
470
100
AcDbEntity
8
0-1
6
CONTINUOUS
62
4
100
AcDbLine
10
304.300000000000
20
90.384732410218
30
0.0
11
304.300000000000
21
140.384732410218
31
0.0
0
CIRCLE
5
471
100
AcDbEntity
8
0-1
6
CONTINUOUS
62
4
100
AcDbCircle
10
299.999999997466
20
187.089176355276
30
0.0
40
4.349999904633
0
LINE
5
472
100
AcDbEntity
8
0-1
6
CONTINUOUS
62
4
100
AcDbLine
10
295.000000000000
20
139.684732410218
30
0.0
11
305.000000000000
21
139.684732410218
31
0.0
0
LINE
5
473
100
AcDbEntity
8
0-1
6
CENTER
62
4
100
AcDbLine
10
280.000000000000
20
187.089176355276
30
0.0
11
319.999999994933
21
187.089176355276
31
0.0
0
LINE
5
474
100
AcDbEntity
8
0-1
6
CENTER
62
4
100
AcDbLine
10
299.999999997466
20
167.089176357809
30
0.0
11
299.999999997466
21
207.089176352743
31
0.0
0
TEXT
5
475
100
AcDbEntity
8
0-1
62
7
370
-3
100
AcDbText
10
300.200
20
36.152
30
0.0
40
4.208
41
0.578
50
0.000
1
AJ10-L
72
0
11
300.000
21
40.385
31
0.0
100
AcDbText
73
3
0
POLYLINE
5
476
100
AcDbEntity
8
0-E
6
CONTINUOUS
62
109
100
AcDb2dPolyline
66
1
10
0.0
20
0.0
30
0.0
70
0
0
VERTEX
5
477
100
AcDbEntity
8
0-E
6
CONTINUOUS
62
109
100
AcDbVertex
100
AcDb2dVertex
10
263.563072851990
20
218.923333924664
30
0.0
0
VERTEX
5
478
100
AcDbEntity
8
0-E
6
CONTINUOUS
62
109
100
AcDbVertex
100
AcDb2dVertex
10
340.129863698185
20
218.923333924664
30
0.0
0
VERTEX
5
479
100
AcDbEntity
8
0-E
6
CONTINUOUS
62
109
100
AcDbVertex
100
AcDb2dVertex
10
340.129863698185
20
17.698214180120
30
0.0
0
VERTEX
5
47a
100
AcDbEntity
8
0-E
6
CONTINUOUS
62
109
100
AcDbVertex
100
AcDb2dVertex
10
263.563072851990
20
17.698214180120
30
0.0
0
VERTEX
5
47b
100
AcDbEntity
8
0-E
6
CONTINUOUS
62
109
100
AcDbVertex
100
AcDb2dVertex
10
263.563072851990
20
218.923333924664
30
0.0
0
SEQEND
5
47c
100
AcDbEntity
8
0-E
0
TEXT
5
47d
100
AcDbEntity
8
0-E
62
109
370
-3
100
AcDbText
10
263.735
20
219.583
30
0.0
40
3.618
1
廃番
41
0.637
50
0.000
100
AcDbText
0
CIRCLE
5
47e
100
AcDbEntity
8
0-1
6
CONTINUOUS
62
4
100
AcDbCircle
10
0.000000000000
20
430.128559005622
30
0.0
40
5.000000000000
0
CIRCLE
5
47f
100
AcDbEntity
8
0-1
6
CONTINUOUS
62
4
100
AcDbCircle
10
0.000000000000
20
430.128559005622
30
0.0
40
8.500000000000
0
LINE
5
480
100
AcDbEntity
8
0-1
6
CONTINUOUS
62
4
100
AcDbLine
10
-4.300000190700
20
370.084732219519
30
0.0
11
-4.300000190700
21
336.310169802974
31
0.0
0
LINE
5
481
100
AcDbEntity
8
0-1
6
CONTINUOUS
62
4
100
AcDbLine
10
5.000000000000
20
369.384732410218
30
0.0
11
-5.000000000000
21
369.384732410218
31
0.0
0
LINE
5
482
100
AcDbEntity
8
0-1
6
CONTINUOUS
62
4
100
AcDbLine
10
4.300000190700
20
336.310169802974
30
0.0
11
4.300000190700
21
370.084732219518
31
0.0
0
LINE
5
483
100
AcDbEntity
8
0-1
6
CONTINUOUS
62
4
100
AcDbLine
10
-4.300000190700
20
328.510169802974
30
0.0
11
-4.300000190700
21
310.384732410218
31
0.0
0
LINE
5
484
100
AcDbEntity
8
0-1
6
CONTINUOUS
62
4
100
AcDbLine
10
4.300000190700
20
328.510169802974
30
0.0
11
4.300000190700
21
310.384732410218
31
0.0
0
LINE
5
485
100
AcDbEntity
8
0-1
6
CONTINUOUS
62
4
100
AcDbLine
10
20.000000000000
20
300.984732410219
30
0.0
11
-20.000000000000
21
300.984732410219
31
0.0
0
POLYLINE
5
486
100
AcDbEntity
8
0-0
6
CONTINUOUS
62
  7
100
AcDb2dPolyline
66
1
10
0.0
20
0.0
30
0.0
70
0
0
VERTEX
5
487
100
AcDbEntity
8
0-0
6
CONTINUOUS
62
  7
100
AcDbVertex
100
AcDb2dVertex
10
-5.000000000000
20
336.310169802974
30
0.0
0
VERTEX
5
488
100
AcDbEntity
8
0-0
6
CONTINUOUS
62
  7
100
AcDbVertex
100
AcDb2dVertex
10
-5.000000000000
20
369.384732410218
30
0.0
0
VERTEX
5
489
100
AcDbEntity
8
0-0
6
CONTINUOUS
62
  7
100
AcDbVertex
100
AcDb2dVertex
10
-4.000000000000
20
370.384732410218
30
0.0
0
VERTEX
5
48a
100
AcDbEntity
8
0-0
6
CONTINUOUS
62
  7
100
AcDbVertex
100
AcDb2dVertex
10
4.000000000000
20
370.384732410218
30
0.0
0
VERTEX
5
48b
100
AcDbEntity
8
0-0
6
CONTINUOUS
62
  7
100
AcDbVertex
100
AcDb2dVertex
10
5.000000000000
20
369.384732410218
30
0.0
0
VERTEX
5
48c
100
AcDbEntity
8
0-0
6
CONTINUOUS
62
  7
100
AcDbVertex
100
AcDb2dVertex
10
5.000000000000
20
336.310169802974
30
0.0
0
SEQEND
5
48d
100
AcDbEntity
8
0-0
0
LINE
5
48e
100
AcDbEntity
8
0-0
6
CONTINUOUS
62
7
100
AcDbLine
10
-7.361215932224
20
336.310169802974
30
0.0
11
7.361215932224
21
336.310169802974
31
0.0
0
POLYLINE
5
48f
100
AcDbEntity
8
0-0
6
CONTINUOUS
62
  7
100
AcDb2dPolyline
66
1
10
0.0
20
0.0
30
0.0
70
0
0
VERTEX
5
490
100
AcDbEntity
8
0-0
6
CONTINUOUS
62
  7
100
AcDbVertex
100
AcDb2dVertex
10
-4.907477288112
20
335.550980424419
30
0.0
0
VERTEX
5
491
100
AcDbEntity
8
0-0
6
CONTINUOUS
62
  7
100
AcDbVertex
100
AcDb2dVertex
10
-4.944755091636
20
335.682812276509
30
0.0
0
VERTEX
5
492
100
AcDbEntity
8
0-0
6
CONTINUOUS
62
  7
100
AcDbVertex
100
AcDb2dVertex
10
-5.055455835011
20
335.810638484484
30
0.0
0
VERTEX
5
493
100
AcDbEntity
8
0-0
6
CONTINUOUS
62
  7
100
AcDbVertex
100
AcDb2dVertex
10
-5.236215932168
20
335.930575113697
30
0.0
0
VERTEX
5
494
100
AcDbEntity
8
0-0
6
CONTINUOUS
62
  7
100
AcDbVertex
100
AcDb2dVertex
10
-5.481543079023
20
336.038977950360
30
0.0
0
VERTEX
5
495
100
AcDbEntity
8
0-0
6
CONTINUOUS
62
  7
100
AcDbVertex
100
AcDb2dVertex
10
-5.783983134360
20
336.132553229136
30
0.0
0
VERTEX
5
496
100
AcDbEntity
8
0-0
6
CONTINUOUS
62
  7
100
AcDbVertex
100
AcDb2dVertex
10
-6.134346610140
20
336.208457712531
30
0.0
0
VERTEX
5
497
100
AcDbEntity
8
0-0
6
CONTINUOUS
62
  7
100
AcDbVertex
100
AcDb2dVertex
10
-6.521987889444
20
336.264385081226
30
0.0
0
VERTEX
5
498
100
AcDbEntity
8
0-0
6
CONTINUOUS
62
  7
100
AcDbVertex
100
AcDb2dVertex
10
-6.935128688157
20
336.298636010425
30
0.0
0
VERTEX
5
499
100
AcDbEntity
8
0-0
6
CONTINUOUS
62
  7
100
AcDbVertex
100
AcDb2dVertex
10
-7.361215932168
20
336.310169802974
30
0.0
0
VERTEX
5
49a
100
AcDbEntity
8
0-0
6
CONTINUOUS
62
  7
100
AcDbVertex
100
AcDb2dVertex
10
-7.787303176179
20
336.298636010425
30
0.0
0
VERTEX
5
49b
100
AcDbEntity
8
0-0
6
CONTINUOUS
62
  7
100
AcDbVertex
100
AcDb2dVertex
10
-8.200443974892
20
336.264385081226
30
0.0
0
VERTEX
5
49c
100
AcDbEntity
8
0-0
6
CONTINUOUS
62
  7
100
AcDbVertex
100
AcDb2dVertex
10
-8.588085254196
20
336.208457712531
30
0.0
0
VERTEX
5
49d
100
AcDbEntity
8
0-0
6
CONTINUOUS
62
  7
100
AcDbVertex
100
AcDb2dVertex
10
-8.938448729976
20
336.132553229136
30
0.0
0
VERTEX
5
49e
100
AcDbEntity
8
0-0
6
CONTINUOUS
62
  7
100
AcDbVertex
100
AcDb2dVertex
10
-9.240888785313
20
336.038977950360
30
0.0
0
VERTEX
5
49f
100
AcDbEntity
8
0-0
6
CONTINUOUS
62
  7
100
AcDbVertex
100
AcDb2dVertex
10
-9.486215932168
20
335.930575113697
30
0.0
0
VERTEX
5
4a0
100
AcDbEntity
8
0-0
6
CONTINUOUS
62
  7
100
AcDbVertex
100
AcDb2dVertex
10
-9.666976029325
20
335.810638484484
30
0.0
0
VERTEX
5
4a1
100
AcDbEntity
8
0-0
6
CONTINUOUS
62
  7
100
AcDbVertex
100
AcDb2dVertex
10
-9.777676772700
20
335.682812276509
30
0.0
0
VERTEX
5
4a2
100
AcDbEntity
8
0-0
6
CONTINUOUS
62
  7
100
AcDbVertex
100
AcDb2dVertex
10
-9.814954576224
20
335.550980424419
30
0.0
0
SEQEND
5
4a3
100
AcDbEntity
8
0-0
0
POLYLINE
5
4a4
100
AcDbEntity
8
0-0
6
CONTINUOUS
62
  7
100
AcDb2dPolyline
66
1
10
0.0
20
0.0
30
0.0
70
0
0
VERTEX
5
4a5
100
AcDbEntity
8
0-0
6
CONTINUOUS
62
  7
100
AcDbVertex
100
AcDb2dVertex
10
-0.000000000000
20
336.310169802974
30
0.0
0
VERTEX
5
4a6
100
AcDbEntity
8
0-0
6
CONTINUOUS
62
  7
100
AcDbVertex
100
AcDb2dVertex
10
-0.859467363692
20
336.297404821897
30
0.0
0
VERTEX
5
4a7
100
AcDbEntity
8
0-0
6
CONTINUOUS
62
  7
100
AcDbVertex
100
AcDb2dVertex
10
-1.691414618559
20
336.261960113211
30
0.0
0
VERTEX
5
4a8
100
AcDbEntity
8
0-0
6
CONTINUOUS
62
  7
100
AcDbVertex
100
AcDb2dVertex
10
-2.470563468247
20
336.204912646454
30
0.0
0
VERTEX
5
4a9
100
AcDbEntity
8
0-0
6
CONTINUOUS
62
  7
100
AcDbVertex
100
AcDb2dVertex
10
-3.173239869226
20
336.127995780036
30
0.0
0
VERTEX
5
4aa
100
AcDbEntity
8
0-0
6
CONTINUOUS
62
  7
100
AcDbVertex
100
AcDb2dVertex
10
-3.778093354625
20
336.033546594022
30
0.0
0
VERTEX
5
4ab
100
AcDbEntity
8
0-0
6
CONTINUOUS
62
  7
100
AcDbVertex
100
AcDb2dVertex
10
-4.266745757361
20
335.924434879135
30
0.0
0
VERTEX
5
4ac
100
AcDbEntity
8
0-0
6
CONTINUOUS
62
  7
100
AcDbVertex
100
AcDb2dVertex
10
-4.624349621445
20
335.803975939618
30
0.0
0
VERTEX
5
4ad
100
AcDbEntity
8
0-0
6
CONTINUOUS
62
  7
100
AcDbVertex
100
AcDb2dVertex
10
-4.840039334425
20
335.675829859394
30
0.0
0
VERTEX
5
4ae
100
AcDbEntity
8
0-0
6
CONTINUOUS
62
  7
100
AcDbVertex
100
AcDb2dVertex
10
-4.907477288112
20
335.550980424419
30
0.0
0
SEQEND
5
4af
100
AcDbEntity
8
0-0
0
POLYLINE
5
4b0
100
AcDbEntity
8
0-0
6
CONTINUOUS
62
  7
100
AcDb2dPolyline
66
1
10
0.0
20
0.0
30
0.0
70
0
0
VERTEX
5
4b1
100
AcDbEntity
8
0-0
6
CONTINUOUS
62
  7
100
AcDbVertex
100
AcDb2dVertex
10
9.814954576223
20
335.550980424419
30
0.0
0
VERTEX
5
4b2
100
AcDbEntity
8
0-0
6
CONTINUOUS
62
  7
100
AcDbVertex
100
AcDb2dVertex
10
9.777676772699
20
335.682812276509
30
0.0
0
VERTEX
5
4b3
100
AcDbEntity
8
0-0
6
CONTINUOUS
62
  7
100
AcDbVertex
100
AcDb2dVertex
10
9.666976029324
20
335.810638484484
30
0.0
0
VERTEX
5
4b4
100
AcDbEntity
8
0-0
6
CONTINUOUS
62
  7
100
AcDbVertex
100
AcDb2dVertex
10
9.486215932168
20
335.930575113697
30
0.0
0
VERTEX
5
4b5
100
AcDbEntity
8
0-0
6
CONTINUOUS
62
  7
100
AcDbVertex
100
AcDb2dVertex
10
9.240888785313
20
336.038977950360
30
0.0
0
VERTEX
5
4b6
100
AcDbEntity
8
0-0
6
CONTINUOUS
62
  7
100
AcDbVertex
100
AcDb2dVertex
10
8.938448729976
20
336.132553229136
30
0.0
0
VERTEX
5
4b7
100
AcDbEntity
8
0-0
6
CONTINUOUS
62
  7
100
AcDbVertex
100
AcDb2dVertex
10
8.588085254195
20
336.208457712531
30
0.0
0
VERTEX
5
4b8
100
AcDbEntity
8
0-0
6
CONTINUOUS
62
  7
100
AcDbVertex
100
AcDb2dVertex
10
8.200443974891
20
336.264385081226
30
0.0
0
VERTEX
5
4b9
100
AcDbEntity
8
0-0
6
CONTINUOUS
62
  7
100
AcDbVertex
100
AcDb2dVertex
10
7.787303176179
20
336.298636010425
30
0.0
0
VERTEX
5
4ba
100
AcDbEntity
8
0-0
6
CONTINUOUS
62
  7
100
AcDbVertex
100
AcDb2dVertex
10
7.361215932168
20
336.310169802974
30
0.0
0
VERTEX
5
4bb
100
AcDbEntity
8
0-0
6
CONTINUOUS
62
  7
100
AcDbVertex
100
AcDb2dVertex
10
6.935128688156
20
336.298636010425
30
0.0
0
VERTEX
5
4bc
100
AcDbEntity
8
0-0
6
CONTINUOUS
62
  7
100
AcDbVertex
100
AcDb2dVertex
10
6.521987889444
20
336.264385081226
30
0.0
0
VERTEX
5
4bd
100
AcDbEntity
8
0-0
6
CONTINUOUS
62
  7
100
AcDbVertex
100
AcDb2dVertex
10
6.134346610140
20
336.208457712531
30
0.0
0
VERTEX
5
4be
100
AcDbEntity
8
0-0
6
CONTINUOUS
62
  7
100
AcDbVertex
100
AcDb2dVertex
10
5.783983134359
20
336.132553229136
30
0.0
0
VERTEX
5
4bf
100
AcDbEntity
8
0-0
6
CONTINUOUS
62
  7
100
AcDbVertex
100
AcDb2dVertex
10
5.481543079022
20
336.038977950360
30
0.0
0
VERTEX
5
4c0
100
AcDbEntity
8
0-0
6
CONTINUOUS
62
  7
100
AcDbVertex
100
AcDb2dVertex
10
5.236215932168
20
335.930575113697
30
0.0
0
VERTEX
5
4c1
100
AcDbEntity
8
0-0
6
CONTINUOUS
62
  7
100
AcDbVertex
100
AcDb2dVertex
10
5.055455835011
20
335.810638484484
30
0.0
0
VERTEX
5
4c2
100
AcDbEntity
8
0-0
6
CONTINUOUS
62
  7
100
AcDbVertex
100
AcDb2dVertex
10
4.944755091636
20
335.682812276509
30
0.0
0
VERTEX
5
4c3
100
AcDbEntity
8
0-0
6
CONTINUOUS
62
  7
100
AcDbVertex
100
AcDb2dVertex
10
4.907477288112
20
335.550980424419
30
0.0
0
VERTEX
5
4c4
100
AcDbEntity
8
0-0
6
CONTINUOUS
62
  7
100
AcDbVertex
100
AcDb2dVertex
10
4.832218867118
20
335.682818025469
30
0.0
0
VERTEX
5
4c5
100
AcDbEntity
8
0-0
6
CONTINUOUS
62
  7
100
AcDbVertex
100
AcDb2dVertex
10
4.608730293177
20
335.810649807725
30
0.0
0
VERTEX
5
4c6
100
AcDbEntity
8
0-0
6
CONTINUOUS
62
  7
100
AcDbVertex
100
AcDb2dVertex
10
4.243802153517
20
335.930591667168
30
0.0
0
VERTEX
5
4c7
100
AcDbEntity
8
0-0
6
CONTINUOUS
62
  7
100
AcDbVertex
100
AcDb2dVertex
10
3.748522604998
20
336.038999231092
30
0.0
0
VERTEX
5
4c8
100
AcDbEntity
8
0-0
6
CONTINUOUS
62
  7
100
AcDbVertex
100
AcDb2dVertex
10
3.137940466080
20
336.132578590525
30
0.0
0
VERTEX
5
4c9
100
AcDbEntity
8
0-0
6
CONTINUOUS
62
  7
100
AcDbVertex
100
AcDb2dVertex
10
2.430607966084
20
336.208486383984
30
0.0
0
VERTEX
5
4ca
100
AcDbEntity
8
0-0
6
CONTINUOUS
62
  7
100
AcDbVertex
100
AcDb2dVertex
10
1.648017045094
20
336.264416191575
30
0.0
0
VERTEX
5
4cb
100
AcDbEntity
8
0-0
6
CONTINUOUS
62
  7
100
AcDbVertex
100
AcDb2dVertex
10
0.813946332234
20
336.298668614398
30
0.0
0
VERTEX
5
4cc
100
AcDbEntity
8
0-0
6
CONTINUOUS
62
  7
100
AcDbVertex
100
AcDb2dVertex
10
-0.000000000000
20
336.310169802974
30
0.0
0
SEQEND
5
4cd
100
AcDbEntity
8
0-0
0
POLYLINE
5
4ce
100
AcDbEntity
8
0-0
6
CONTINUOUS
62
  7
100
AcDb2dPolyline
66
1
10
0.0
20
0.0
30
0.0
70
0
0
VERTEX
5
4cf
100
AcDbEntity
8
0-0
6
CONTINUOUS
62
  7
100
AcDbVertex
100
AcDb2dVertex
10
-4.907477288112
20
438.628559005622
30
0.0
0
VERTEX
5
4d0
100
AcDbEntity
8
0-0
6
CONTINUOUS
62
  7
100
AcDbVertex
100
AcDb2dVertex
10
4.907477288111
20
438.628559005622
30
0.0
0
VERTEX
5
4d1
100
AcDbEntity
8
0-0
6
CONTINUOUS
62
  7
100
AcDbVertex
100
AcDb2dVertex
10
9.814954576224
20
430.128559005622
30
0.0
0
VERTEX
5
4d2
100
AcDbEntity
8
0-0
6
CONTINUOUS
62
  7
100
AcDbVertex
100
AcDb2dVertex
10
4.907477288111
20
421.628559005622
30
0.0
0
VERTEX
5
4d3
100
AcDbEntity
8
0-0
6
CONTINUOUS
62
  7
100
AcDbVertex
100
AcDb2dVertex
10
-4.907477288112
20
421.628559005622
30
0.0
0
VERTEX
5
4d4
100
AcDbEntity
8
0-0
6
CONTINUOUS
62
  7
100
AcDbVertex
100
AcDb2dVertex
10
-9.814954576224
20
430.128559005622
30
0.0
0
VERTEX
5
4d5
100
AcDbEntity
8
0-0
6
CONTINUOUS
62
  7
100
AcDbVertex
100
AcDb2dVertex
10
-4.907477288112
20
438.628559005622
30
0.0
0
SEQEND
5
4d6
100
AcDbEntity
8
0-0
0
CIRCLE
5
4d7
100
AcDbEntity
8
0-0
6
CONTINUOUS
62
7
100
AcDbCircle
10
0.000000000000
20
430.128559005622
30
0.0
40
4.300000190735
0
CIRCLE
5
4d8
100
AcDbEntity
8
0-0
6
CONTINUOUS
62
7
100
AcDbCircle
10
0.000000000000
20
430.128559005622
30
0.0
40
12.000000000000
0
CIRCLE
5
4d9
100
AcDbEntity
8
0-0
6
CONTINUOUS
62
7
100
AcDbCircle
10
0.000000000000
20
430.128559005622
30
0.0
40
20.000000000000
0
LINE
5
4da
100
AcDbEntity
8
0-0
6
CONTINUOUS
62
7
100
AcDbLine
10
-9.814954576224
20
310.384732410218
30
0.0
11
9.814954576224
21
310.384732410218
31
0.0
0
POLYLINE
5
4db
100
AcDbEntity
8
0-0
6
CONTINUOUS
62
  7
100
AcDb2dPolyline
66
1
10
0.0
20
0.0
30
0.0
70
0
0
VERTEX
5
4dc
100
AcDbEntity
8
0-0
6
CONTINUOUS
62
  7
100
AcDbVertex
100
AcDb2dVertex
10
0.479297787964
20
304.802250366398
30
0.0
0
VERTEX
5
4dd
100
AcDbEntity
8
0-0
6
CONTINUOUS
62
  7
100
AcDbVertex
100
AcDb2dVertex
10
1.546325500328
20
304.837010863480
30
0.0
0
VERTEX
5
4de
100
AcDbEntity
8
0-0
6
CONTINUOUS
62
  7
100
AcDbVertex
100
AcDb2dVertex
10
2.608464951460
20
304.906452869063
30
0.0
0
VERTEX
5
4df
100
AcDbEntity
8
0-0
6
CONTINUOUS
62
  7
100
AcDbVertex
100
AcDb2dVertex
10
3.667156929779
20
305.007442364556
30
0.0
0
VERTEX
5
4e0
100
AcDbEntity
8
0-0
6
CONTINUOUS
62
  7
100
AcDbVertex
100
AcDb2dVertex
10
4.907477288111
20
305.161271603660
30
0.0
0
VERTEX
5
4e1
100
AcDbEntity
8
0-0
6
CONTINUOUS
62
  7
100
AcDbVertex
100
AcDb2dVertex
10
4.907477288111
20
310.384732410218
30
0.0
0
SEQEND
5
4e2
100
AcDbEntity
8
0-0
0
POLYLINE
5
4e3
100
AcDbEntity
8
0-0
6
CONTINUOUS
62
  7
100
AcDb2dPolyline
66
1
10
0.0
20
0.0
30
0.0
70
0
0
VERTEX
5
4e4
100
AcDbEntity
8
0-0
6
CONTINUOUS
62
  7
100
AcDbVertex
100
AcDb2dVertex
10
9.814954576224
20
310.384732410218
30
0.0
0
VERTEX
5
4e5
100
AcDbEntity
8
0-0
6
CONTINUOUS
62
  7
100
AcDbVertex
100
AcDb2dVertex
10
9.814954576224
20
305.161271603660
30
0.0
0
VERTEX
5
4e6
100
AcDbEntity
8
0-0
6
CONTINUOUS
62
  7
100
AcDbVertex
100
AcDb2dVertex
10
9.211870433185
20
305.011189093009
30
0.0
0
VERTEX
5
4e7
100
AcDbEntity
8
0-0
6
CONTINUOUS
62
  7
100
AcDbVertex
100
AcDb2dVertex
10
8.606305432966
20
304.897079011492
30
0.0
0
VERTEX
5
4e8
100
AcDbEntity
8
0-0
6
CONTINUOUS
62
  7
100
AcDbVertex
100
AcDb2dVertex
10
7.997167088643
20
304.824631475189
30
0.0
0
VERTEX
5
4e9
100
AcDbEntity
8
0-0
6
CONTINUOUS
62
  7
100
AcDbVertex
100
AcDb2dVertex
10
7.386230102953
20
304.798566127270
30
0.0
0
VERTEX
5
4ea
100
AcDbEntity
8
0-0
6
CONTINUOUS
62
  7
100
AcDbVertex
100
AcDb2dVertex
10
6.766597003195
20
304.821364174512
30
0.0
0
VERTEX
5
4eb
100
AcDbEntity
8
0-0
6
CONTINUOUS
62
  7
100
AcDbVertex
100
AcDb2dVertex
10
6.146924779289
20
304.892356251648
30
0.0
0
VERTEX
5
4ec
100
AcDbEntity
8
0-0
6
CONTINUOUS
62
  7
100
AcDbVertex
100
AcDb2dVertex
10
5.526476608862
20
305.007696146761
30
0.0
0
VERTEX
5
4ed
100
AcDbEntity
8
0-0
6
CONTINUOUS
62
  7
100
AcDbVertex
100
AcDb2dVertex
10
4.907477288111
20
305.161271603660
30
0.0
0
SEQEND
5
4ee
100
AcDbEntity
8
0-0
0
LINE
5
4ef
100
AcDbEntity
8
0-0
6
CONTINUOUS
62
7
100
AcDbLine
10
6.999999999999
20
304.384732410218
30
0.0
11
9.814954576224
21
305.161271603660
31
0.0
0
LINE
5
4f0
100
AcDbEntity
8
0-0
6
CONTINUOUS
62
7
100
AcDbLine
10
11.999999999999
20
304.384732410218
30
0.0
11
-12.000000000000
21
304.384732410218
31
0.0
0
LINE
5
4f1
100
AcDbEntity
8
0-0
6
CONTINUOUS
62
7
100
AcDbLine
10
-9.814954576224
20
305.161271603660
30
0.0
11
-9.814954576224
21
310.384732410218
31
0.0
0
POLYLINE
5
4f2
100
AcDbEntity
8
0-0
6
CONTINUOUS
62
  7
100
AcDb2dPolyline
66
1
10
0.0
20
0.0
30
0.0
70
0
0
VERTEX
5
4f3
100
AcDbEntity
8
0-0
6
CONTINUOUS
62
  7
100
AcDbVertex
100
AcDb2dVertex
10
0.479297787964
20
304.802250366398
30
0.0
0
VERTEX
5
4f4
100
AcDbEntity
8
0-0
6
CONTINUOUS
62
  7
100
AcDbVertex
100
AcDb2dVertex
10
-0.589540430891
20
304.804158632385
30
0.0
0
VERTEX
5
4f5
100
AcDbEntity
8
0-0
6
CONTINUOUS
62
  7
100
AcDbVertex
100
AcDb2dVertex
10
-1.669980630975
20
304.843351970277
30
0.0
0
VERTEX
5
4f6
100
AcDbEntity
8
0-0
6
CONTINUOUS
62
  7
100
AcDbVertex
100
AcDb2dVertex
10
-2.749740887702
20
304.918168116697
30
0.0
0
VERTEX
5
4f7
100
AcDbEntity
8
0-0
6
CONTINUOUS
62
  7
100
AcDbVertex
100
AcDb2dVertex
10
-3.829812470667
20
305.025547192471
30
0.0
0
VERTEX
5
4f8
100
AcDbEntity
8
0-0
6
CONTINUOUS
62
  7
100
AcDbVertex
100
AcDb2dVertex
10
-4.907477288112
20
305.161271603660
30
0.0
0
VERTEX
5
4f9
100
AcDbEntity
8
0-0
6
CONTINUOUS
62
  7
100
AcDbVertex
100
AcDb2dVertex
10
-5.510561431150
20
305.011189093009
30
0.0
0
VERTEX
5
4fa
100
AcDbEntity
8
0-0
6
CONTINUOUS
62
  7
100
AcDbVertex
100
AcDb2dVertex
10
-6.116126431370
20
304.897079011492
30
0.0
0
VERTEX
5
4fb
100
AcDbEntity
8
0-0
6
CONTINUOUS
62
  7
100
AcDbVertex
100
AcDb2dVertex
10
-6.725264775694
20
304.824631475189
30
0.0
0
VERTEX
5
4fc
100
AcDbEntity
8
0-0
6
CONTINUOUS
62
  7
100
AcDbVertex
100
AcDb2dVertex
10
-7.336201761383
20
304.798566127270
30
0.0
0
VERTEX
5
4fd
100
AcDbEntity
8
0-0
6
CONTINUOUS
62
  7
100
AcDbVertex
100
AcDb2dVertex
10
-7.955834861141
20
304.821364174512
30
0.0
0
VERTEX
5
4fe
100
AcDbEntity
8
0-0
6
CONTINUOUS
62
  7
100
AcDbVertex
100
AcDb2dVertex
10
-8.575507085047
20
304.892356251648
30
0.0
0
VERTEX
5
4ff
100
AcDbEntity
8
0-0
6
CONTINUOUS
62
  7
100
AcDbVertex
100
AcDb2dVertex
10
-9.195955255474
20
305.007696146761
30
0.0
0
VERTEX
5
500
100
AcDbEntity
8
0-0
6
CONTINUOUS
62
  7
100
AcDbVertex
100
AcDb2dVertex
10
-9.814954576224
20
305.161271603660
30
0.0
0
VERTEX
5
501
100
AcDbEntity
8
0-0
6
CONTINUOUS
62
  7
100
AcDbVertex
100
AcDb2dVertex
10
-7.000000000000
20
304.384732410218
30
0.0
0
SEQEND
5
502
100
AcDbEntity
8
0-0
0
LINE
5
503
100
AcDbEntity
8
0-0
6
CONTINUOUS
62
7
100
AcDbLine
10
-4.907477288112
20
305.161271603660
30
0.0
11
-4.907477288112
21
310.384732410218
31
0.0
0
LINE
5
504
100
AcDbEntity
8
0-0
6
CONTINUOUS
62
7
100
AcDbLine
10
-17.750000000000
20
290.384732410218
30
0.0
11
17.750000000000
21
290.384732410218
31
0.0
0
LINE
5
505
100
AcDbEntity
8
0-0
6
CONTINUOUS
62
7
100
AcDbLine
10
-4.907477288112
20
329.269359181529
30
0.0
11
-4.907477288112
21
335.550980424419
31
0.0
0
LINE
5
506
100
AcDbEntity
8
0-0
6
CONTINUOUS
62
7
100
AcDbLine
10
9.814954576224
20
335.550980424419
30
0.0
11
9.814954576224
21
329.269359181529
31
0.0
0
LINE
5
507
100
AcDbEntity
8
0-0
6
CONTINUOUS
62
7
100
AcDbLine
10
7.361215932224
20
328.510169802974
30
0.0
11
-7.361215932224
21
328.510169802974
31
0.0
0
LINE
5
508
100
AcDbEntity
8
0-0
6
CONTINUOUS
62
7
100
AcDbLine
10
-9.814954576224
20
329.269359181529
30
0.0
11
-9.814954576224
21
335.550980424419
31
0.0
0
LINE
5
509
100
AcDbEntity
8
0-0
6
CONTINUOUS
62
7
100
AcDbLine
10
4.907477288111
20
335.550980424419
30
0.0
11
4.907477288111
21
329.269359181529
31
0.0
0
POLYLINE
5
50a
100
AcDbEntity
8
0-0
6
CONTINUOUS
62
  7
100
AcDb2dPolyline
66
1
10
0.0
20
0.0
30
0.0
70
0
0
VERTEX
5
50b
100
AcDbEntity
8
0-0
6
CONTINUOUS
62
  7
100
AcDbVertex
100
AcDb2dVertex
10
-4.907477288112
20
329.269359181529
30
0.0
0
VERTEX
5
50c
100
AcDbEntity
8
0-0
6
CONTINUOUS
62
  7
100
AcDbVertex
100
AcDb2dVertex
10
-4.832218867119
20
329.137521580478
30
0.0
0
VERTEX
5
50d
100
AcDbEntity
8
0-0
6
CONTINUOUS
62
  7
100
AcDbVertex
100
AcDb2dVertex
10
-4.608730293178
20
329.009689798223
30
0.0
0
VERTEX
5
50e
100
AcDbEntity
8
0-0
6
CONTINUOUS
62
  7
100
AcDbVertex
100
AcDb2dVertex
10
-4.243802153517
20
328.889747938780
30
0.0
0
VERTEX
5
50f
100
AcDbEntity
8
0-0
6
CONTINUOUS
62
  7
100
AcDbVertex
100
AcDb2dVertex
10
-3.748522604999
20
328.781340374856
30
0.0
0
VERTEX
5
510
100
AcDbEntity
8
0-0
6
CONTINUOUS
62
  7
100
AcDbVertex
100
AcDb2dVertex
10
-3.137940466081
20
328.687761015423
30
0.0
0
VERTEX
5
511
100
AcDbEntity
8
0-0
6
CONTINUOUS
62
  7
100
AcDbVertex
100
AcDb2dVertex
10
-2.430607966084
20
328.611853221964
30
0.0
0
VERTEX
5
512
100
AcDbEntity
8
0-0
6
CONTINUOUS
62
  7
100
AcDbVertex
100
AcDb2dVertex
10
-1.648017045094
20
328.555923414372
30
0.0
0
VERTEX
5
513
100
AcDbEntity
8
0-0
6
CONTINUOUS
62
  7
100
AcDbVertex
100
AcDb2dVertex
10
-0.813946332235
20
328.521670991550
30
0.0
0
VERTEX
5
514
100
AcDbEntity
8
0-0
6
CONTINUOUS
62
  7
100
AcDbVertex
100
AcDb2dVertex
10
-0.000000000000
20
328.510169802974
30
0.0
0
SEQEND
5
515
100
AcDbEntity
8
0-0
0
POLYLINE
5
516
100
AcDbEntity
8
0-0
6
CONTINUOUS
62
  7
100
AcDb2dPolyline
66
1
10
0.0
20
0.0
30
0.0
70
0
0
VERTEX
5
517
100
AcDbEntity
8
0-0
6
CONTINUOUS
62
  7
100
AcDbVertex
100
AcDb2dVertex
10
-9.814954576224
20
329.269359181529
30
0.0
0
VERTEX
5
518
100
AcDbEntity
8
0-0
6
CONTINUOUS
62
  7
100
AcDbVertex
100
AcDb2dVertex
10
-9.777676772700
20
329.137527329439
30
0.0
0
VERTEX
5
519
100
AcDbEntity
8
0-0
6
CONTINUOUS
62
  7
100
AcDbVertex
100
AcDb2dVertex
10
-9.666976029325
20
329.009701121464
30
0.0
0
VERTEX
5
51a
100
AcDbEntity
8
0-0
6
CONTINUOUS
62
  7
100
AcDbVertex
100
AcDb2dVertex
10
-9.486215932168
20
328.889764492251
30
0.0
0
VERTEX
5
51b
100
AcDbEntity
8
0-0
6
CONTINUOUS
62
  7
100
AcDbVertex
100
AcDb2dVertex
10
-9.240888785313
20
328.781361655588
30
0.0
0
VERTEX
5
51c
100
AcDbEntity
8
0-0
6
CONTINUOUS
62
  7
100
AcDbVertex
100
AcDb2dVertex
10
-8.938448729976
20
328.687786376812
30
0.0
0
VERTEX
5
51d
100
AcDbEntity
8
0-0
6
CONTINUOUS
62
  7
100
AcDbVertex
100
AcDb2dVertex
10
-8.588085254196
20
328.611881893417
30
0.0
0
VERTEX
5
51e
100
AcDbEntity
8
0-0
6
CONTINUOUS
62
  7
100
AcDbVertex
100
AcDb2dVertex
10
-8.200443974892
20
328.555954524722
30
0.0
0
VERTEX
5
51f
100
AcDbEntity
8
0-0
6
CONTINUOUS
62
  7
100
AcDbVertex
100
AcDb2dVertex
10
-7.787303176179
20
328.521703595523
30
0.0
0
VERTEX
5
520
100
AcDbEntity
8
0-0
6
CONTINUOUS
62
  7
100
AcDbVertex
100
AcDb2dVertex
10
-7.361215932168
20
328.510169802974
30
0.0
0
VERTEX
5
521
100
AcDbEntity
8
0-0
6
CONTINUOUS
62
  7
100
AcDbVertex
100
AcDb2dVertex
10
-6.935128688157
20
328.521703595523
30
0.0
0
VERTEX
5
522
100
AcDbEntity
8
0-0
6
CONTINUOUS
62
  7
100
AcDbVertex
100
AcDb2dVertex
10
-6.521987889444
20
328.555954524722
30
0.0
0
VERTEX
5
523
100
AcDbEntity
8
0-0
6
CONTINUOUS
62
  7
100
AcDbVertex
100
AcDb2dVertex
10
-6.134346610140
20
328.611881893417
30
0.0
0
VERTEX
5
524
100
AcDbEntity
8
0-0
6
CONTINUOUS
62
  7
100
AcDbVertex
100
AcDb2dVertex
10
-5.783983134360
20
328.687786376812
30
0.0
0
VERTEX
5
525
100
AcDbEntity
8
0-0
6
CONTINUOUS
62
  7
100
AcDbVertex
100
AcDb2dVertex
10
-5.481543079023
20
328.781361655588
30
0.0
0
VERTEX
5
526
100
AcDbEntity
8
0-0
6
CONTINUOUS
62
  7
100
AcDbVertex
100
AcDb2dVertex
10
-5.236215932168
20
328.889764492251
30
0.0
0
VERTEX
5
527
100
AcDbEntity
8
0-0
6
CONTINUOUS
62
  7
100
AcDbVertex
100
AcDb2dVertex
10
-5.055455835011
20
329.009701121464
30
0.0
0
VERTEX
5
528
100
AcDbEntity
8
0-0
6
CONTINUOUS
62
  7
100
AcDbVertex
100
AcDb2dVertex
10
-4.944755091636
20
329.137527329439
30
0.0
0
VERTEX
5
529
100
AcDbEntity
8
0-0
6
CONTINUOUS
62
  7
100
AcDbVertex
100
AcDb2dVertex
10
-4.907477288112
20
329.269359181529
30
0.0
0
SEQEND
5
52a
100
AcDbEntity
8
0-0
0
POLYLINE
5
52b
100
AcDbEntity
8
0-0
6
CONTINUOUS
62
  7
100
AcDb2dPolyline
66
1
10
0.0
20
0.0
30
0.0
70
0
0
VERTEX
5
52c
100
AcDbEntity
8
0-0
6
CONTINUOUS
62
  7
100
AcDbVertex
100
AcDb2dVertex
10
-0.000000000000
20
328.510169802974
30
0.0
0
VERTEX
5
52d
100
AcDbEntity
8
0-0
6
CONTINUOUS
62
  7
100
AcDbVertex
100
AcDb2dVertex
10
0.859467363692
20
328.522934784051
30
0.0
0
VERTEX
5
52e
100
AcDbEntity
8
0-0
6
CONTINUOUS
62
  7
100
AcDbVertex
100
AcDb2dVertex
10
1.691414618558
20
328.558379492737
30
0.0
0
VERTEX
5
52f
100
AcDbEntity
8
0-0
6
CONTINUOUS
62
  7
100
AcDbVertex
100
AcDb2dVertex
10
2.470563468246
20
328.615426959494
30
0.0
0
VERTEX
5
530
100
AcDbEntity
8
0-0
6
CONTINUOUS
62
  7
100
AcDbVertex
100
AcDb2dVertex
10
3.173239869226
20
328.692343825911
30
0.0
0
VERTEX
5
531
100
AcDbEntity
8
0-0
6
CONTINUOUS
62
  7
100
AcDbVertex
100
AcDb2dVertex
10
3.778093354625
20
328.786793011926
30
0.0
0
VERTEX
5
532
100
AcDbEntity
8
0-0
6
CONTINUOUS
62
  7
100
AcDbVertex
100
AcDb2dVertex
10
4.266745757360
20
328.895904726813
30
0.0
0
VERTEX
5
533
100
AcDbEntity
8
0-0
6
CONTINUOUS
62
  7
100
AcDbVertex
100
AcDb2dVertex
10
4.624349621444
20
329.016363666330
30
0.0
0
VERTEX
5
534
100
AcDbEntity
8
0-0
6
CONTINUOUS
62
  7
100
AcDbVertex
100
AcDb2dVertex
10
4.840039334424
20
329.144509746554
30
0.0
0
VERTEX
5
535
100
AcDbEntity
8
0-0
6
CONTINUOUS
62
  7
100
AcDbVertex
100
AcDb2dVertex
10
4.907477288112
20
329.269359181529
30
0.0
0
VERTEX
5
536
100
AcDbEntity
8
0-0
6
CONTINUOUS
62
  7
100
AcDbVertex
100
AcDb2dVertex
10
4.944755091636
20
329.137527329439
30
0.0
0
VERTEX
5
537
100
AcDbEntity
8
0-0
6
CONTINUOUS
62
  7
100
AcDbVertex
100
AcDb2dVertex
10
5.055455835011
20
329.009701121464
30
0.0
0
VERTEX
5
538
100
AcDbEntity
8
0-0
6
CONTINUOUS
62
  7
100
AcDbVertex
100
AcDb2dVertex
10
5.236215932168
20
328.889764492251
30
0.0
0
VERTEX
5
539
100
AcDbEntity
8
0-0
6
CONTINUOUS
62
  7
100
AcDbVertex
100
AcDb2dVertex
10
5.481543079022
20
328.781361655588
30
0.0
0
VERTEX
5
53a
100
AcDbEntity
8
0-0
6
CONTINUOUS
62
  7
100
AcDbVertex
100
AcDb2dVertex
10
5.783983134359
20
328.687786376812
30
0.0
0
VERTEX
5
53b
100
AcDbEntity
8
0-0
6
CONTINUOUS
62
  7
100
AcDbVertex
100
AcDb2dVertex
10
6.134346610140
20
328.611881893417
30
0.0
0
VERTEX
5
53c
100
AcDbEntity
8
0-0
6
CONTINUOUS
62
  7
100
AcDbVertex
100
AcDb2dVertex
10
6.521987889444
20
328.555954524722
30
0.0
0
VERTEX
5
53d
100
AcDbEntity
8
0-0
6
CONTINUOUS
62
  7
100
AcDbVertex
100
AcDb2dVertex
10
6.935128688156
20
328.521703595523
30
0.0
0
VERTEX
5
53e
100
AcDbEntity
8
0-0
6
CONTINUOUS
62
  7
100
AcDbVertex
100
AcDb2dVertex
10
7.361215932168
20
328.510169802974
30
0.0
0
VERTEX
5
53f
100
AcDbEntity
8
0-0
6
CONTINUOUS
62
  7
100
AcDbVertex
100
AcDb2dVertex
10
7.787303176179
20
328.521703595523
30
0.0
0
VERTEX
5
540
100
AcDbEntity
8
0-0
6
CONTINUOUS
62
  7
100
AcDbVertex
100
AcDb2dVertex
10
8.200443974891
20
328.555954524722
30
0.0
0
VERTEX
5
541
100
AcDbEntity
8
0-0
6
CONTINUOUS
62
  7
100
AcDbVertex
100
AcDb2dVertex
10
8.588085254195
20
328.611881893417
30
0.0
0
VERTEX
5
542
100
AcDbEntity
8
0-0
6
CONTINUOUS
62
  7
100
AcDbVertex
100
AcDb2dVertex
10
8.938448729976
20
328.687786376812
30
0.0
0
VERTEX
5
543
100
AcDbEntity
8
0-0
6
CONTINUOUS
62
  7
100
AcDbVertex
100
AcDb2dVertex
10
9.240888785313
20
328.781361655588
30
0.0
0
VERTEX
5
544
100
AcDbEntity
8
0-0
6
CONTINUOUS
62
  7
100
AcDbVertex
100
AcDb2dVertex
10
9.486215932168
20
328.889764492251
30
0.0
0
VERTEX
5
545
100
AcDbEntity
8
0-0
6
CONTINUOUS
62
  7
100
AcDbVertex
100
AcDb2dVertex
10
9.666976029324
20
329.009701121464
30
0.0
0
VERTEX
5
546
100
AcDbEntity
8
0-0
6
CONTINUOUS
62
  7
100
AcDbVertex
100
AcDb2dVertex
10
9.777676772699
20
329.137527329439
30
0.0
0
VERTEX
5
547
100
AcDbEntity
8
0-0
6
CONTINUOUS
62
  7
100
AcDbVertex
100
AcDb2dVertex
10
9.814954576223
20
329.269359181529
30
0.0
0
SEQEND
5
548
100
AcDbEntity
8
0-0
0
LINE
5
549
100
AcDbEntity
8
0-0
6
CONTINUOUS
62
7
100
AcDbLine
10
5.000000000000
20
310.384732410218
30
0.0
11
5.000000000000
21
328.510169802974
31
0.0
0
LINE
5
54a
100
AcDbEntity
8
0-0
6
CONTINUOUS
62
7
100
AcDbLine
10
-5.000000000000
20
310.384732410218
30
0.0
11
-5.000000000000
21
328.510169802974
31
0.0
0
LINE
5
54b
100
AcDbEntity
8
0-0
6
CONTINUOUS
62
7
100
AcDbLine
10
-12.000000000000
20
304.384732410218
30
0.0
11
-12.000000000000
21
303.984732410219
31
0.0
0
LINE
5
54c
100
AcDbEntity
8
0-0
6
CONTINUOUS
62
7
100
AcDbLine
10
11.999999999999
20
304.384732410218
30
0.0
11
11.999999999999
21
303.984732410219
31
0.0
0
LINE
5
54d
100
AcDbEntity
8
0-0
6
CONTINUOUS
62
7
100
AcDbLine
10
16.999999999999
20
303.984732410219
30
0.0
11
-16.999999999767
21
303.984732410219
31
0.0
0
ARC
5
54e
100
AcDbEntity
8
0-0
6
CONTINUOUS
62
7
100
AcDbCircle
10
-17.000000000000
20
300.984732410219
30
0.0
40
3.000000000000
100
AcDbArc
50
90.000000000000
51
180.000000000000
0
ARC
5
54f
100
AcDbEntity
8
0-0
6
CONTINUOUS
62
7
100
AcDbCircle
10
17.000000000000
20
300.984732410219
30
0.0
40
3.000000000000
100
AcDbArc
50
359.999999999999
51
450.000000000001
0
LINE
5
550
100
AcDbEntity
8
0-0
6
CONTINUOUS
62
7
100
AcDbLine
10
-20.000000000000
20
295.984732410219
30
0.0
11
20.000000000000
21
295.984732410219
31
0.0
0
LINE
5
551
100
AcDbEntity
8
0-0
6
CONTINUOUS
62
7
100
AcDbLine
10
-20.000000000000
20
300.984732410219
30
0.0
11
-20.000000000000
21
293.484732410219
31
0.0
0
LINE
5
552
100
AcDbEntity
8
0-0
6
CONTINUOUS
62
7
100
AcDbLine
10
-17.750000000000
20
293.484732410219
30
0.0
11
-17.750000000000
21
290.384732410218
31
0.0
0
LINE
5
553
100
AcDbEntity
8
0-0
6
CONTINUOUS
62
7
100
AcDbLine
10
20.000000000000
20
293.484732410219
30
0.0
11
-20.000000000000
21
293.484732410219
31
0.0
0
LINE
5
554
100
AcDbEntity
8
0-0
6
CONTINUOUS
62
7
100
AcDbLine
10
20.000000000000
20
293.484732410219
30
0.0
11
20.000000000000
21
300.984732410219
31
0.0
0
LINE
5
555
100
AcDbEntity
8
0-0
6
CONTINUOUS
62
7
100
AcDbLine
10
17.750000000000
20
290.384732410218
30
0.0
11
17.750000000000
21
293.484732410219
31
0.0
0
LINE
5
556
100
AcDbEntity
8
0-1
6
CENTER
62
4
100
AcDbLine
10
20.000000000000
20
430.128559005622
30
0.0
11
-20.000000000000
21
430.128559005622
31
0.0
0
LINE
5
557
100
AcDbEntity
8
0-1
6
CENTER
62
4
100
AcDbLine
10
0.000000000000
20
374.311858214117
30
0.0
11
0.000000000000
21
290.384732410218
31
0.0
0
LINE
5
558
100
AcDbEntity
8
0-1
6
CENTER
62
4
100
AcDbLine
10
0.000000000000
20
450.128559005622
30
0.0
11
0.000000000000
21
410.128559005622
31
0.0
0
CIRCLE
5
559
100
AcDbEntity
8
0-1
6
CONTINUOUS
62
4
100
AcDbCircle
10
100.000000000000
20
430.128559005622
30
0.0
40
8.500000000000
0
CIRCLE
5
55a
100
AcDbEntity
8
0-1
6
CONTINUOUS
62
4
100
AcDbCircle
10
100.000000000000
20
430.128559005622
30
0.0
40
5.000000000000
0
LINE
5
55b
100
AcDbEntity
8
0-1
6
CONTINUOUS
62
4
100
AcDbLine
10
95.699999809300
20
329.310169802974
30
0.0
11
95.699999809300
21
308.984732410219
31
0.0
0
LINE
5
55c
100
AcDbEntity
8
0-1
6
CONTINUOUS
62
4
100
AcDbLine
10
104.300000190700
20
308.984732410219
30
0.0
11
104.300000190700
21
329.310169802974
31
0.0
0
LINE
5
55d
100
AcDbEntity
8
0-1
6
CONTINUOUS
62
4
100
AcDbLine
10
95.000000000000
20
389.384732410218
30
0.0
11
105.000000000000
21
389.384732410218
31
0.0
0
LINE
5
55e
100
AcDbEntity
8
0-1
6
CONTINUOUS
62
4
100
AcDbLine
10
95.699999809300
20
337.110169802974
30
0.0
11
95.699999809300
21
390.084732219518
31
0.0
0
LINE
5
55f
100
AcDbEntity
8
0-1
6
CONTINUOUS
62
4
100
AcDbLine
10
104.300000190700
20
390.084732219518
30
0.0
11
104.300000190700
21
337.110169802974
31
0.0
0
LINE
5
560
100
AcDbEntity
8
0-1
6
CONTINUOUS
62
4
100
AcDbLine
10
80.000000000000
20
300.884732410218
30
0.0
11
120.000000000000
21
300.884732410218
31
0.0
0
LINE
5
561
100
AcDbEntity
8
0-0
6
CONTINUOUS
62
7
100
AcDbLine
10
90.185045423776
20
330.069359181529
30
0.0
11
90.185045423776
21
336.350980424419
31
0.0
0
LINE
5
562
100
AcDbEntity
8
0-0
6
CONTINUOUS
62
7
100
AcDbLine
10
92.638784067776
20
337.110169802974
30
0.0
11
107.361215932224
21
337.110169802974
31
0.0
0
POLYLINE
5
563
100
AcDbEntity
8
0-0
6
CONTINUOUS
62
  7
100
AcDb2dPolyline
66
1
10
0.0
20
0.0
30
0.0
70
0
0
VERTEX
5
564
100
AcDbEntity
8
0-0
6
CONTINUOUS
62
  7
100
AcDbVertex
100
AcDb2dVertex
10
105.000000000000
20
337.110169802974
30
0.0
0
VERTEX
5
565
100
AcDbEntity
8
0-0
6
CONTINUOUS
62
  7
100
AcDbVertex
100
AcDb2dVertex
10
105.000000000000
20
389.384732410218
30
0.0
0
VERTEX
5
566
100
AcDbEntity
8
0-0
6
CONTINUOUS
62
  7
100
AcDbVertex
100
AcDb2dVertex
10
104.000000000000
20
390.384732410218
30
0.0
0
VERTEX
5
567
100
AcDbEntity
8
0-0
6
CONTINUOUS
62
  7
100
AcDbVertex
100
AcDb2dVertex
10
96.000000000000
20
390.384732410218
30
0.0
0
VERTEX
5
568
100
AcDbEntity
8
0-0
6
CONTINUOUS
62
  7
100
AcDbVertex
100
AcDb2dVertex
10
95.000000000000
20
389.384732410218
30
0.0
0
VERTEX
5
569
100
AcDbEntity
8
0-0
6
CONTINUOUS
62
  7
100
AcDbVertex
100
AcDb2dVertex
10
95.000000000000
20
337.110169802974
30
0.0
0
SEQEND
5
56a
100
AcDbEntity
8
0-0
0
LINE
5
56b
100
AcDbEntity
8
0-0
6
CONTINUOUS
62
7
100
AcDbLine
10
104.907477288112
20
336.350980424419
30
0.0
11
104.907477288112
21
330.069359181529
31
0.0
0
LINE
5
56c
100
AcDbEntity
8
0-0
6
CONTINUOUS
62
7
100
AcDbLine
10
105.000000000000
20
329.310169802974
30
0.0
11
105.000000000000
21
308.984732410219
31
0.0
0
POLYLINE
5
56d
100
AcDbEntity
8
0-0
6
CONTINUOUS
62
  7
100
AcDb2dPolyline
66
1
10
0.0
20
0.0
30
0.0
70
0
0
VERTEX
5
56e
100
AcDbEntity
8
0-0
6
CONTINUOUS
62
  7
100
AcDbVertex
100
AcDb2dVertex
10
104.907477288112
20
308.984732410219
30
0.0
0
VERTEX
5
56f
100
AcDbEntity
8
0-0
6
CONTINUOUS
62
  7
100
AcDbVertex
100
AcDb2dVertex
10
104.907477288112
20
304.661271603659
30
0.0
0
VERTEX
5
570
100
AcDbEntity
8
0-0
6
CONTINUOUS
62
  7
100
AcDbVertex
100
AcDb2dVertex
10
105.526476608862
20
304.507696146761
30
0.0
0
VERTEX
5
571
100
AcDbEntity
8
0-0
6
CONTINUOUS
62
  7
100
AcDbVertex
100
AcDb2dVertex
10
106.146924779289
20
304.392356251648
30
0.0
0
VERTEX
5
572
100
AcDbEntity
8
0-0
6
CONTINUOUS
62
  7
100
AcDbVertex
100
AcDb2dVertex
10
106.766597003195
20
304.321364174512
30
0.0
0
VERTEX
5
573
100
AcDbEntity
8
0-0
6
CONTINUOUS
62
  7
100
AcDbVertex
100
AcDb2dVertex
10
107.386230102953
20
304.298566127270
30
0.0
0
VERTEX
5
574
100
AcDbEntity
8
0-0
6
CONTINUOUS
62
  7
100
AcDbVertex
100
AcDb2dVertex
10
107.997167088642
20
304.324631475189
30
0.0
0
VERTEX
5
575
100
AcDbEntity
8
0-0
6
CONTINUOUS
62
  7
100
AcDbVertex
100
AcDb2dVertex
10
108.606305432966
20
304.397079011492
30
0.0
0
VERTEX
5
576
100
AcDbEntity
8
0-0
6
CONTINUOUS
62
  7
100
AcDbVertex
100
AcDb2dVertex
10
109.211870433186
20
304.511189093009
30
0.0
0
VERTEX
5
577
100
AcDbEntity
8
0-0
6
CONTINUOUS
62
  7
100
AcDbVertex
100
AcDb2dVertex
10
109.814954576224
20
304.661271603659
30
0.0
0
VERTEX
5
578
100
AcDbEntity
8
0-0
6
CONTINUOUS
62
  7
100
AcDbVertex
100
AcDb2dVertex
10
108.450000000000
20
304.284732410218
30
0.0
0
SEQEND
5
579
100
AcDbEntity
8
0-0
0
POLYLINE
5
57a
100
AcDbEntity
8
0-0
6
CONTINUOUS
62
  7
100
AcDb2dPolyline
66
1
10
0.0
20
0.0
30
0.0
70
0
0
VERTEX
5
57b
100
AcDbEntity
8
0-0
6
CONTINUOUS
62
  7
100
AcDbVertex
100
AcDb2dVertex
10
109.814954576224
20
304.661271603659
30
0.0
0
VERTEX
5
57c
100
AcDbEntity
8
0-0
6
CONTINUOUS
62
  7
100
AcDbVertex
100
AcDb2dVertex
10
109.814954576224
20
308.984732410219
30
0.0
0
VERTEX
5
57d
100
AcDbEntity
8
0-0
6
CONTINUOUS
62
  7
100
AcDbVertex
100
AcDb2dVertex
10
90.185045423776
20
308.984732410219
30
0.0
0
VERTEX
5
57e
100
AcDbEntity
8
0-0
6
CONTINUOUS
62
  7
100
AcDbVertex
100
AcDb2dVertex
10
90.185045423776
20
304.661271603659
30
0.0
0
VERTEX
5
57f
100
AcDbEntity
8
0-0
6
CONTINUOUS
62
  7
100
AcDbVertex
100
AcDb2dVertex
10
90.804044744526
20
304.507696146761
30
0.0
0
VERTEX
5
580
100
AcDbEntity
8
0-0
6
CONTINUOUS
62
  7
100
AcDbVertex
100
AcDb2dVertex
10
91.424492914953
20
304.392356251648
30
0.0
0
VERTEX
5
581
100
AcDbEntity
8
0-0
6
CONTINUOUS
62
  7
100
AcDbVertex
100
AcDb2dVertex
10
92.044165138859
20
304.321364174512
30
0.0
0
VERTEX
5
582
100
AcDbEntity
8
0-0
6
CONTINUOUS
62
  7
100
AcDbVertex
100
AcDb2dVertex
10
92.663798238618
20
304.298566127270
30
0.0
0
VERTEX
5
583
100
AcDbEntity
8
0-0
6
CONTINUOUS
62
  7
100
AcDbVertex
100
AcDb2dVertex
10
93.274735224307
20
304.324631475189
30
0.0
0
VERTEX
5
584
100
AcDbEntity
8
0-0
6
CONTINUOUS
62
  7
100
AcDbVertex
100
AcDb2dVertex
10
93.883873568631
20
304.397079011492
30
0.0
0
VERTEX
5
585
100
AcDbEntity
8
0-0
6
CONTINUOUS
62
  7
100
AcDbVertex
100
AcDb2dVertex
10
94.489438568850
20
304.511189093009
30
0.0
0
VERTEX
5
586
100
AcDbEntity
8
0-0
6
CONTINUOUS
62
  7
100
AcDbVertex
100
AcDb2dVertex
10
95.092522711888
20
304.661271603659
30
0.0
0
VERTEX
5
587
100
AcDbEntity
8
0-0
6
CONTINUOUS
62
  7
100
AcDbVertex
100
AcDb2dVertex
10
96.170187529333
20
304.525547192471
30
0.0
0
VERTEX
5
588
100
AcDbEntity
8
0-0
6
CONTINUOUS
62
  7
100
AcDbVertex
100
AcDb2dVertex
10
97.250259112299
20
304.418168116696
30
0.0
0
VERTEX
5
589
100
AcDbEntity
8
0-0
6
CONTINUOUS
62
  7
100
AcDbVertex
100
AcDb2dVertex
10
98.330019369026
20
304.343351970277
30
0.0
0
VERTEX
5
58a
100
AcDbEntity
8
0-0
6
CONTINUOUS
62
  7
100
AcDbVertex
100
AcDb2dVertex
10
99.410459569109
20
304.304158632385
30
0.0
0
VERTEX
5
58b
100
AcDbEntity
8
0-0
6
CONTINUOUS
62
  7
100
AcDbVertex
100
AcDb2dVertex
10
100.479297787964
20
304.302250366398
30
0.0
0
VERTEX
5
58c
100
AcDbEntity
8
0-0
6
CONTINUOUS
62
  7
100
AcDbVertex
100
AcDb2dVertex
10
101.546325500329
20
304.337010863479
30
0.0
0
VERTEX
5
58d
100
AcDbEntity
8
0-0
6
CONTINUOUS
62
  7
100
AcDbVertex
100
AcDb2dVertex
10
102.608464951460
20
304.406452869063
30
0.0
0
VERTEX
5
58e
100
AcDbEntity
8
0-0
6
CONTINUOUS
62
  7
100
AcDbVertex
100
AcDb2dVertex
10
103.667156929779
20
304.507442364556
30
0.0
0
VERTEX
5
58f
100
AcDbEntity
8
0-0
6
CONTINUOUS
62
  7
100
AcDbVertex
100
AcDb2dVertex
10
104.907477288112
20
304.661271603659
30
0.0
0
SEQEND
5
590
100
AcDbEntity
8
0-0
0
LINE
5
591
100
AcDbEntity
8
0-0
6
CONTINUOUS
62
7
100
AcDbLine
10
107.361215932224
20
329.310169802974
30
0.0
11
92.638784067776
21
329.310169802974
31
0.0
0
LINE
5
592
100
AcDbEntity
8
0-0
6
CONTINUOUS
62
7
100
AcDbLine
10
95.000000000000
20
329.310169802974
30
0.0
11
95.000000000000
21
308.984732410219
31
0.0
0
LINE
5
593
100
AcDbEntity
8
0-0
6
CONTINUOUS
62
7
100
AcDbLine
10
95.092522711888
20
308.984732410219
30
0.0
11
95.092522711888
21
304.661271603659
31
0.0
0
LINE
5
594
100
AcDbEntity
8
0-0
6
CONTINUOUS
62
7
100
AcDbLine
10
91.550000000000
20
304.284732410218
30
0.0
11
90.185045423776
21
304.661271603659
31
0.0
0
LINE
5
595
100
AcDbEntity
8
0-0
6
CONTINUOUS
62
7
100
AcDbLine
10
88.000000000000
20
304.284732410218
30
0.0
11
88.000000000000
21
303.884732410218
31
0.0
0
POLYLINE
5
596
100
AcDbEntity
8
0-0
6
CONTINUOUS
62
  7
100
AcDb2dPolyline
66
1
10
0.0
20
0.0
30
0.0
70
0
0
VERTEX
5
597
100
AcDbEntity
8
0-0
6
CONTINUOUS
62
  7
100
AcDbVertex
100
AcDb2dVertex
10
88.000000000000
20
304.284732410218
30
0.0
0
VERTEX
5
598
100
AcDbEntity
8
0-0
6
CONTINUOUS
62
  7
100
AcDbVertex
100
AcDb2dVertex
10
112.000000000000
20
304.284732410218
30
0.0
0
VERTEX
5
599
100
AcDbEntity
8
0-0
6
CONTINUOUS
62
  7
100
AcDbVertex
100
AcDb2dVertex
10
112.000000000000
20
303.884732410218
30
0.0
0
SEQEND
5
59a
100
AcDbEntity
8
0-0
0
LINE
5
59b
100
AcDbEntity
8
0-0
6
CONTINUOUS
62
7
100
AcDbLine
10
117.000000000000
20
303.884732410218
30
0.0
11
83.000000000250
21
303.884732410218
31
0.0
0
LINE
5
59c
100
AcDbEntity
8
0-0
6
CONTINUOUS
62
7
100
AcDbLine
10
120.000000000000
20
295.884732410219
30
0.0
11
80.000000000000
21
295.884732410219
31
0.0
0
POLYLINE
5
59d
100
AcDbEntity
8
0-0
6
CONTINUOUS
62
  7
100
AcDb2dPolyline
66
1
10
0.0
20
0.0
30
0.0
70
0
0
VERTEX
5
59e
100
AcDbEntity
8
0-0
6
CONTINUOUS
62
  7
100
AcDbVertex
100
AcDb2dVertex
10
95.092522711888
20
438.628559005622
30
0.0
0
VERTEX
5
59f
100
AcDbEntity
8
0-0
6
CONTINUOUS
62
  7
100
AcDbVertex
100
AcDb2dVertex
10
104.907477288112
20
438.628559005622
30
0.0
0
VERTEX
5
5a0
100
AcDbEntity
8
0-0
6
CONTINUOUS
62
  7
100
AcDbVertex
100
AcDb2dVertex
10
109.814954576224
20
430.128559005622
30
0.0
0
VERTEX
5
5a1
100
AcDbEntity
8
0-0
6
CONTINUOUS
62
  7
100
AcDbVertex
100
AcDb2dVertex
10
104.907477288112
20
421.628559005622
30
0.0
0
VERTEX
5
5a2
100
AcDbEntity
8
0-0
6
CONTINUOUS
62
  7
100
AcDbVertex
100
AcDb2dVertex
10
95.092522711888
20
421.628559005622
30
0.0
0
VERTEX
5
5a3
100
AcDbEntity
8
0-0
6
CONTINUOUS
62
  7
100
AcDbVertex
100
AcDb2dVertex
10
90.185045423776
20
430.128559005622
30
0.0
0
VERTEX
5
5a4
100
AcDbEntity
8
0-0
6
CONTINUOUS
62
  7
100
AcDbVertex
100
AcDb2dVertex
10
95.092522711888
20
438.628559005622
30
0.0
0
SEQEND
5
5a5
100
AcDbEntity
8
0-0
0
LINE
5
5a6
100
AcDbEntity
8
0-0
6
CONTINUOUS
62
7
100
AcDbLine
10
109.814954576224
20
336.350980424419
30
0.0
11
109.814954576224
21
330.069359181529
31
0.0
0
LINE
5
5a7
100
AcDbEntity
8
0-0
6
CONTINUOUS
62
7
100
AcDbLine
10
95.092522711888
20
330.069359181529
30
0.0
11
95.092522711888
21
336.350980424419
31
0.0
0
POLYLINE
5
5a8
100
AcDbEntity
8
0-0
6
CONTINUOUS
62
  7
100
AcDb2dPolyline
66
1
10
0.0
20
0.0
30
0.0
70
0
0
VERTEX
5
5a9
100
AcDbEntity
8
0-0
6
CONTINUOUS
62
  7
100
AcDbVertex
100
AcDb2dVertex
10
95.092522711888
20
330.069359181529
30
0.0
0
VERTEX
5
5aa
100
AcDbEntity
8
0-0
6
CONTINUOUS
62
  7
100
AcDbVertex
100
AcDb2dVertex
10
95.167781132882
20
329.937521580479
30
0.0
0
VERTEX
5
5ab
100
AcDbEntity
8
0-0
6
CONTINUOUS
62
  7
100
AcDbVertex
100
AcDb2dVertex
10
95.391269706823
20
329.809689798223
30
0.0
0
VERTEX
5
5ac
100
AcDbEntity
8
0-0
6
CONTINUOUS
62
  7
100
AcDbVertex
100
AcDb2dVertex
10
95.756197846483
20
329.689747938780
30
0.0
0
VERTEX
5
5ad
100
AcDbEntity
8
0-0
6
CONTINUOUS
62
  7
100
AcDbVertex
100
AcDb2dVertex
10
96.251477395001
20
329.581340374856
30
0.0
0
VERTEX
5
5ae
100
AcDbEntity
8
0-0
6
CONTINUOUS
62
  7
100
AcDbVertex
100
AcDb2dVertex
10
96.862059533920
20
329.487761015423
30
0.0
0
VERTEX
5
5af
100
AcDbEntity
8
0-0
6
CONTINUOUS
62
  7
100
AcDbVertex
100
AcDb2dVertex
10
97.569392033916
20
329.411853221964
30
0.0
0
VERTEX
5
5b0
100
AcDbEntity
8
0-0
6
CONTINUOUS
62
  7
100
AcDbVertex
100
AcDb2dVertex
10
98.351982954906
20
329.355923414373
30
0.0
0
VERTEX
5
5b1
100
AcDbEntity
8
0-0
6
CONTINUOUS
62
  7
100
AcDbVertex
100
AcDb2dVertex
10
99.186053667766
20
329.321670991550
30
0.0
0
VERTEX
5
5b2
100
AcDbEntity
8
0-0
6
CONTINUOUS
62
  7
100
AcDbVertex
100
AcDb2dVertex
10
100.000000000000
20
329.310169802974
30
0.0
0
SEQEND
5
5b3
100
AcDbEntity
8
0-0
0
POLYLINE
5
5b4
100
AcDbEntity
8
0-0
6
CONTINUOUS
62
  7
100
AcDb2dPolyline
66
1
10
0.0
20
0.0
30
0.0
70
0
0
VERTEX
5
5b5
100
AcDbEntity
8
0-0
6
CONTINUOUS
62
  7
100
AcDbVertex
100
AcDb2dVertex
10
90.185045423776
20
330.069359181529
30
0.0
0
VERTEX
5
5b6
100
AcDbEntity
8
0-0
6
CONTINUOUS
62
  7
100
AcDbVertex
100
AcDb2dVertex
10
90.222323227300
20
329.937527329439
30
0.0
0
VERTEX
5
5b7
100
AcDbEntity
8
0-0
6
CONTINUOUS
62
  7
100
AcDbVertex
100
AcDb2dVertex
10
90.333023970675
20
329.809701121464
30
0.0
0
VERTEX
5
5b8
100
AcDbEntity
8
0-0
6
CONTINUOUS
62
  7
100
AcDbVertex
100
AcDb2dVertex
10
90.513784067832
20
329.689764492251
30
0.0
0
VERTEX
5
5b9
100
AcDbEntity
8
0-0
6
CONTINUOUS
62
  7
100
AcDbVertex
100
AcDb2dVertex
10
90.759111214686
20
329.581361655588
30
0.0
0
VERTEX
5
5ba
100
AcDbEntity
8
0-0
6
CONTINUOUS
62
  7
100
AcDbVertex
100
AcDb2dVertex
10
91.061551270024
20
329.487786376812
30
0.0
0
VERTEX
5
5bb
100
AcDbEntity
8
0-0
6
CONTINUOUS
62
  7
100
AcDbVertex
100
AcDb2dVertex
10
91.411914745804
20
329.411881893417
30
0.0
0
VERTEX
5
5bc
100
AcDbEntity
8
0-0
6
CONTINUOUS
62
  7
100
AcDbVertex
100
AcDb2dVertex
10
91.799556025108
20
329.355954524722
30
0.0
0
VERTEX
5
5bd
100
AcDbEntity
8
0-0
6
CONTINUOUS
62
  7
100
AcDbVertex
100
AcDb2dVertex
10
92.212696823821
20
329.321703595524
30
0.0
0
VERTEX
5
5be
100
AcDbEntity
8
0-0
6
CONTINUOUS
62
  7
100
AcDbVertex
100
AcDb2dVertex
10
92.638784067832
20
329.310169802974
30
0.0
0
VERTEX
5
5bf
100
AcDbEntity
8
0-0
6
CONTINUOUS
62
  7
100
AcDbVertex
100
AcDb2dVertex
10
93.064871311843
20
329.321703595524
30
0.0
0
VERTEX
5
5c0
100
AcDbEntity
8
0-0
6
CONTINUOUS
62
  7
100
AcDbVertex
100
AcDb2dVertex
10
93.478012110556
20
329.355954524722
30
0.0
0
VERTEX
5
5c1
100
AcDbEntity
8
0-0
6
CONTINUOUS
62
  7
100
AcDbVertex
100
AcDb2dVertex
10
93.865653389860
20
329.411881893417
30
0.0
0
VERTEX
5
5c2
100
AcDbEntity
8
0-0
6
CONTINUOUS
62
  7
100
AcDbVertex
100
AcDb2dVertex
10
94.216016865640
20
329.487786376812
30
0.0
0
VERTEX
5
5c3
100
AcDbEntity
8
0-0
6
CONTINUOUS
62
  7
100
AcDbVertex
100
AcDb2dVertex
10
94.518456920977
20
329.581361655588
30
0.0
0
VERTEX
5
5c4
100
AcDbEntity
8
0-0
6
CONTINUOUS
62
  7
100
AcDbVertex
100
AcDb2dVertex
10
94.763784067832
20
329.689764492251
30
0.0
0
VERTEX
5
5c5
100
AcDbEntity
8
0-0
6
CONTINUOUS
62
  7
100
AcDbVertex
100
AcDb2dVertex
10
94.944544164988
20
329.809701121464
30
0.0
0
VERTEX
5
5c6
100
AcDbEntity
8
0-0
6
CONTINUOUS
62
  7
100
AcDbVertex
100
AcDb2dVertex
10
95.055244908364
20
329.937527329439
30
0.0
0
VERTEX
5
5c7
100
AcDbEntity
8
0-0
6
CONTINUOUS
62
  7
100
AcDbVertex
100
AcDb2dVertex
10
95.092522711888
20
330.069359181529
30
0.0
0
SEQEND
5
5c8
100
AcDbEntity
8
0-0
0
POLYLINE
5
5c9
100
AcDbEntity
8
0-0
6
CONTINUOUS
62
  7
100
AcDb2dPolyline
66
1
10
0.0
20
0.0
30
0.0
70
0
0
VERTEX
5
5ca
100
AcDbEntity
8
0-0
6
CONTINUOUS
62
  7
100
AcDbVertex
100
AcDb2dVertex
10
100.000000000000
20
329.310169802974
30
0.0
0
VERTEX
5
5cb
100
AcDbEntity
8
0-0
6
CONTINUOUS
62
  7
100
AcDbVertex
100
AcDb2dVertex
10
100.859467363692
20
329.322934784052
30
0.0
0
VERTEX
5
5cc
100
AcDbEntity
8
0-0
6
CONTINUOUS
62
  7
100
AcDbVertex
100
AcDb2dVertex
10
101.691414618558
20
329.358379492737
30
0.0
0
VERTEX
5
5cd
100
AcDbEntity
8
0-0
6
CONTINUOUS
62
  7
100
AcDbVertex
100
AcDb2dVertex
10
102.470563468246
20
329.415426959494
30
0.0
0
VERTEX
5
5ce
100
AcDbEntity
8
0-0
6
CONTINUOUS
62
  7
100
AcDbVertex
100
AcDb2dVertex
10
103.173239869226
20
329.492343825912
30
0.0
0
VERTEX
5
5cf
100
AcDbEntity
8
0-0
6
CONTINUOUS
62
  7
100
AcDbVertex
100
AcDb2dVertex
10
103.778093354625
20
329.586793011926
30
0.0
0
VERTEX
5
5d0
100
AcDbEntity
8
0-0
6
CONTINUOUS
62
  7
100
AcDbVertex
100
AcDb2dVertex
10
104.266745757360
20
329.695904726813
30
0.0
0
VERTEX
5
5d1
100
AcDbEntity
8
0-0
6
CONTINUOUS
62
  7
100
AcDbVertex
100
AcDb2dVertex
10
104.624349621444
20
329.816363666330
30
0.0
0
VERTEX
5
5d2
100
AcDbEntity
8
0-0
6
CONTINUOUS
62
  7
100
AcDbVertex
100
AcDb2dVertex
10
104.840039334424
20
329.944509746554
30
0.0
0
VERTEX
5
5d3
100
AcDbEntity
8
0-0
6
CONTINUOUS
62
  7
100
AcDbVertex
100
AcDb2dVertex
10
104.907477288111
20
330.069359181529
30
0.0
0
SEQEND
5
5d4
100
AcDbEntity
8
0-0
0
POLYLINE
5
5d5
100
AcDbEntity
8
0-0
6
CONTINUOUS
62
  7
100
AcDb2dPolyline
66
1
10
0.0
20
0.0
30
0.0
70
0
0
VERTEX
5
5d6
100
AcDbEntity
8
0-0
6
CONTINUOUS
62
  7
100
AcDbVertex
100
AcDb2dVertex
10
104.907477288112
20
330.069359181529
30
0.0
0
VERTEX
5
5d7
100
AcDbEntity
8
0-0
6
CONTINUOUS
62
  7
100
AcDbVertex
100
AcDb2dVertex
10
104.944755091636
20
329.937527329439
30
0.0
0
VERTEX
5
5d8
100
AcDbEntity
8
0-0
6
CONTINUOUS
62
  7
100
AcDbVertex
100
AcDb2dVertex
10
105.055455835011
20
329.809701121464
30
0.0
0
VERTEX
5
5d9
100
AcDbEntity
8
0-0
6
CONTINUOUS
62
  7
100
AcDbVertex
100
AcDb2dVertex
10
105.236215932168
20
329.689764492251
30
0.0
0
VERTEX
5
5da
100
AcDbEntity
8
0-0
6
CONTINUOUS
62
  7
100
AcDbVertex
100
AcDb2dVertex
10
105.481543079023
20
329.581361655588
30
0.0
0
VERTEX
5
5db
100
AcDbEntity
8
0-0
6
CONTINUOUS
62
  7
100
AcDbVertex
100
AcDb2dVertex
10
105.783983134360
20
329.487786376812
30
0.0
0
VERTEX
5
5dc
100
AcDbEntity
8
0-0
6
CONTINUOUS
62
  7
100
AcDbVertex
100
AcDb2dVertex
10
106.134346610140
20
329.411881893417
30
0.0
0
VERTEX
5
5dd
100
AcDbEntity
8
0-0
6
CONTINUOUS
62
  7
100
AcDbVertex
100
AcDb2dVertex
10
106.521987889444
20
329.355954524722
30
0.0
0
VERTEX
5
5de
100
AcDbEntity
8
0-0
6
CONTINUOUS
62
  7
100
AcDbVertex
100
AcDb2dVertex
10
106.935128688157
20
329.321703595524
30
0.0
0
VERTEX
5
5df
100
AcDbEntity
8
0-0
6
CONTINUOUS
62
  7
100
AcDbVertex
100
AcDb2dVertex
10
107.361215932168
20
329.310169802974
30
0.0
0
VERTEX
5
5e0
100
AcDbEntity
8
0-0
6
CONTINUOUS
62
  7
100
AcDbVertex
100
AcDb2dVertex
10
107.787303176179
20
329.321703595524
30
0.0
0
VERTEX
5
5e1
100
AcDbEntity
8
0-0
6
CONTINUOUS
62
  7
100
AcDbVertex
100
AcDb2dVertex
10
108.200443974892
20
329.355954524722
30
0.0
0
VERTEX
5
5e2
100
AcDbEntity
8
0-0
6
CONTINUOUS
62
  7
100
AcDbVertex
100
AcDb2dVertex
10
108.588085254196
20
329.411881893417
30
0.0
0
VERTEX
5
5e3
100
AcDbEntity
8
0-0
6
CONTINUOUS
62
  7
100
AcDbVertex
100
AcDb2dVertex
10
108.938448729976
20
329.487786376812
30
0.0
0
VERTEX
5
5e4
100
AcDbEntity
8
0-0
6
CONTINUOUS
62
  7
100
AcDbVertex
100
AcDb2dVertex
10
109.240888785313
20
329.581361655588
30
0.0
0
VERTEX
5
5e5
100
AcDbEntity
8
0-0
6
CONTINUOUS
62
  7
100
AcDbVertex
100
AcDb2dVertex
10
109.486215932168
20
329.689764492251
30
0.0
0
VERTEX
5
5e6
100
AcDbEntity
8
0-0
6
CONTINUOUS
62
  7
100
AcDbVertex
100
AcDb2dVertex
10
109.666976029325
20
329.809701121464
30
0.0
0
VERTEX
5
5e7
100
AcDbEntity
8
0-0
6
CONTINUOUS
62
  7
100
AcDbVertex
100
AcDb2dVertex
10
109.777676772700
20
329.937527329439
30
0.0
0
VERTEX
5
5e8
100
AcDbEntity
8
0-0
6
CONTINUOUS
62
  7
100
AcDbVertex
100
AcDb2dVertex
10
109.814954576224
20
330.069359181529
30
0.0
0
SEQEND
5
5e9
100
AcDbEntity
8
0-0
0
ARC
5
5ea
100
AcDbEntity
8
0-0
6
CONTINUOUS
62
7
100
AcDbCircle
10
83.000000000000
20
300.884732410218
30
0.0
40
3.000000000000
100
AcDbArc
50
89.999999999999
51
180.000000000000
0
ARC
5
5eb
100
AcDbEntity
8
0-0
6
CONTINUOUS
62
7
100
AcDbCircle
10
117.000000000000
20
300.884732410218
30
0.0
40
3.000000000000
100
AcDbArc
50
360.000000000000
51
450.000000000001
0
POLYLINE
5
5ec
100
AcDbEntity
8
0-0
6
CONTINUOUS
62
  7
100
AcDb2dPolyline
66
1
10
0.0
20
0.0
30
0.0
70
0
0
VERTEX
5
5ed
100
AcDbEntity
8
0-0
6
CONTINUOUS
62
  7
100
AcDbVertex
100
AcDb2dVertex
10
95.092522711888
20
336.350980424419
30
0.0
0
VERTEX
5
5ee
100
AcDbEntity
8
0-0
6
CONTINUOUS
62
  7
100
AcDbVertex
100
AcDb2dVertex
10
95.055244908364
20
336.482812276510
30
0.0
0
VERTEX
5
5ef
100
AcDbEntity
8
0-0
6
CONTINUOUS
62
  7
100
AcDbVertex
100
AcDb2dVertex
10
94.944544164988
20
336.610638484484
30
0.0
0
VERTEX
5
5f0
100
AcDbEntity
8
0-0
6
CONTINUOUS
62
  7
100
AcDbVertex
100
AcDb2dVertex
10
94.763784067832
20
336.730575113697
30
0.0
0
VERTEX
5
5f1
100
AcDbEntity
8
0-0
6
CONTINUOUS
62
  7
100
AcDbVertex
100
AcDb2dVertex
10
94.518456920977
20
336.838977950360
30
0.0
0
VERTEX
5
5f2
100
AcDbEntity
8
0-0
6
CONTINUOUS
62
  7
100
AcDbVertex
100
AcDb2dVertex
10
94.216016865640
20
336.932553229136
30
0.0
0
VERTEX
5
5f3
100
AcDbEntity
8
0-0
6
CONTINUOUS
62
  7
100
AcDbVertex
100
AcDb2dVertex
10
93.865653389860
20
337.008457712531
30
0.0
0
VERTEX
5
5f4
100
AcDbEntity
8
0-0
6
CONTINUOUS
62
  7
100
AcDbVertex
100
AcDb2dVertex
10
93.478012110556
20
337.064385081226
30
0.0
0
VERTEX
5
5f5
100
AcDbEntity
8
0-0
6
CONTINUOUS
62
  7
100
AcDbVertex
100
AcDb2dVertex
10
93.064871311843
20
337.098636010425
30
0.0
0
VERTEX
5
5f6
100
AcDbEntity
8
0-0
6
CONTINUOUS
62
  7
100
AcDbVertex
100
AcDb2dVertex
10
92.638784067832
20
337.110169802974
30
0.0
0
VERTEX
5
5f7
100
AcDbEntity
8
0-0
6
CONTINUOUS
62
  7
100
AcDbVertex
100
AcDb2dVertex
10
92.212696823821
20
337.098636010425
30
0.0
0
VERTEX
5
5f8
100
AcDbEntity
8
0-0
6
CONTINUOUS
62
  7
100
AcDbVertex
100
AcDb2dVertex
10
91.799556025108
20
337.064385081226
30
0.0
0
VERTEX
5
5f9
100
AcDbEntity
8
0-0
6
CONTINUOUS
62
  7
100
AcDbVertex
100
AcDb2dVertex
10
91.411914745804
20
337.008457712531
30
0.0
0
VERTEX
5
5fa
100
AcDbEntity
8
0-0
6
CONTINUOUS
62
  7
100
AcDbVertex
100
AcDb2dVertex
10
91.061551270024
20
336.932553229136
30
0.0
0
VERTEX
5
5fb
100
AcDbEntity
8
0-0
6
CONTINUOUS
62
  7
100
AcDbVertex
100
AcDb2dVertex
10
90.759111214686
20
336.838977950360
30
0.0
0
VERTEX
5
5fc
100
AcDbEntity
8
0-0
6
CONTINUOUS
62
  7
100
AcDbVertex
100
AcDb2dVertex
10
90.513784067832
20
336.730575113697
30
0.0
0
VERTEX
5
5fd
100
AcDbEntity
8
0-0
6
CONTINUOUS
62
  7
100
AcDbVertex
100
AcDb2dVertex
10
90.333023970675
20
336.610638484484
30
0.0
0
VERTEX
5
5fe
100
AcDbEntity
8
0-0
6
CONTINUOUS
62
  7
100
AcDbVertex
100
AcDb2dVertex
10
90.222323227300
20
336.482812276510
30
0.0
0
VERTEX
5
5ff
100
AcDbEntity
8
0-0
6
CONTINUOUS
62
  7
100
AcDbVertex
100
AcDb2dVertex
10
90.185045423776
20
336.350980424419
30
0.0
0
SEQEND
5
600
100
AcDbEntity
8
0-0
0
POLYLINE
5
601
100
AcDbEntity
8
0-0
6
CONTINUOUS
62
  7
100
AcDb2dPolyline
66
1
10
0.0
20
0.0
30
0.0
70
0
0
VERTEX
5
602
100
AcDbEntity
8
0-0
6
CONTINUOUS
62
  7
100
AcDbVertex
100
AcDb2dVertex
10
100.000000000000
20
337.110169802974
30
0.0
0
VERTEX
5
603
100
AcDbEntity
8
0-0
6
CONTINUOUS
62
  7
100
AcDbVertex
100
AcDb2dVertex
10
99.140532636308
20
337.097404821897
30
0.0
0
VERTEX
5
604
100
AcDbEntity
8
0-0
6
CONTINUOUS
62
  7
100
AcDbVertex
100
AcDb2dVertex
10
98.308585381442
20
337.061960113211
30
0.0
0
VERTEX
5
605
100
AcDbEntity
8
0-0
6
CONTINUOUS
62
  7
100
AcDbVertex
100
AcDb2dVertex
10
97.529436531754
20
337.004912646454
30
0.0
0
VERTEX
5
606
100
AcDbEntity
8
0-0
6
CONTINUOUS
62
  7
100
AcDbVertex
100
AcDb2dVertex
10
96.826760130774
20
336.927995780037
30
0.0
0
VERTEX
5
607
100
AcDbEntity
8
0-0
6
CONTINUOUS
62
  7
100
AcDbVertex
100
AcDb2dVertex
10
96.221906645375
20
336.833546594023
30
0.0
0
VERTEX
5
608
100
AcDbEntity
8
0-0
6
CONTINUOUS
62
  7
100
AcDbVertex
100
AcDb2dVertex
10
95.733254242640
20
336.724434879135
30
0.0
0
VERTEX
5
609
100
AcDbEntity
8
0-0
6
CONTINUOUS
62
  7
100
AcDbVertex
100
AcDb2dVertex
10
95.375650378555
20
336.603975939619
30
0.0
0
VERTEX
5
60a
100
AcDbEntity
8
0-0
6
CONTINUOUS
62
  7
100
AcDbVertex
100
AcDb2dVertex
10
95.159960665576
20
336.475829859394
30
0.0
0
VERTEX
5
60b
100
AcDbEntity
8
0-0
6
CONTINUOUS
62
  7
100
AcDbVertex
100
AcDb2dVertex
10
95.092522711888
20
336.350980424419
30
0.0
0
SEQEND
5
60c
100
AcDbEntity
8
0-0
0
POLYLINE
5
60d
100
AcDbEntity
8
0-0
6
CONTINUOUS
62
  7
100
AcDb2dPolyline
66
1
10
0.0
20
0.0
30
0.0
70
0
0
VERTEX
5
60e
100
AcDbEntity
8
0-0
6
CONTINUOUS
62
  7
100
AcDbVertex
100
AcDb2dVertex
10
109.814954576224
20
336.350980424419
30
0.0
0
VERTEX
5
60f
100
AcDbEntity
8
0-0
6
CONTINUOUS
62
  7
100
AcDbVertex
100
AcDb2dVertex
10
109.777676772700
20
336.482812276510
30
0.0
0
VERTEX
5
610
100
AcDbEntity
8
0-0
6
CONTINUOUS
62
  7
100
AcDbVertex
100
AcDb2dVertex
10
109.666976029325
20
336.610638484484
30
0.0
0
VERTEX
5
611
100
AcDbEntity
8
0-0
6
CONTINUOUS
62
  7
100
AcDbVertex
100
AcDb2dVertex
10
109.486215932168
20
336.730575113697
30
0.0
0
VERTEX
5
612
100
AcDbEntity
8
0-0
6
CONTINUOUS
62
  7
100
AcDbVertex
100
AcDb2dVertex
10
109.240888785313
20
336.838977950360
30
0.0
0
VERTEX
5
613
100
AcDbEntity
8
0-0
6
CONTINUOUS
62
  7
100
AcDbVertex
100
AcDb2dVertex
10
108.938448729976
20
336.932553229136
30
0.0
0
VERTEX
5
614
100
AcDbEntity
8
0-0
6
CONTINUOUS
62
  7
100
AcDbVertex
100
AcDb2dVertex
10
108.588085254196
20
337.008457712531
30
0.0
0
VERTEX
5
615
100
AcDbEntity
8
0-0
6
CONTINUOUS
62
  7
100
AcDbVertex
100
AcDb2dVertex
10
108.200443974892
20
337.064385081226
30
0.0
0
VERTEX
5
616
100
AcDbEntity
8
0-0
6
CONTINUOUS
62
  7
100
AcDbVertex
100
AcDb2dVertex
10
107.787303176179
20
337.098636010425
30
0.0
0
VERTEX
5
617
100
AcDbEntity
8
0-0
6
CONTINUOUS
62
  7
100
AcDbVertex
100
AcDb2dVertex
10
107.361215932168
20
337.110169802974
30
0.0
0
VERTEX
5
618
100
AcDbEntity
8
0-0
6
CONTINUOUS
62
  7
100
AcDbVertex
100
AcDb2dVertex
10
106.935128688157
20
337.098636010425
30
0.0
0
VERTEX
5
619
100
AcDbEntity
8
0-0
6
CONTINUOUS
62
  7
100
AcDbVertex
100
AcDb2dVertex
10
106.521987889444
20
337.064385081226
30
0.0
0
VERTEX
5
61a
100
AcDbEntity
8
0-0
6
CONTINUOUS
62
  7
100
AcDbVertex
100
AcDb2dVertex
10
106.134346610140
20
337.008457712531
30
0.0
0
VERTEX
5
61b
100
AcDbEntity
8
0-0
6
CONTINUOUS
62
  7
100
AcDbVertex
100
AcDb2dVertex
10
105.783983134360
20
336.932553229136
30
0.0
0
VERTEX
5
61c
100
AcDbEntity
8
0-0
6
CONTINUOUS
62
  7
100
AcDbVertex
100
AcDb2dVertex
10
105.481543079023
20
336.838977950360
30
0.0
0
VERTEX
5
61d
100
AcDbEntity
8
0-0
6
CONTINUOUS
62
  7
100
AcDbVertex
100
AcDb2dVertex
10
105.236215932168
20
336.730575113697
30
0.0
0
VERTEX
5
61e
100
AcDbEntity
8
0-0
6
CONTINUOUS
62
  7
100
AcDbVertex
100
AcDb2dVertex
10
105.055455835011
20
336.610638484484
30
0.0
0
VERTEX
5
61f
100
AcDbEntity
8
0-0
6
CONTINUOUS
62
  7
100
AcDbVertex
100
AcDb2dVertex
10
104.944755091636
20
336.482812276510
30
0.0
0
VERTEX
5
620
100
AcDbEntity
8
0-0
6
CONTINUOUS
62
  7
100
AcDbVertex
100
AcDb2dVertex
10
104.907477288112
20
336.350980424419
30
0.0
0
SEQEND
5
621
100
AcDbEntity
8
0-0
0
POLYLINE
5
622
100
AcDbEntity
8
0-0
6
CONTINUOUS
62
  7
100
AcDb2dPolyline
66
1
10
0.0
20
0.0
30
0.0
70
0
0
VERTEX
5
623
100
AcDbEntity
8
0-0
6
CONTINUOUS
62
  7
100
AcDbVertex
100
AcDb2dVertex
10
104.907477288111
20
336.350980424419
30
0.0
0
VERTEX
5
624
100
AcDbEntity
8
0-0
6
CONTINUOUS
62
  7
100
AcDbVertex
100
AcDb2dVertex
10
104.832218867118
20
336.482818025470
30
0.0
0
VERTEX
5
625
100
AcDbEntity
8
0-0
6
CONTINUOUS
62
  7
100
AcDbVertex
100
AcDb2dVertex
10
104.608730293177
20
336.610649807725
30
0.0
0
VERTEX
5
626
100
AcDbEntity
8
0-0
6
CONTINUOUS
62
  7
100
AcDbVertex
100
AcDb2dVertex
10
104.243802153517
20
336.730591667168
30
0.0
0
VERTEX
5
627
100
AcDbEntity
8
0-0
6
CONTINUOUS
62
  7
100
AcDbVertex
100
AcDb2dVertex
10
103.748522604998
20
336.838999231092
30
0.0
0
VERTEX
5
628
100
AcDbEntity
8
0-0
6
CONTINUOUS
62
  7
100
AcDbVertex
100
AcDb2dVertex
10
103.137940466080
20
336.932578590525
30
0.0
0
VERTEX
5
629
100
AcDbEntity
8
0-0
6
CONTINUOUS
62
  7
100
AcDbVertex
100
AcDb2dVertex
10
102.430607966083
20
337.008486383984
30
0.0
0
VERTEX
5
62a
100
AcDbEntity
8
0-0
6
CONTINUOUS
62
  7
100
AcDbVertex
100
AcDb2dVertex
10
101.648017045093
20
337.064416191576
30
0.0
0
VERTEX
5
62b
100
AcDbEntity
8
0-0
6
CONTINUOUS
62
  7
100
AcDbVertex
100
AcDb2dVertex
10
100.813946332234
20
337.098668614398
30
0.0
0
VERTEX
5
62c
100
AcDbEntity
8
0-0
6
CONTINUOUS
62
  7
100
AcDbVertex
100
AcDb2dVertex
10
100.000000000000
20
337.110169802974
30
0.0
0
SEQEND
5
62d
100
AcDbEntity
8
0-0
0
CIRCLE
5
62e
100
AcDbEntity
8
0-0
6
CONTINUOUS
62
7
100
AcDbCircle
10
100.000000000000
20
430.128559005622
30
0.0
40
4.300000190735
0
CIRCLE
5
62f
100
AcDbEntity
8
0-0
6
CONTINUOUS
62
7
100
AcDbCircle
10
100.000000000000
20
430.128559005622
30
0.0
40
12.000000000000
0
CIRCLE
5
630
100
AcDbEntity
8
0-0
6
CONTINUOUS
62
7
100
AcDbCircle
10
100.000000000000
20
430.128559005622
30
0.0
40
19.999999982000
0
LINE
5
631
100
AcDbEntity
8
0-0
6
CONTINUOUS
62
7
100
AcDbLine
10
80.000000000000
20
293.384732410219
30
0.0
11
80.000000000000
21
300.884732410218
31
0.0
0
LINE
5
632
100
AcDbEntity
8
0-0
6
CONTINUOUS
62
7
100
AcDbLine
10
80.000000000000
20
293.384732410219
30
0.0
11
120.000000000000
21
293.384732410219
31
0.0
0
LINE
5
633
100
AcDbEntity
8
0-0
6
CONTINUOUS
62
7
100
AcDbLine
10
120.000000000000
20
300.884732410218
30
0.0
11
120.000000000000
21
293.384732410219
31
0.0
0
LINE
5
634
100
AcDbEntity
8
0-0
6
CONTINUOUS
62
7
100
AcDbLine
10
118.000000000000
20
293.384732410219
30
0.0
11
118.000000000000
21
290.384732410218
31
0.0
0
LINE
5
635
100
AcDbEntity
8
0-0
6
CONTINUOUS
62
7
100
AcDbLine
10
82.000000000000
20
293.384732410219
30
0.0
11
82.000000000000
21
290.384732410218
31
0.0
0
LINE
5
636
100
AcDbEntity
8
0-0
6
CONTINUOUS
62
7
100
AcDbLine
10
118.000000000000
20
290.384732410218
30
0.0
11
82.000000000000
21
290.384732410218
31
0.0
0
LINE
5
637
100
AcDbEntity
8
0-1
6
CENTER
62
4
100
AcDbLine
10
80.000000018000
20
430.128559005622
30
0.0
11
119.999999982000
21
430.128559005622
31
0.0
0
LINE
5
638
100
AcDbEntity
8
0-1
6
CENTER
62
4
100
AcDbLine
10
100.000000000000
20
290.384732410218
30
0.0
11
100.000000000000
21
392.029793285963
31
0.0
0
LINE
5
639
100
AcDbEntity
8
0-1
6
CENTER
62
4
100
AcDbLine
10
100.000000000000
20
410.128559023622
30
0.0
11
100.000000000000
21
450.128558987622
31
0.0
0
CIRCLE
5
63a
100
AcDbEntity
8
0-1
6
CONTINUOUS
62
4
100
AcDbCircle
10
200.000000000000
20
430.128559005622
30
0.0
40
9.500000000000
0
LINE
5
63b
100
AcDbEntity
8
0-1
6
CONTINUOUS
62
4
100
AcDbLine
10
194.750000000000
20
310.384732410218
30
0.0
11
194.750000000000
21
325.666654883350
31
0.0
0
LINE
5
63c
100
AcDbEntity
8
0-1
6
CONTINUOUS
62
4
100
AcDbLine
10
205.250000000000
20
310.384732410218
30
0.0
11
205.250000000000
21
325.666654883350
31
0.0
0
LINE
5
63d
100
AcDbEntity
8
0-1
6
CONTINUOUS
62
4
100
AcDbLine
10
205.250000000000
20
332.866654883350
30
0.0
11
205.250000000000
21
390.134732410218
31
0.0
0
LINE
5
63e
100
AcDbEntity
8
0-1
6
CONTINUOUS
62
4
100
AcDbLine
10
194.750000000000
20
332.866654883350
30
0.0
11
194.750000000000
21
390.134732410218
31
0.0
0
LINE
5
63f
100
AcDbEntity
8
0-1
6
CONTINUOUS
62
4
100
AcDbLine
10
206.000000000000
20
389.384732410218
30
0.0
11
194.000000000000
21
389.384732410218
31
0.0
0
LINE
5
640
100
AcDbEntity
8
0-1
6
CONTINUOUS
62
4
100
AcDbLine
10
180.000000000000
20
300.784732410218
30
0.0
11
220.000000000000
21
300.784732410218
31
0.0
0
LINE
5
641
100
AcDbEntity
8
0-0
6
CONTINUOUS
62
7
100
AcDbLine
10
218.000000000001
20
290.384732410218
30
0.0
11
182.000000000000
21
290.384732410218
31
0.0
0
POLYLINE
5
642
100
AcDbEntity
8
0-0
6
CONTINUOUS
62
  7
100
AcDb2dPolyline
66
1
10
0.0
20
0.0
30
0.0
70
0
0
VERTEX
5
643
100
AcDbEntity
8
0-0
6
CONTINUOUS
62
  7
100
AcDbVertex
100
AcDb2dVertex
10
195.000000000000
20
390.384732410218
30
0.0
0
VERTEX
5
644
100
AcDbEntity
8
0-0
6
CONTINUOUS
62
  7
100
AcDbVertex
100
AcDb2dVertex
10
205.000000000000
20
390.384732410218
30
0.0
0
VERTEX
5
645
100
AcDbEntity
8
0-0
6
CONTINUOUS
62
  7
100
AcDbVertex
100
AcDb2dVertex
10
206.000000000000
20
389.384732410218
30
0.0
0
VERTEX
5
646
100
AcDbEntity
8
0-0
6
CONTINUOUS
62
  7
100
AcDbVertex
100
AcDb2dVertex
10
206.000000000000
20
332.866654883350
30
0.0
0
SEQEND
5
647
100
AcDbEntity
8
0-0
0
LINE
5
648
100
AcDbEntity
8
0-0
6
CONTINUOUS
62
7
100
AcDbLine
10
194.000000000000
20
389.384732410218
30
0.0
11
195.000000000000
21
390.384732410218
31
0.0
0
LINE
5
649
100
AcDbEntity
8
0-0
6
CONTINUOUS
62
7
100
AcDbLine
10
194.000000000000
20
389.384732410218
30
0.0
11
194.000000000000
21
332.866654883350
31
0.0
0
LINE
5
64a
100
AcDbEntity
8
0-0
6
CONTINUOUS
62
7
100
AcDbLine
10
191.772758483887
20
332.866654883350
30
0.0
11
208.227241516113
21
332.866654883350
31
0.0
0
LINE
5
64b
100
AcDbEntity
8
0-0
6
CONTINUOUS
62
7
100
AcDbLine
10
194.515172481537
20
439.628558955169
30
0.0
11
205.484827576721
21
439.628558955169
31
0.0
0
POLYLINE
5
64c
100
AcDbEntity
8
0-0
6
CONTINUOUS
62
  7
100
AcDb2dPolyline
66
1
10
0.0
20
0.0
30
0.0
70
0
0
VERTEX
5
64d
100
AcDbEntity
8
0-0
6
CONTINUOUS
62
  7
100
AcDbVertex
100
AcDb2dVertex
10
205.484827576721
20
439.628558971987
30
0.0
0
VERTEX
5
64e
100
AcDbEntity
8
0-0
6
CONTINUOUS
62
  7
100
AcDbVertex
100
AcDb2dVertex
10
210.969655095184
20
430.128559039257
30
0.0
0
VERTEX
5
64f
100
AcDbEntity
8
0-0
6
CONTINUOUS
62
  7
100
AcDbVertex
100
AcDb2dVertex
10
205.484827518463
20
420.628559072892
30
0.0
0
SEQEND
5
650
100
AcDbEntity
8
0-0
0
LINE
5
651
100
AcDbEntity
8
0-0
6
CONTINUOUS
62
7
100
AcDbLine
10
205.484827518463
20
420.628559056074
30
0.0
11
194.515172423279
21
420.628559056074
31
0.0
0
POLYLINE
5
652
100
AcDbEntity
8
0-0
6
CONTINUOUS
62
  7
100
AcDb2dPolyline
66
1
10
0.0
20
0.0
30
0.0
70
0
0
VERTEX
5
653
100
AcDbEntity
8
0-0
6
CONTINUOUS
62
  7
100
AcDbVertex
100
AcDb2dVertex
10
194.515172423279
20
420.628559039257
30
0.0
0
VERTEX
5
654
100
AcDbEntity
8
0-0
6
CONTINUOUS
62
  7
100
AcDbVertex
100
AcDb2dVertex
10
189.030344904815
20
430.128558971987
30
0.0
0
VERTEX
5
655
100
AcDbEntity
8
0-0
6
CONTINUOUS
62
  7
100
AcDbVertex
100
AcDb2dVertex
10
194.515172481537
20
439.628558938352
30
0.0
0
SEQEND
5
656
100
AcDbEntity
8
0-0
0
ARC
5
657
100
AcDbEntity
8
0-0
6
CONTINUOUS
62
7
100
AcDbCircle
10
200.000000000000
20
319.070910702670
30
0.0
40
13.795743942261
100
AcDbArc
50
66.573394775391
51
113.426589965820
0
POLYLINE
5
658
100
AcDbEntity
8
0-0
6
CONTINUOUS
62
  7
100
AcDb2dPolyline
66
1
10
0.0
20
0.0
30
0.0
70
0
0
VERTEX
5
659
100
AcDbEntity
8
0-0
6
CONTINUOUS
62
  7
100
AcDbVertex
100
AcDb2dVertex
10
210.969524736243
20
331.729473099185
30
0.0
0
VERTEX
5
65a
100
AcDbEntity
8
0-0
6
CONTINUOUS
62
  7
100
AcDbVertex
100
AcDb2dVertex
10
210.302100954104
20
332.247728599889
30
0.0
0
VERTEX
5
65b
100
AcDbEntity
8
0-0
6
CONTINUOUS
62
  7
100
AcDbVertex
100
AcDb2dVertex
10
209.571633617870
20
332.615591053740
30
0.0
0
VERTEX
5
65c
100
AcDbEntity
8
0-0
6
CONTINUOUS
62
  7
100
AcDbVertex
100
AcDb2dVertex
10
208.800317607920
20
332.821883146224
30
0.0
0
VERTEX
5
65d
100
AcDbEntity
8
0-0
6
CONTINUOUS
62
  7
100
AcDbVertex
100
AcDb2dVertex
10
208.011588970910
20
332.860336796501
30
0.0
0
VERTEX
5
65e
100
AcDbEntity
8
0-0
6
CONTINUOUS
62
  7
100
AcDbVertex
100
AcDb2dVertex
10
207.229412827361
20
332.729783609865
30
0.0
0
VERTEX
5
65f
100
AcDbEntity
8
0-0
6
CONTINUOUS
62
  7
100
AcDbVertex
100
AcDb2dVertex
10
206.477555203595
20
332.434190378829
30
0.0
0
VERTEX
5
660
100
AcDbEntity
8
0-0
6
CONTINUOUS
62
  7
100
AcDbVertex
100
AcDb2dVertex
10
205.778860913050
20
331.982538554141
30
0.0
0
VERTEX
5
661
100
AcDbEntity
8
0-0
6
CONTINUOUS
62
  7
100
AcDbVertex
100
AcDb2dVertex
10
205.484959255685
20
331.729473997259
30
0.0
0
SEQEND
5
662
100
AcDbEntity
8
0-0
0
POLYLINE
5
663
100
AcDbEntity
8
0-0
6
CONTINUOUS
62
  7
100
AcDb2dPolyline
66
1
10
0.0
20
0.0
30
0.0
70
0
0
VERTEX
5
664
100
AcDbEntity
8
0-0
6
CONTINUOUS
62
  7
100
AcDbVertex
100
AcDb2dVertex
10
194.515041704018
20
331.729473099185
30
0.0
0
VERTEX
5
665
100
AcDbEntity
8
0-0
6
CONTINUOUS
62
  7
100
AcDbVertex
100
AcDb2dVertex
10
193.847617921878
20
332.247728599889
30
0.0
0
VERTEX
5
666
100
AcDbEntity
8
0-0
6
CONTINUOUS
62
  7
100
AcDbVertex
100
AcDb2dVertex
10
193.117150585644
20
332.615591053740
30
0.0
0
VERTEX
5
667
100
AcDbEntity
8
0-0
6
CONTINUOUS
62
  7
100
AcDbVertex
100
AcDb2dVertex
10
192.345834575694
20
332.821883146224
30
0.0
0
VERTEX
5
668
100
AcDbEntity
8
0-0
6
CONTINUOUS
62
  7
100
AcDbVertex
100
AcDb2dVertex
10
191.557105938685
20
332.860336796501
30
0.0
0
VERTEX
5
669
100
AcDbEntity
8
0-0
6
CONTINUOUS
62
  7
100
AcDbVertex
100
AcDb2dVertex
10
190.774929795136
20
332.729783609865
30
0.0
0
VERTEX
5
66a
100
AcDbEntity
8
0-0
6
CONTINUOUS
62
  7
100
AcDbVertex
100
AcDb2dVertex
10
190.023072171369
20
332.434190378829
30
0.0
0
VERTEX
5
66b
100
AcDbEntity
8
0-0
6
CONTINUOUS
62
  7
100
AcDbVertex
100
AcDb2dVertex
10
189.324377880824
20
331.982538554141
30
0.0
0
VERTEX
5
66c
100
AcDbEntity
8
0-0
6
CONTINUOUS
62
  7
100
AcDbVertex
100
AcDb2dVertex
10
189.030476223459
20
331.729473997259
30
0.0
0
SEQEND
5
66d
100
AcDbEntity
8
0-0
0
CIRCLE
5
66e
100
AcDbEntity
8
0-0
6
CONTINUOUS
62
7
100
AcDbCircle
10
200.000000000000
20
430.128559005622
30
0.0
40
5.250000000000
0
CIRCLE
5
66f
100
AcDbEntity
8
0-0
6
CONTINUOUS
62
7
100
AcDbCircle
10
200.000000000000
20
430.128559005622
30
0.0
40
6.000000000000
0
CIRCLE
5
670
100
AcDbEntity
8
0-0
6
CONTINUOUS
62
7
100
AcDbCircle
10
200.000000000000
20
430.128559005622
30
0.0
40
12.000000000000
0
CIRCLE
5
671
100
AcDbEntity
8
0-0
6
CONTINUOUS
62
7
100
AcDbCircle
10
200.000000000000
20
430.128559005622
30
0.0
40
20.000000049000
0
LINE
5
672
100
AcDbEntity
8
0-0
6
CONTINUOUS
62
7
100
AcDbLine
10
194.515172481537
20
326.803836165393
30
0.0
11
194.515172481537
21
331.729473601306
31
0.0
0
LINE
5
673
100
AcDbEntity
8
0-0
6
CONTINUOUS
62
7
100
AcDbLine
10
210.969655036927
20
331.729473601306
30
0.0
11
210.969655036927
21
326.803836165393
31
0.0
0
LINE
5
674
100
AcDbEntity
8
0-0
6
CONTINUOUS
62
7
100
AcDbLine
10
208.227241516113
20
325.666654883350
30
0.0
11
191.772758483887
21
325.666654883350
31
0.0
0
LINE
5
675
100
AcDbEntity
8
0-0
6
CONTINUOUS
62
7
100
AcDbLine
10
189.030344963073
20
326.803836165393
30
0.0
11
189.030344963073
21
331.729473601306
31
0.0
0
LINE
5
676
100
AcDbEntity
8
0-0
6
CONTINUOUS
62
7
100
AcDbLine
10
205.484827518463
20
331.729473601306
30
0.0
11
205.484827518463
21
326.803836165393
31
0.0
0
ARC
5
677
100
AcDbEntity
8
0-0
6
CONTINUOUS
62
7
100
AcDbCircle
10
200.000000000000
20
339.462399064029
30
0.0
40
13.795743942261
100
AcDbArc
50
246.573410034180
51
293.426605224609
0
POLYLINE
5
678
100
AcDbEntity
8
0-0
6
CONTINUOUS
62
  7
100
AcDb2dPolyline
66
1
10
0.0
20
0.0
30
0.0
70
0
0
VERTEX
5
679
100
AcDbEntity
8
0-0
6
CONTINUOUS
62
  7
100
AcDbVertex
100
AcDb2dVertex
10
205.484959255685
20
326.803835769440
30
0.0
0
VERTEX
5
67a
100
AcDbEntity
8
0-0
6
CONTINUOUS
62
  7
100
AcDbVertex
100
AcDb2dVertex
10
206.152383150062
20
326.285580487312
30
0.0
0
VERTEX
5
67b
100
AcDbEntity
8
0-0
6
CONTINUOUS
62
  7
100
AcDbVertex
100
AcDb2dVertex
10
206.882850565963
20
325.917718272683
30
0.0
0
VERTEX
5
67c
100
AcDbEntity
8
0-0
6
CONTINUOUS
62
  7
100
AcDbVertex
100
AcDb2dVertex
10
207.654166620590
20
325.711426432798
30
0.0
0
VERTEX
5
67d
100
AcDbEntity
8
0-0
6
CONTINUOUS
62
  7
100
AcDbVertex
100
AcDb2dVertex
10
208.442895265927
20
325.672973040823
30
0.0
0
VERTEX
5
67e
100
AcDbEntity
8
0-0
6
CONTINUOUS
62
  7
100
AcDbVertex
100
AcDb2dVertex
10
209.225071381202
20
325.803526483615
30
0.0
0
VERTEX
5
67f
100
AcDbEntity
8
0-0
6
CONTINUOUS
62
  7
100
AcDbVertex
100
AcDb2dVertex
10
209.976928940953
20
326.099119960878
30
0.0
0
VERTEX
5
680
100
AcDbEntity
8
0-0
6
CONTINUOUS
62
  7
100
AcDbVertex
100
AcDb2dVertex
10
210.675623133684
20
326.550772014383
30
0.0
0
VERTEX
5
681
100
AcDbEntity
8
0-0
6
CONTINUOUS
62
  7
100
AcDbVertex
100
AcDb2dVertex
10
210.969524736243
20
326.803836667515
30
0.0
0
SEQEND
5
682
100
AcDbEntity
8
0-0
0
POLYLINE
5
683
100
AcDbEntity
8
0-0
6
CONTINUOUS
62
  7
100
AcDb2dPolyline
66
1
10
0.0
20
0.0
30
0.0
70
0
0
VERTEX
5
684
100
AcDbEntity
8
0-0
6
CONTINUOUS
62
  7
100
AcDbVertex
100
AcDb2dVertex
10
189.030476223459
20
326.803835769440
30
0.0
0
VERTEX
5
685
100
AcDbEntity
8
0-0
6
CONTINUOUS
62
  7
100
AcDbVertex
100
AcDb2dVertex
10
189.697900117836
20
326.285580487312
30
0.0
0
VERTEX
5
686
100
AcDbEntity
8
0-0
6
CONTINUOUS
62
  7
100
AcDbVertex
100
AcDb2dVertex
10
190.428367533737
20
325.917718272683
30
0.0
0
VERTEX
5
687
100
AcDbEntity
8
0-0
6
CONTINUOUS
62
  7
100
AcDbVertex
100
AcDb2dVertex
10
191.199683588364
20
325.711426432798
30
0.0
0
VERTEX
5
688
100
AcDbEntity
8
0-0
6
CONTINUOUS
62
  7
100
AcDbVertex
100
AcDb2dVertex
10
191.988412233701
20
325.672973040823
30
0.0
0
VERTEX
5
689
100
AcDbEntity
8
0-0
6
CONTINUOUS
62
  7
100
AcDbVertex
100
AcDb2dVertex
10
192.770588348976
20
325.803526483615
30
0.0
0
VERTEX
5
68a
100
AcDbEntity
8
0-0
6
CONTINUOUS
62
  7
100
AcDbVertex
100
AcDb2dVertex
10
193.522445908727
20
326.099119960878
30
0.0
0
VERTEX
5
68b
100
AcDbEntity
8
0-0
6
CONTINUOUS
62
  7
100
AcDbVertex
100
AcDb2dVertex
10
194.221140101458
20
326.550772014383
30
0.0
0
VERTEX
5
68c
100
AcDbEntity
8
0-0
6
CONTINUOUS
62
  7
100
AcDbVertex
100
AcDb2dVertex
10
194.515041704018
20
326.803836667515
30
0.0
0
SEQEND
5
68d
100
AcDbEntity
8
0-0
0
LINE
5
68e
100
AcDbEntity
8
0-0
6
CONTINUOUS
62
7
100
AcDbLine
10
220.000000000000
20
295.784732410219
30
0.0
11
180.000000000000
21
295.784732410219
31
0.0
0
LINE
5
68f
100
AcDbEntity
8
0-0
6
CONTINUOUS
62
7
100
AcDbLine
10
218.000000000001
20
293.284732410219
30
0.0
11
218.000000000001
21
290.384732410218
31
0.0
0
LINE
5
690
100
AcDbEntity
8
0-0
6
CONTINUOUS
62
7
100
AcDbLine
10
182.000000000000
20
290.384732410218
30
0.0
11
182.000000000000
21
293.284732410219
31
0.0
0
LINE
5
691
100
AcDbEntity
8
0-0
6
CONTINUOUS
62
7
100
AcDbLine
10
183.000000000251
20
303.784732410218
30
0.0
11
217.000000000000
21
303.784732410218
31
0.0
0
POLYLINE
5
692
100
AcDbEntity
8
0-0
6
CONTINUOUS
62
  7
100
AcDb2dPolyline
66
1
10
0.0
20
0.0
30
0.0
70
0
0
VERTEX
5
693
100
AcDbEntity
8
0-0
6
CONTINUOUS
62
  7
100
AcDbVertex
100
AcDb2dVertex
10
212.000000000000
20
303.784732410218
30
0.0
0
VERTEX
5
694
100
AcDbEntity
8
0-0
6
CONTINUOUS
62
  7
100
AcDbVertex
100
AcDb2dVertex
10
212.000000000000
20
304.184732410218
30
0.0
0
VERTEX
5
695
100
AcDbEntity
8
0-0
6
CONTINUOUS
62
  7
100
AcDbVertex
100
AcDb2dVertex
10
188.000000000001
20
304.184732410218
30
0.0
0
VERTEX
5
696
100
AcDbEntity
8
0-0
6
CONTINUOUS
62
  7
100
AcDbVertex
100
AcDb2dVertex
10
188.000000000001
20
303.784732410218
30
0.0
0
SEQEND
5
697
100
AcDbEntity
8
0-0
0
POLYLINE
5
698
100
AcDbEntity
8
0-0
6
CONTINUOUS
62
  7
100
AcDb2dPolyline
66
1
10
0.0
20
0.0
30
0.0
70
0
0
VERTEX
5
699
100
AcDbEntity
8
0-0
6
CONTINUOUS
62
  7
100
AcDbVertex
100
AcDb2dVertex
10
189.030344885398
20
304.951095020438
30
0.0
0
VERTEX
5
69a
100
AcDbEntity
8
0-0
6
CONTINUOUS
62
  7
100
AcDbVertex
100
AcDb2dVertex
10
189.721387159641
20
304.790685303616
30
0.0
0
VERTEX
5
69b
100
AcDbEntity
8
0-0
6
CONTINUOUS
62
  7
100
AcDbVertex
100
AcDb2dVertex
10
190.413845783983
20
304.670183312700
30
0.0
0
VERTEX
5
69c
100
AcDbEntity
8
0-0
6
CONTINUOUS
62
  7
100
AcDbVertex
100
AcDb2dVertex
10
191.105552255941
20
304.595896552028
30
0.0
0
VERTEX
5
69d
100
AcDbEntity
8
0-0
6
CONTINUOUS
62
  7
100
AcDbVertex
100
AcDb2dVertex
10
191.797225329449
20
304.571861706721
30
0.0
0
VERTEX
5
69e
100
AcDbEntity
8
0-0
6
CONTINUOUS
62
  7
100
AcDbVertex
100
AcDb2dVertex
10
192.480397671751
20
304.598885480176
30
0.0
0
VERTEX
5
69f
100
AcDbEntity
8
0-0
6
CONTINUOUS
62
  7
100
AcDbVertex
100
AcDb2dVertex
10
193.161810030200
20
304.674505629632
30
0.0
0
VERTEX
5
6a0
100
AcDbEntity
8
0-0
6
CONTINUOUS
62
  7
100
AcDbVertex
100
AcDb2dVertex
10
193.839711646786
20
304.793883964805
30
0.0
0
VERTEX
5
6a1
100
AcDbEntity
8
0-0
6
CONTINUOUS
62
  7
100
AcDbVertex
100
AcDb2dVertex
10
194.515172442699
20
304.951095020438
30
0.0
0
VERTEX
5
6a2
100
AcDbEntity
8
0-0
6
CONTINUOUS
62
  7
100
AcDbVertex
100
AcDb2dVertex
10
196.925856413380
20
304.696992203665
30
0.0
0
VERTEX
5
6a3
100
AcDbEntity
8
0-0
6
CONTINUOUS
62
  7
100
AcDbVertex
100
AcDb2dVertex
10
199.338956369459
20
304.577757211709
30
0.0
0
VERTEX
5
6a4
100
AcDbEntity
8
0-0
6
CONTINUOUS
62
  7
100
AcDbVertex
100
AcDb2dVertex
10
201.728238644714
20
304.612066841183
30
0.0
0
VERTEX
5
6a5
100
AcDbEntity
8
0-0
6
CONTINUOUS
62
  7
100
AcDbVertex
100
AcDb2dVertex
10
204.102755653401
20
304.790686597361
30
0.0
0
VERTEX
5
6a6
100
AcDbEntity
8
0-0
6
CONTINUOUS
62
  7
100
AcDbVertex
100
AcDb2dVertex
10
205.484827557302
20
304.951095020438
30
0.0
0
VERTEX
5
6a7
100
AcDbEntity
8
0-0
6
CONTINUOUS
62
  7
100
AcDbVertex
100
AcDb2dVertex
10
206.175869831546
20
304.790685303616
30
0.0
0
VERTEX
5
6a8
100
AcDbEntity
8
0-0
6
CONTINUOUS
62
  7
100
AcDbVertex
100
AcDb2dVertex
10
206.868328455887
20
304.670183312700
30
0.0
0
VERTEX
5
6a9
100
AcDbEntity
8
0-0
6
CONTINUOUS
62
  7
100
AcDbVertex
100
AcDb2dVertex
10
207.560034927845
20
304.595896552028
30
0.0
0
VERTEX
5
6aa
100
AcDbEntity
8
0-0
6
CONTINUOUS
62
  7
100
AcDbVertex
100
AcDb2dVertex
10
208.251708001353
20
304.571861706721
30
0.0
0
VERTEX
5
6ab
100
AcDbEntity
8
0-0
6
CONTINUOUS
62
  7
100
AcDbVertex
100
AcDb2dVertex
10
208.934880343655
20
304.598885480176
30
0.0
0
VERTEX
5
6ac
100
AcDbEntity
8
0-0
6
CONTINUOUS
62
  7
100
AcDbVertex
100
AcDb2dVertex
10
209.616292702104
20
304.674505629632
30
0.0
0
VERTEX
5
6ad
100
AcDbEntity
8
0-0
6
CONTINUOUS
62
  7
100
AcDbVertex
100
AcDb2dVertex
10
210.294194318691
20
304.793883964805
30
0.0
0
VERTEX
5
6ae
100
AcDbEntity
8
0-0
6
CONTINUOUS
62
  7
100
AcDbVertex
100
AcDb2dVertex
10
210.969655114603
20
304.951095020438
30
0.0
0
VERTEX
5
6af
100
AcDbEntity
8
0-0
6
CONTINUOUS
62
  7
100
AcDbVertex
100
AcDb2dVertex
10
208.000000000001
20
304.184732410218
30
0.0
0
SEQEND
5
6b0
100
AcDbEntity
8
0-0
0
LINE
5
6b1
100
AcDbEntity
8
0-0
6
CONTINUOUS
62
7
100
AcDbLine
10
205.484827557302
20
304.951095020438
30
0.0
11
205.484827557302
21
310.384732410218
31
0.0
0
POLYLINE
5
6b2
100
AcDbEntity
8
0-0
6
CONTINUOUS
62
  7
100
AcDb2dPolyline
66
1
10
0.0
20
0.0
30
0.0
70
0
0
VERTEX
5
6b3
100
AcDbEntity
8
0-0
6
CONTINUOUS
62
  7
100
AcDbVertex
100
AcDb2dVertex
10
210.969655114603
20
310.384732410218
30
0.0
0
VERTEX
5
6b4
100
AcDbEntity
8
0-0
6
CONTINUOUS
62
  7
100
AcDbVertex
100
AcDb2dVertex
10
189.030344885398
20
310.384732410218
30
0.0
0
VERTEX
5
6b5
100
AcDbEntity
8
0-0
6
CONTINUOUS
62
  7
100
AcDbVertex
100
AcDb2dVertex
10
189.030344885398
20
304.951095020438
30
0.0
0
VERTEX
5
6b6
100
AcDbEntity
8
0-0
6
CONTINUOUS
62
  7
100
AcDbVertex
100
AcDb2dVertex
10
192.000000000000
20
304.184732410218
30
0.0
0
SEQEND
5
6b7
100
AcDbEntity
8
0-0
0
LINE
5
6b8
100
AcDbEntity
8
0-0
6
CONTINUOUS
62
7
100
AcDbLine
10
194.515172442699
20
304.951095020438
30
0.0
11
194.515172442699
21
310.384732410218
31
0.0
0
LINE
5
6b9
100
AcDbEntity
8
0-0
6
CONTINUOUS
62
7
100
AcDbLine
10
210.969655114603
20
310.384732410218
30
0.0
11
210.969655114603
21
304.951095020438
31
0.0
0
ARC
5
6ba
100
AcDbEntity
8
0-0
6
CONTINUOUS
62
7
100
AcDbCircle
10
183.000000000001
20
300.784732410218
30
0.0
40
3.000000000000
100
AcDbArc
50
89.999999999999
51
180.000000000000
0
ARC
5
6bb
100
AcDbEntity
8
0-0
6
CONTINUOUS
62
7
100
AcDbCircle
10
217.000000000000
20
300.784732410218
30
0.0
40
3.000000000000
100
AcDbArc
50
360.000000000000
51
450.000000000001
0
LINE
5
6bc
100
AcDbEntity
8
0-0
6
CONTINUOUS
62
7
100
AcDbLine
10
206.000000000000
20
325.666654883350
30
0.0
11
206.000000000000
21
310.384732410218
31
0.0
0
LINE
5
6bd
100
AcDbEntity
8
0-0
6
CONTINUOUS
62
7
100
AcDbLine
10
194.000000000000
20
325.666654883350
30
0.0
11
194.000000000000
21
310.384732410218
31
0.0
0
LINE
5
6be
100
AcDbEntity
8
0-0
6
CONTINUOUS
62
7
100
AcDbLine
10
180.000000000000
20
293.284732410219
30
0.0
11
180.000000000000
21
300.784732410218
31
0.0
0
LINE
5
6bf
100
AcDbEntity
8
0-0
6
CONTINUOUS
62
7
100
AcDbLine
10
180.000000000000
20
293.284732410219
30
0.0
11
220.000000000000
21
293.284732410219
31
0.0
0
LINE
5
6c0
100
AcDbEntity
8
0-0
6
CONTINUOUS
62
7
100
AcDbLine
10
220.000000000000
20
300.784732410218
30
0.0
11
220.000000000000
21
293.284732410219
31
0.0
0
LINE
5
6c1
100
AcDbEntity
8
0-1
6
CENTER
62
4
100
AcDbLine
10
179.999999951000
20
430.128559005622
30
0.0
11
220.000000049000
21
430.128559005622
31
0.0
0
LINE
5
6c2
100
AcDbEntity
8
0-1
6
CENTER
62
4
100
AcDbLine
10
200.000000000000
20
409.466491293178
30
0.0
11
200.000000000000
21
450.128559054622
31
0.0
0
LINE
5
6c3
100
AcDbEntity
8
0-1
6
CENTER
62
4
100
AcDbLine
10
200.000000000000
20
290.384732410218
30
0.0
11
200.000000000000
21
393.154741544493
31
0.0
0
LINE
5
6c4
100
AcDbEntity
8
F-F_J_ADD
6
HIDDEN
62
253
100
AcDbLine
10
300.000000000000
20
290.384732410218
30
0.0
11
300.000000000000
21
40.384732410218
31
0.0
0
LINE
5
6c5
100
AcDbEntity
8
F-F_J_ADD
6
HIDDEN
62
253
100
AcDbLine
10
100.000000000000
20
290.384732410218
30
0.0
11
100.000000000000
21
40.384732410218
31
0.0
0
LINE
5
6c6
100
AcDbEntity
8
F-F_J_ADD
6
HIDDEN
62
253
100
AcDbLine
10
200.000000000000
20
290.384732410218
30
0.0
11
200.000000000000
21
40.384732410218
31
0.0
0
LINE
5
6c7
100
AcDbEntity
8
0-1
6
CENTER
62
4
100
AcDbLine
10
0.000000000000
20
-15.000000000000
30
0.0
11
0.000000000000
21
15.000000000000
31
0.0
0
POLYLINE
5
6c8
100
AcDbEntity
8
0-0
6
CONTINUOUS
62
  7
100
AcDb2dPolyline
66
1
10
0.0
20
0.0
30
0.0
70
0
0
VERTEX
5
6c9
100
AcDbEntity
8
0-0
6
CONTINUOUS
62
  7
100
AcDbVertex
100
AcDb2dVertex
10
14.500000000000
20
46.384732410218
30
0.0
0
VERTEX
5
6ca
100
AcDbEntity
8
0-0
6
CONTINUOUS
62
  7
100
AcDbVertex
100
AcDb2dVertex
10
-14.500000000000
20
46.384732410218
30
0.0
0
VERTEX
5
6cb
100
AcDbEntity
8
0-0
6
CONTINUOUS
62
  7
100
AcDbVertex
100
AcDb2dVertex
10
-15.000000000000
20
45.884732410218
30
0.0
0
SEQEND
5
6cc
100
AcDbEntity
8
0-0
0
LINE
5
6cd
100
AcDbEntity
8
0-0
6
CONTINUOUS
62
7
100
AcDbLine
10
-15.000000000000
20
41.884732410218
30
0.0
11
-14.500000000000
21
41.384732410218
31
0.0
0
LINE
5
6ce
100
AcDbEntity
8
0-0
6
CONTINUOUS
62
7
100
AcDbLine
10
15.000000000000
20
41.884732410218
30
0.0
11
-15.000000000000
21
41.884732410218
31
0.0
0
LINE
5
6cf
100
AcDbEntity
8
0-0
6
CONTINUOUS
62
7
100
AcDbLine
10
-15.000000000000
20
45.884732410218
30
0.0
11
15.000000000000
21
45.884732410218
31
0.0
0
LINE
5
6d0
100
AcDbEntity
8
0-0
6
CONTINUOUS
62
7
100
AcDbLine
10
12.500000000000
20
40.384732410218
30
0.0
11
-12.500000000000
21
40.384732410218
31
0.0
0
ARC
5
6d1
100
AcDbEntity
8
0-0
6
CONTINUOUS
62
7
100
AcDbCircle
10
12.500000000000
20
41.384732410218
30
0.0
40
1.000000000000
100
AcDbArc
50
270.000000000000
51
360.000000000000
0
ARC
5
6d2
100
AcDbEntity
8
0-0
6
CONTINUOUS
62
7
100
AcDbCircle
10
-12.500000000000
20
41.384732410218
30
0.0
40
1.000000000000
100
AcDbArc
50
180.000000000000
51
270.000000000000
0
POLYLINE
5
6d3
100
AcDbEntity
8
0-0
6
CONTINUOUS
62
  7
100
AcDb2dPolyline
66
1
10
0.0
20
0.0
30
0.0
70
0
0
VERTEX
5
6d4
100
AcDbEntity
8
0-0
6
CONTINUOUS
62
  7
100
AcDbVertex
100
AcDb2dVertex
10
15.000000000000
20
41.884732410218
30
0.0
0
VERTEX
5
6d5
100
AcDbEntity
8
0-0
6
CONTINUOUS
62
  7
100
AcDbVertex
100
AcDb2dVertex
10
15.000000000000
20
45.884732410218
30
0.0
0
VERTEX
5
6d6
100
AcDbEntity
8
0-0
6
CONTINUOUS
62
  7
100
AcDbVertex
100
AcDb2dVertex
10
14.500000000000
20
46.384732410218
30
0.0
0
SEQEND
5
6d7
100
AcDbEntity
8
0-0
0
POLYLINE
5
6d8
100
AcDbEntity
8
0-0
6
CONTINUOUS
62
  7
100
AcDb2dPolyline
66
1
10
0.0
20
0.0
30
0.0
70
0
0
VERTEX
5
6d9
100
AcDbEntity
8
0-0
6
CONTINUOUS
62
  7
100
AcDbVertex
100
AcDb2dVertex
10
-14.500000000000
20
41.384732410218
30
0.0
0
VERTEX
5
6da
100
AcDbEntity
8
0-0
6
CONTINUOUS
62
  7
100
AcDbVertex
100
AcDb2dVertex
10
14.500000000000
20
41.384732410218
30
0.0
0
VERTEX
5
6db
100
AcDbEntity
8
0-0
6
CONTINUOUS
62
  7
100
AcDbVertex
100
AcDb2dVertex
10
15.000000000000
20
41.884732410218
30
0.0
0
SEQEND
5
6dc
100
AcDbEntity
8
0-0
0
LINE
5
6dd
100
AcDbEntity
8
0-0
6
CONTINUOUS
62
7
100
AcDbLine
10
-5.000000000000
20
46.384732410218
30
0.0
11
-5.000000000000
21
65.584732410218
31
0.0
0
LINE
5
6de
100
AcDbEntity
8
0-0
6
CONTINUOUS
62
7
100
AcDbLine
10
5.000000000000
20
65.584732410218
30
0.0
11
5.000000000000
21
46.384732410218
31
0.0
0
POLYLINE
5
6df
100
AcDbEntity
8
0-0
6
CONTINUOUS
62
  7
100
AcDb2dPolyline
66
1
10
0.0
20
0.0
30
0.0
70
0
0
VERTEX
5
6e0
100
AcDbEntity
8
0-0
6
CONTINUOUS
62
  7
100
AcDbVertex
100
AcDb2dVertex
10
-5.000000000000
20
65.584732410218
30
0.0
0
VERTEX
5
6e1
100
AcDbEntity
8
0-0
6
CONTINUOUS
62
  7
100
AcDbVertex
100
AcDb2dVertex
10
-4.200000000000
20
66.384732410218
30
0.0
0
VERTEX
5
6e2
100
AcDbEntity
8
0-0
6
CONTINUOUS
62
  7
100
AcDbVertex
100
AcDb2dVertex
10
4.200000000000
20
66.384732410218
30
0.0
0
VERTEX
5
6e3
100
AcDbEntity
8
0-0
6
CONTINUOUS
62
  7
100
AcDbVertex
100
AcDb2dVertex
10
5.000000000000
20
65.584732410218
30
0.0
0
SEQEND
5
6e4
100
AcDbEntity
8
0-0
0
CIRCLE
5
6e5
100
AcDbEntity
8
0-0
6
CONTINUOUS
62
7
100
AcDbCircle
10
0.000000000000
20
0.000000000000
30
0.0
40
15.000000000000
0
CIRCLE
5
6e6
100
AcDbEntity
8
0-0
6
CONTINUOUS
62
7
100
AcDbCircle
10
0.000000000000
20
0.000000000000
30
0.0
40
13.500000000000
0
CIRCLE
5
6e7
100
AcDbEntity
8
0-0
6
CONTINUOUS
62
7
100
AcDbCircle
10
0.000000000000
20
0.000000000000
30
0.0
40
3.500000000000
0
LINE
5
6e8
100
AcDbEntity
8
0-1
6
CONTINUOUS
62
4
100
AcDbLine
10
-1.909188309203
20
-1.909188309204
30
0.0
11
1.909188309203
21
1.909188309204
31
0.0
0
LINE
5
6e9
100
AcDbEntity
8
0-1
6
CONTINUOUS
62
4
100
AcDbLine
10
-1.909188309203
20
1.909188309204
30
0.0
11
1.909188309203
21
-1.909188309204
31
0.0
0
POLYLINE
5
6ea
100
AcDbEntity
8
0-1
6
CONTINUOUS
62
  4
100
AcDb2dPolyline
66
1
10
0.0
20
0.0
30
0.0
70
0
0
VERTEX
5
6eb
100
AcDbEntity
8
0-1
6
CONTINUOUS
62
  4
100
AcDbVertex
100
AcDb2dVertex
10
-4.200000000000
20
66.384732410218
30
0.0
0
VERTEX
5
6ec
100
AcDbEntity
8
0-1
6
CONTINUOUS
62
  4
100
AcDbVertex
100
AcDb2dVertex
10
-4.200000000000
20
47.660373056274
30
0.0
0
VERTEX
5
6ed
100
AcDbEntity
8
0-1
6
CONTINUOUS
62
  4
100
AcDbVertex
100
AcDb2dVertex
10
-5.000000000000
20
46.384732410218
30
0.0
0
SEQEND
5
6ee
100
AcDbEntity
8
0-1
0
POLYLINE
5
6ef
100
AcDbEntity
8
0-1
6
CONTINUOUS
62
  4
100
AcDb2dPolyline
66
1
10
0.0
20
0.0
30
0.0
70
0
0
VERTEX
5
6f0
100
AcDbEntity
8
0-1
6
CONTINUOUS
62
  4
100
AcDbVertex
100
AcDb2dVertex
10
5.000000000000
20
46.384732410218
30
0.0
0
VERTEX
5
6f1
100
AcDbEntity
8
0-1
6
CONTINUOUS
62
  4
100
AcDbVertex
100
AcDb2dVertex
10
4.200000000000
20
47.660373056274
30
0.0
0
VERTEX
5
6f2
100
AcDbEntity
8
0-1
6
CONTINUOUS
62
  4
100
AcDbVertex
100
AcDb2dVertex
10
4.200000000000
20
66.384732410218
30
0.0
0
SEQEND
5
6f3
100
AcDbEntity
8
0-1
0
LINE
5
6f4
100
AcDbEntity
8
0-1
6
CONTINUOUS
62
4
100
AcDbLine
10
5.000000000000
20
65.584732410218
30
0.0
11
-5.000000000000
21
65.584732410218
31
0.0
0
LINE
5
6f5
100
AcDbEntity
8
0-1
6
CONTINUOUS
62
4
100
AcDbLine
10
-5.000000000000
20
47.660373056274
30
0.0
11
5.000000000000
21
47.660373056274
31
0.0
0
LINE
5
6f6
100
AcDbEntity
8
0-1
6
CONTINUOUS
62
4
100
AcDbLine
10
5.368891679069
20
45.884732410218
30
0.0
11
5.368891679069
21
41.884732410218
31
0.0
0
LINE
5
6f7
100
AcDbEntity
8
0-1
6
CONTINUOUS
62
4
100
AcDbLine
10
6.404106879524
20
41.884732410218
30
0.0
11
6.404106879524
21
45.884732410218
31
0.0
0
LINE
5
6f8
100
AcDbEntity
8
0-1
6
CONTINUOUS
62
4
100
AcDbLine
10
7.313192563602
20
45.884732410218
30
0.0
11
7.313192563602
21
41.884732410218
31
0.0
0
LINE
5
6f9
100
AcDbEntity
8
0-1
6
CONTINUOUS
62
4
100
AcDbLine
10
8.213420741073
20
41.884732410218
30
0.0
11
8.213420741073
21
45.884732410218
31
0.0
0
LINE
5
6fa
100
AcDbEntity
8
0-1
6
CONTINUOUS
62
4
100
AcDbLine
10
9.033175424366
20
45.884732410218
30
0.0
11
9.033175424366
21
41.884732410218
31
0.0
0
LINE
5
6fb
100
AcDbEntity
8
0-1
6
CONTINUOUS
62
4
100
AcDbLine
10
9.812610976142
20
41.884732410218
30
0.0
11
9.812610976142
21
45.884732410218
31
0.0
0
LINE
5
6fc
100
AcDbEntity
8
0-1
6
CONTINUOUS
62
4
100
AcDbLine
10
10.548248424384
20
45.884732410218
30
0.0
11
10.548248424384
21
41.884732410218
31
0.0
0
LINE
5
6fd
100
AcDbEntity
8
0-1
6
CONTINUOUS
62
4
100
AcDbLine
10
11.236804287742
20
41.884732410218
30
0.0
11
11.236804287742
21
45.884732410218
31
0.0
0
LINE
5
6fe
100
AcDbEntity
8
0-1
6
CONTINUOUS
62
4
100
AcDbLine
10
11.875205231194
20
45.884732410218
30
0.0
11
11.875205231194
21
41.884732410218
31
0.0
0
LINE
5
6ff
100
AcDbEntity
8
0-1
6
CONTINUOUS
62
4
100
AcDbLine
10
12.460601783717
20
41.884732410218
30
0.0
11
12.460601783717
21
45.884732410218
31
0.0
0
LINE
5
700
100
AcDbEntity
8
0-1
6
CONTINUOUS
62
4
100
AcDbLine
10
12.990181325207
20
45.884732410218
30
0.0
11
12.990181325207
21
41.884732410218
31
0.0
0
LINE
5
701
100
AcDbEntity
8
0-1
6
CONTINUOUS
62
4
100
AcDbLine
10
13.462178406773
20
41.884732410218
30
0.0
11
13.462178406773
21
45.884732410218
31
0.0
0
LINE
5
702
100
AcDbEntity
8
0-1
6
CONTINUOUS
62
4
100
AcDbLine
10
13.873887989610
20
45.884732410218
30
0.0
11
13.873887989610
21
41.884732410218
31
0.0
0
LINE
5
703
100
AcDbEntity
8
0-1
6
CONTINUOUS
62
4
100
AcDbLine
10
14.223672159927
20
41.884732410218
30
0.0
11
14.223672159927
21
45.884732410218
31
0.0
0
LINE
5
704
100
AcDbEntity
8
0-1
6
CONTINUOUS
62
4
100
AcDbLine
10
14.509969673389
20
45.884732410218
30
0.0
11
14.509969673389
21
41.884732410218
31
0.0
0
LINE
5
705
100
AcDbEntity
8
0-1
6
CONTINUOUS
62
4
100
AcDbLine
10
14.731502655211
20
41.884732410218
30
0.0
11
14.731502655211
21
45.884732410218
31
0.0
0
LINE
5
706
100
AcDbEntity
8
0-1
6
CONTINUOUS
62
4
100
AcDbLine
10
14.887282303890
20
45.884732410218
30
0.0
11
14.887282303890
21
41.884732410218
31
0.0
0
LINE
5
707
100
AcDbEntity
8
0-1
6
CONTINUOUS
62
4
100
AcDbLine
10
-15.000000000000
20
45.884732410218
30
0.0
11
-15.000000000000
21
41.884732410218
31
0.0
0
LINE
5
708
100
AcDbEntity
8
0-1
6
CONTINUOUS
62
4
100
AcDbLine
10
-14.887282303890
20
41.884732410218
30
0.0
11
-14.887282303890
21
45.884732410218
31
0.0
0
LINE
5
709
100
AcDbEntity
8
0-1
6
CONTINUOUS
62
4
100
AcDbLine
10
-12.460601783717
20
41.884732410218
30
0.0
11
-12.460601783717
21
45.884732410218
31
0.0
0
LINE
5
70a
100
AcDbEntity
8
0-1
6
CONTINUOUS
62
4
100
AcDbLine
10
-12.990181325207
20
45.884732410218
30
0.0
11
-12.990181325207
21
41.884732410218
31
0.0
0
LINE
5
70b
100
AcDbEntity
8
0-1
6
CONTINUOUS
62
4
100
AcDbLine
10
-13.462178406773
20
41.884732410218
30
0.0
11
-13.462178406773
21
45.884732410218
31
0.0
0
LINE
5
70c
100
AcDbEntity
8
0-1
6
CONTINUOUS
62
4
100
AcDbLine
10
-13.873887989610
20
45.884732410218
30
0.0
11
-13.873887989610
21
41.884732410218
31
0.0
0
LINE
5
70d
100
AcDbEntity
8
0-1
6
CONTINUOUS
62
4
100
AcDbLine
10
-14.223672159927
20
41.884732410218
30
0.0
11
-14.223672159927
21
45.884732410218
31
0.0
0
LINE
5
70e
100
AcDbEntity
8
0-1
6
CONTINUOUS
62
4
100
AcDbLine
10
-14.509969673389
20
45.884732410218
30
0.0
11
-14.509969673389
21
41.884732410218
31
0.0
0
LINE
5
70f
100
AcDbEntity
8
0-1
6
CONTINUOUS
62
4
100
AcDbLine
10
-14.731502655211
20
41.884732410218
30
0.0
11
-14.731502655211
21
45.884732410218
31
0.0
0
LINE
5
710
100
AcDbEntity
8
0-1
6
CONTINUOUS
62
4
100
AcDbLine
10
-11.875205231194
20
45.884732410218
30
0.0
11
-11.875205231194
21
41.884732410218
31
0.0
0
LINE
5
711
100
AcDbEntity
8
0-1
6
CONTINUOUS
62
4
100
AcDbLine
10
-11.236804287742
20
41.884732410218
30
0.0
11
-11.236804287742
21
45.884732410218
31
0.0
0
LINE
5
712
100
AcDbEntity
8
0-1
6
CONTINUOUS
62
4
100
AcDbLine
10
-10.548248424384
20
45.884732410218
30
0.0
11
-10.548248424384
21
41.884732410218
31
0.0
0
LINE
5
713
100
AcDbEntity
8
0-1
6
CONTINUOUS
62
4
100
AcDbLine
10
-9.812610976142
20
41.884732410218
30
0.0
11
-9.812610976142
21
45.884732410218
31
0.0
0
LINE
5
714
100
AcDbEntity
8
0-1
6
CONTINUOUS
62
4
100
AcDbLine
10
-9.033175424366
20
45.884732410218
30
0.0
11
-9.033175424366
21
41.884732410218
31
0.0
0
LINE
5
715
100
AcDbEntity
8
0-1
6
CONTINUOUS
62
4
100
AcDbLine
10
-8.213420741073
20
41.884732410218
30
0.0
11
-8.213420741073
21
45.884732410218
31
0.0
0
LINE
5
716
100
AcDbEntity
8
0-1
6
CONTINUOUS
62
4
100
AcDbLine
10
-7.313192563602
20
45.884732410218
30
0.0
11
-7.313192563602
21
41.884732410218
31
0.0
0
LINE
5
717
100
AcDbEntity
8
0-1
6
CONTINUOUS
62
4
100
AcDbLine
10
-6.404106879524
20
41.884732410218
30
0.0
11
-6.404106879524
21
45.884732410218
31
0.0
0
LINE
5
718
100
AcDbEntity
8
0-1
6
CONTINUOUS
62
4
100
AcDbLine
10
-5.368891679069
20
45.884732410218
30
0.0
11
-5.368891679069
21
41.884732410218
31
0.0
0
LINE
5
719
100
AcDbEntity
8
0-1
6
CONTINUOUS
62
4
100
AcDbLine
10
-4.311721249005
20
41.884732410218
30
0.0
11
-4.311721249005
21
45.884732410218
31
0.0
0
LINE
5
71a
100
AcDbEntity
8
0-1
6
CONTINUOUS
62
4
100
AcDbLine
10
-3.186867872185
20
45.884732410218
30
0.0
11
-3.186867872185
21
41.884732410218
31
0.0
0
LINE
5
71b
100
AcDbEntity
8
0-1
6
DASHED
62
4
100
AcDbLine
10
-3.500000000000
20
41.884732410218
30
0.0
11
-3.500000000000
21
41.384732410218
31
0.0
0
LINE
5
71c
100
AcDbEntity
8
0-1
6
CONTINUOUS
62
4
100
AcDbLine
10
-1.998682758416
20
41.884732410218
30
0.0
11
-1.998682758416
21
45.884732410218
31
0.0
0
LINE
5
71d
100
AcDbEntity
8
0-1
6
CONTINUOUS
62
4
100
AcDbLine
10
-0.801576623056
20
45.884732410218
30
0.0
11
-0.801576623056
21
41.884732410218
31
0.0
0
LINE
5
71e
100
AcDbEntity
8
0-1
6
DASHED
62
4
100
AcDbLine
10
-0.801576623056
20
41.884732410218
30
0.0
11
0.000000000000
21
41.884732410218
31
0.0
0
LINE
5
71f
100
AcDbEntity
8
0-1
6
CONTINUOUS
62
4
100
AcDbLine
10
0.801576623056
20
41.884732410218
30
0.0
11
0.801576623056
21
45.884732410218
31
0.0
0
LINE
5
720
100
AcDbEntity
8
0-1
6
CONTINUOUS
62
4
100
AcDbLine
10
1.998682758416
20
45.884732410218
30
0.0
11
1.998682758416
21
41.884732410218
31
0.0
0
LINE
5
721
100
AcDbEntity
8
0-1
6
CONTINUOUS
62
4
100
AcDbLine
10
3.186867872185
20
41.884732410218
30
0.0
11
3.186867872185
21
45.884732410218
31
0.0
0
LINE
5
722
100
AcDbEntity
8
0-1
6
CONTINUOUS
62
4
100
AcDbLine
10
4.311721249005
20
45.884732410218
30
0.0
11
4.311721249005
21
41.884732410218
31
0.0
0
LINE
5
723
100
AcDbEntity
8
0-1
6
DASHED
62
4
100
AcDbLine
10
3.500000000000
20
41.884732410218
30
0.0
11
3.500000000000
21
41.384732410218
31
0.0
0
ARC
5
724
100
AcDbEntity
8
0-1
6
DASHED
62
4
100
AcDbCircle
10
-4.500000000000
20
41.384732410218
30
0.0
40
1.000000000000
100
AcDbArc
50
270.000000000000
51
360.000000000000
0
ARC
5
725
100
AcDbEntity
8
0-1
6
DASHED
62
4
100
AcDbCircle
10
4.500000000000
20
41.384732410218
30
0.0
40
1.000000000000
100
AcDbArc
50
180.000000000000
51
270.000000000000
0
CIRCLE
5
726
100
AcDbEntity
8
0-1
6
CONTINUOUS
62
4
100
AcDbCircle
10
0.000000000000
20
0.000000000000
30
0.0
40
14.500000000000
0
LINE
5
727
100
AcDbEntity
8
0-1
6
CENTER
62
4
100
AcDbLine
10
0.000000000000
20
40.384732410218
30
0.0
11
0.000000000000
21
66.384732410218
31
0.0
0
LINE
5
728
100
AcDbEntity
8
0-1
6
CENTER
62
4
100
AcDbLine
10
15.000000000000
20
0.000000000000
30
0.0
11
-15.000000000000
21
0.000000000000
31
0.0
0
LINE
5
729
100
AcDbEntity
8
0-0
6
CONTINUOUS
62
7
100
AcDbLine
10
82.500000000000
20
45.384732410218
30
0.0
11
117.500000000000
21
45.384732410218
31
0.0
0
ARC
5
72a
100
AcDbEntity
8
0-0
6
CONTINUOUS
62
7
100
AcDbCircle
10
84.500000000000
20
49.384732410218
30
0.0
40
2.000000000000
100
AcDbArc
50
90.000000000000
51
180.000000000000
0
LINE
5
72b
100
AcDbEntity
8
0-0
6
CONTINUOUS
62
7
100
AcDbLine
10
115.500000000000
20
51.384732410218
30
0.0
11
84.500000000000
21
51.384732410218
31
0.0
0
ARC
5
72c
100
AcDbEntity
8
0-0
6
CONTINUOUS
62
7
100
AcDbCircle
10
115.500000000000
20
49.384732410218
30
0.0
40
2.000000000000
100
AcDbArc
50
0.000000000000
51
90.000000000000
0
LINE
5
72d
100
AcDbEntity
8
0-0
6
CONTINUOUS
62
7
100
AcDbLine
10
95.500000000000
20
77.384732410218
30
0.0
11
95.000000000000
21
76.884732410218
31
0.0
0
LINE
5
72e
100
AcDbEntity
8
0-0
6
CONTINUOUS
62
7
100
AcDbLine
10
104.500000000000
20
77.384732410218
30
0.0
11
95.500000000000
21
77.384732410218
31
0.0
0
LINE
5
72f
100
AcDbEntity
8
0-0
6
CONTINUOUS
62
7
100
AcDbLine
10
104.500000000000
20
77.384732410218
30
0.0
11
105.000000000000
21
76.884732410218
31
0.0
0
LINE
5
730
100
AcDbEntity
8
0-0
6
CONTINUOUS
62
4
100
AcDbLine
10
95.000000000000
20
76.884732410218
30
0.0
11
105.000000000000
21
76.884732410218
31
0.0
0
POLYLINE
5
731
100
AcDbEntity
8
0-0
6
CONTINUOUS
62
  7
100
AcDb2dPolyline
66
1
10
0.0
20
0.0
30
0.0
70
0
0
VERTEX
5
732
100
AcDbEntity
8
0-0
6
CONTINUOUS
62
  7
100
AcDbVertex
100
AcDb2dVertex
10
91.650000000000
20
51.384732410218
30
0.0
0
VERTEX
5
733
100
AcDbEntity
8
0-0
6
CONTINUOUS
62
  7
100
AcDbVertex
100
AcDb2dVertex
10
91.650000000000
20
52.884732410218
30
0.0
0
VERTEX
5
734
100
AcDbEntity
8
0-0
6
CONTINUOUS
62
  7
100
AcDbVertex
100
AcDb2dVertex
10
108.350000000000
20
52.884732410218
30
0.0
0
SEQEND
5
735
100
AcDbEntity
8
0-0
0
LINE
5
736
100
AcDbEntity
8
0-0
6
CONTINUOUS
62
7
100
AcDbLine
10
108.350000000000
20
51.384732410218
30
0.0
11
108.350000000000
21
52.884732410218
31
0.0
0
LINE
5
737
100
AcDbEntity
8
0-0
6
CONTINUOUS
62
7
100
AcDbLine
10
105.000000000000
20
76.884732410218
30
0.0
11
105.000000000000
21
57.384732410218
31
0.0
0
LINE
5
738
100
AcDbEntity
8
0-0
6
CONTINUOUS
62
4
100
AcDbLine
10
104.375000000000
20
57.384732410218
30
0.0
11
104.375000000000
21
77.384732410218
31
0.0
0
LINE
5
739
100
AcDbEntity
8
0-0
6
CONTINUOUS
62
4
100
AcDbLine
10
95.625000000000
20
57.384732410218
30
0.0
11
95.625000000000
21
77.384732410218
31
0.0
0
LINE
5
73a
100
AcDbEntity
8
0-0
6
CONTINUOUS
62
7
100
AcDbLine
10
95.000000000000
20
76.884732410218
30
0.0
11
95.000000000000
21
57.384732410218
31
0.0
0
LINE
5
73b
100
AcDbEntity
8
0-0
6
CONTINUOUS
62
7
100
AcDbLine
10
95.958548115672
20
103.269205199860
30
0.0
11
104.041451884327
21
103.269205199860
31
0.0
0
LINE
5
73c
100
AcDbEntity
8
0-0
6
CONTINUOUS
62
7
100
AcDbLine
10
108.082903768655
20
96.269205199860
30
0.0
11
104.041451884327
21
103.269205199860
31
0.0
0
LINE
5
73d
100
AcDbEntity
8
0-0
6
CONTINUOUS
62
7
100
AcDbLine
10
104.041451884327
20
89.269205199860
30
0.0
11
108.082903768655
21
96.269205199860
31
0.0
0
LINE
5
73e
100
AcDbEntity
8
0-0
6
CONTINUOUS
62
7
100
AcDbLine
10
95.958548115672
20
89.269205199860
30
0.0
11
104.041451884327
21
89.269205199860
31
0.0
0
POLYLINE
5
73f
100
AcDbEntity
8
0-0
6
CONTINUOUS
62
  7
100
AcDb2dPolyline
66
1
10
0.0
20
0.0
30
0.0
70
0
0
VERTEX
5
740
100
AcDbEntity
8
0-0
6
CONTINUOUS
62
  7
100
AcDbVertex
100
AcDb2dVertex
10
95.958548115672
20
89.269205199860
30
0.0
0
VERTEX
5
741
100
AcDbEntity
8
0-0
6
CONTINUOUS
62
  7
100
AcDbVertex
100
AcDb2dVertex
10
91.917096231345
20
96.269205199860
30
0.0
0
VERTEX
5
742
100
AcDbEntity
8
0-0
6
CONTINUOUS
62
  7
100
AcDbVertex
100
AcDb2dVertex
10
95.958548115672
20
103.269205199860
30
0.0
0
SEQEND
5
743
100
AcDbEntity
8
0-0
0
CIRCLE
5
744
100
AcDbEntity
8
0-0
6
CONTINUOUS
62
4
100
AcDbCircle
10
100.000000000000
20
96.269205199860
30
0.0
40
7.000000000000
0
CIRCLE
5
745
100
AcDbEntity
8
0-0
6
CONTINUOUS
62
4
100
AcDbCircle
10
100.000000000000
20
96.269205199860
30
0.0
40
5.000000000000
0
CIRCLE
5
746
100
AcDbEntity
8
0-0
6
CONTINUOUS
62
7
100
AcDbCircle
10
100.000000000000
20
96.269205199860
30
0.0
40
4.300000190735
0
LINE
5
747
100
AcDbEntity
8
0-0
6
CONTINUOUS
62
7
100
AcDbLine
10
91.917096231345
20
56.759517627879
30
0.0
11
91.917096231345
21
52.884732410218
31
0.0
0
ELLIPSE
  5
748
100
AcDbEntity
8
0-0
6
CONTINUOUS
62
7
100
AcDbEllipse
10
93.937822173509
20
56.759517627879
30
0.0
11
2.020725942164
21
0.000000000000
31
0.0
210
0.0
220
0.0
230
1.0
40
0.309401076759
41
0.000000000000
42
1.570796326795
0
LINE
5
749
100
AcDbEntity
8
0-0
6
CONTINUOUS
62
7
100
AcDbLine
10
93.000000000000
20
57.384732410218
30
0.0
11
91.917096231345
21
56.759517627879
31
0.0
0
LINE
5
74a
100
AcDbEntity
8
0-0
6
CONTINUOUS
62
7
100
AcDbLine
10
108.082903768655
20
56.759517627879
30
0.0
11
108.082903768655
21
52.884732410218
31
0.0
0
POLYLINE
5
74b
100
AcDbEntity
8
0-0
6
CONTINUOUS
62
  7
100
AcDb2dPolyline
66
1
10
0.0
20
0.0
30
0.0
70
0
0
VERTEX
5
74c
100
AcDbEntity
8
0-0
6
CONTINUOUS
62
  7
100
AcDbVertex
100
AcDb2dVertex
10
93.000000000000
20
57.384732410218
30
0.0
0
VERTEX
5
74d
100
AcDbEntity
8
0-0
6
CONTINUOUS
62
  7
100
AcDbVertex
100
AcDb2dVertex
10
107.000000000000
20
57.384732410218
30
0.0
0
VERTEX
5
74e
100
AcDbEntity
8
0-0
6
CONTINUOUS
62
  7
100
AcDbVertex
100
AcDb2dVertex
10
108.082903768655
20
56.759517627879
30
0.0
0
SEQEND
5
74f
100
AcDbEntity
8
0-0
0
ELLIPSE
  5
750
100
AcDbEntity
8
0-0
6
CONTINUOUS
62
7
100
AcDbEllipse
10
106.062177826491
20
56.759517627879
30
0.0
11
-2.020725942164
21
0.000000000000
31
0.0
210
0.0
220
0.0
230
1.0
40
0.309401076759
41
4.712388980385
42
6.283185307180
0
LINE
5
751
100
AcDbEntity
8
0-0
6
CONTINUOUS
62
7
100
AcDbLine
10
95.958548115672
20
56.759517627879
30
0.0
11
95.958548115672
21
52.884732410218
31
0.0
0
ELLIPSE
  5
752
100
AcDbEntity
8
0-0
6
CONTINUOUS
62
7
100
AcDbEllipse
10
99.999999999836
20
56.759517627879
30
0.0
11
4.041451884164
21
0.000000000000
31
0.0
210
0.0
220
0.0
230
1.0
40
0.154700538386
41
0.000000000000
42
3.141592653590
0
LINE
5
753
100
AcDbEntity
8
0-0
6
CONTINUOUS
62
7
100
AcDbLine
10
104.041451884000
20
52.884732410218
30
0.0
11
104.041451884000
21
56.759517627879
31
0.0
0
LINE
5
754
100
AcDbEntity
8
0-0
6
CONTINUOUS
62
7
100
AcDbLine
10
82.500000000000
20
42.384732410218
30
0.0
11
82.500000000000
21
49.384732410218
31
0.0
0
ARC
5
755
100
AcDbEntity
8
0-0
6
CONTINUOUS
62
7
100
AcDbCircle
10
84.500000000000
20
42.384732410218
30
0.0
40
2.000000000000
100
AcDbArc
50
180.000000000000
51
270.000000000000
0
LINE
5
756
100
AcDbEntity
8
0-0
6
CONTINUOUS
62
7
100
AcDbLine
10
115.500000000000
20
40.384732410218
30
0.0
11
84.500000000000
21
40.384732410218
31
0.0
0
LINE
5
757
100
AcDbEntity
8
0-0
6
CONTINUOUS
62
7
100
AcDbLine
10
117.500000000000
20
42.384732410218
30
0.0
11
117.500000000000
21
49.384732410218
31
0.0
0
ARC
5
758
100
AcDbEntity
8
0-0
6
CONTINUOUS
62
7
100
AcDbCircle
10
115.500000000000
20
42.384732410218
30
0.0
40
2.000000000000
100
AcDbArc
50
270.000000000000
51
360.000000000000
0
LINE
5
759
100
AcDbEntity
8
0-0
6
CENTER
62
4
100
AcDbLine
10
100.000000000000
20
89.269205199860
30
0.0
11
100.000000000000
21
103.269205199860
31
0.0
0
LINE
5
75a
100
AcDbEntity
8
0-0
6
CENTER
62
4
100
AcDbLine
10
91.917096231345
20
96.269205199860
30
0.0
11
108.082903768655
21
96.269205199860
31
0.0
0
LINE
5
75b
100
AcDbEntity
8
0-0
6
CENTER
62
4
100
AcDbLine
10
100.000000000000
20
40.384732410218
30
0.0
11
100.000000000000
21
77.384732410218
31
0.0
0
POLYLINE
5
75c
100
AcDbEntity
8
0-0
6
CONTINUOUS
62
  7
100
AcDb2dPolyline
66
1
10
0.0
20
0.0
30
0.0
70
0
0
VERTEX
5
75d
100
AcDbEntity
8
0-0
6
CONTINUOUS
62
  7
100
AcDbVertex
100
AcDb2dVertex
10
195.000000000000
20
53.853896410219
30
0.0
0
VERTEX
5
75e
100
AcDbEntity
8
0-0
6
CONTINUOUS
62
  7
100
AcDbVertex
100
AcDb2dVertex
10
205.000000000000
20
53.853896410219
30
0.0
0
VERTEX
5
75f
100
AcDbEntity
8
0-0
6
CONTINUOUS
62
  7
100
AcDbVertex
100
AcDb2dVertex
10
205.000000000000
20
74.784732410219
30
0.0
0
SEQEND
5
760
100
AcDbEntity
8
0-0
0
POLYLINE
5
761
100
AcDbEntity
8
0-0
6
CONTINUOUS
62
  7
100
AcDb2dPolyline
66
1
10
0.0
20
0.0
30
0.0
70
0
0
VERTEX
5
762
100
AcDbEntity
8
0-0
6
CONTINUOUS
62
  7
100
AcDbVertex
100
AcDb2dVertex
10
195.000000000000
20
74.784732410219
30
0.0
0
VERTEX
5
763
100
AcDbEntity
8
0-0
6
CONTINUOUS
62
  7
100
AcDbVertex
100
AcDb2dVertex
10
195.000000000000
20
53.853896410219
30
0.0
0
VERTEX
5
764
100
AcDbEntity
8
0-0
6
CONTINUOUS
62
  7
100
AcDbVertex
100
AcDb2dVertex
10
193.275235000000
20
52.129131410219
30
0.0
0
SEQEND
5
765
100
AcDbEntity
8
0-0
0
POLYLINE
5
766
100
AcDbEntity
8
0-0
6
CONTINUOUS
62
  7
100
AcDb2dPolyline
66
1
10
0.0
20
0.0
30
0.0
70
0
0
VERTEX
5
767
100
AcDbEntity
8
0-0
6
CONTINUOUS
62
  7
100
AcDbVertex
100
AcDb2dVertex
10
191.988741000000
20
52.129131410219
30
0.0
0
VERTEX
5
768
100
AcDbEntity
8
0-0
6
CONTINUOUS
62
  7
100
AcDbVertex
100
AcDb2dVertex
10
208.011258000000
20
52.129131410219
30
0.0
0
VERTEX
5
769
100
AcDbEntity
8
0-0
6
CONTINUOUS
62
  7
100
AcDbVertex
100
AcDb2dVertex
10
208.011258000000
20
51.384732410218
30
0.0
0
SEQEND
5
76a
100
AcDbEntity
8
0-0
0
LINE
5
76b
100
AcDbEntity
8
0-0
6
CONTINUOUS
62
7
100
AcDbLine
10
206.724764000000
20
52.129131410219
30
0.0
11
205.000000000000
21
53.853896410219
31
0.0
0
POLYLINE
5
76c
100
AcDbEntity
8
0-0
6
CONTINUOUS
62
  7
100
AcDb2dPolyline
66
1
10
0.0
20
0.0
30
0.0
70
0
0
VERTEX
5
76d
100
AcDbEntity
8
0-0
6
CONTINUOUS
62
  7
100
AcDbVertex
100
AcDb2dVertex
10
196.600000000000
20
76.384732410218
30
0.0
0
VERTEX
5
76e
100
AcDbEntity
8
0-0
6
CONTINUOUS
62
  7
100
AcDbVertex
100
AcDb2dVertex
10
203.400000000000
20
76.384732410218
30
0.0
0
VERTEX
5
76f
100
AcDbEntity
8
0-0
6
CONTINUOUS
62
  7
100
AcDbVertex
100
AcDb2dVertex
10
205.000000000000
20
74.784732410219
30
0.0
0
SEQEND
5
770
100
AcDbEntity
8
0-0
0
LINE
5
771
100
AcDbEntity
8
0-0
6
CONTINUOUS
62
7
100
AcDbLine
10
213.500000000000
20
41.384732410218
30
0.0
11
213.500000000000
21
42.951956410219
31
0.0
0
LINE
5
772
100
AcDbEntity
8
0-0
6
CONTINUOUS
62
7
100
AcDbLine
10
186.500000000000
20
41.384732410218
30
0.0
11
186.500000000000
21
42.951956410219
31
0.0
0
POLYLINE
5
773
100
AcDbEntity
8
0-0
6
CONTINUOUS
62
  7
100
AcDb2dPolyline
66
1
10
0.0
20
0.0
30
0.0
70
0
0
VERTEX
5
774
100
AcDbEntity
8
0-0
6
CONTINUOUS
62
  7
100
AcDbVertex
100
AcDb2dVertex
10
186.500000000000
20
41.384732410218
30
0.0
0
VERTEX
5
775
100
AcDbEntity
8
0-0
6
CONTINUOUS
62
  7
100
AcDbVertex
100
AcDb2dVertex
10
187.500000000000
20
40.384732410218
30
0.0
0
VERTEX
5
776
100
AcDbEntity
8
0-0
6
CONTINUOUS
62
  7
100
AcDbVertex
100
AcDb2dVertex
10
212.500000000000
20
40.384732410218
30
0.0
0
VERTEX
5
777
100
AcDbEntity
8
0-0
6
CONTINUOUS
62
  7
100
AcDbVertex
100
AcDb2dVertex
10
213.500000000000
20
41.384732410218
30
0.0
0
SEQEND
5
778
100
AcDbEntity
8
0-0
0
LINE
5
779
100
AcDbEntity
8
0-0
6
CONTINUOUS
62
7
100
AcDbLine
10
191.988741000000
20
51.384732410218
30
0.0
11
191.988741000000
21
52.129131410219
31
0.0
0
LINE
5
77a
100
AcDbEntity
8
0-0
6
CONTINUOUS
62
7
100
AcDbLine
10
195.000000000000
20
74.784732410219
30
0.0
11
196.600000000000
21
76.384732410218
31
0.0
0
LINE
5
77b
100
AcDbEntity
8
0-0
6
CONTINUOUS
62
7
100
AcDbLine
10
186.600000000000
20
51.384732410218
30
0.0
11
213.400000000000
21
51.384732410218
31
0.0
0
ARC
5
77c
100
AcDbEntity
8
0-0
6
CONTINUOUS
62
7
100
AcDbCircle
10
213.400001942396
20
48.784734352614
30
0.0
40
2.599998057605
100
AcDbArc
50
359.999957195713
51
450.000042804289
0
LINE
5
77d
100
AcDbEntity
8
0-0
6
CONTINUOUS
62
7
100
AcDbLine
10
216.000000000000
20
48.784732410219
30
0.0
11
216.000000000000
21
42.951956410219
31
0.0
0
LINE
5
77e
100
AcDbEntity
8
0-0
6
CONTINUOUS
62
7
100
AcDbLine
10
184.000000000000
20
42.951956410219
30
0.0
11
184.000000000000
21
48.784732410219
31
0.0
0
ARC
5
77f
100
AcDbEntity
8
0-0
6
CONTINUOUS
62
7
100
AcDbCircle
10
186.599998057605
20
48.784734352614
30
0.0
40
2.599998057605
100
AcDbArc
50
89.999957195710
51
180.000042804286
0
LINE
5
780
100
AcDbEntity
8
0-0
6
CONTINUOUS
62
7
100
AcDbLine
10
216.000000000000
20
42.951956410219
30
0.0
11
184.000000000000
21
42.951956410219
31
0.0
0
CIRCLE
5
781
100
AcDbEntity
8
0-0
6
CONTINUOUS
62
7
100
AcDbCircle
10
200.000000000000
20
0.000000000000
30
0.0
40
13.500000000000
0
CIRCLE
5
782
100
AcDbEntity
8
0-0
6
CONTINUOUS
62
7
100
AcDbCircle
10
200.000000000000
20
0.000000000000
30
0.0
40
6.000000000000
0
CIRCLE
5
783
100
AcDbEntity
8
0-0
6
CONTINUOUS
62
7
100
AcDbCircle
10
200.000000000000
20
0.000000000000
30
0.0
40
2.600000000000
0
CIRCLE
5
784
100
AcDbEntity
8
0-0
6
CONTINUOUS
62
7
100
AcDbCircle
10
200.000000000000
20
0.000000000000
30
0.0
40
10.000000000000
0
CIRCLE
5
785
100
AcDbEntity
8
0-0
6
CONTINUOUS
62
7
100
AcDbCircle
10
200.000000000000
20
0.000000000000
30
0.0
40
16.000000000000
0
LINE
5
786
100
AcDbEntity
8
0-1
6
CONTINUOUS
62
4
100
AcDbLine
10
203.400000000000
20
76.384732410218
30
0.0
11
203.400000000000
21
55.384732410218
31
0.0
0
LINE
5
787
100
AcDbEntity
8
0-1
6
CONTINUOUS
62
4
100
AcDbLine
10
205.000000000000
20
74.784732410219
30
0.0
11
195.000000000000
21
74.784732410219
31
0.0
0
LINE
5
788
100
AcDbEntity
8
0-1
6
CONTINUOUS
62
4
100
AcDbLine
10
196.600000000000
20
55.384732410218
30
0.0
11
196.600000000000
21
76.384732410218
31
0.0
0
LINE
5
789
100
AcDbEntity
8
0-1
6
CONTINUOUS
62
4
100
AcDbLine
10
205.000000000000
20
55.384732410218
30
0.0
11
195.000000000000
21
55.384732410218
31
0.0
0
LINE
5
78a
100
AcDbEntity
8
0-1
6
CONTINUOUS
62
4
100
AcDbLine
10
213.500000000000
20
41.384732410218
30
0.0
11
186.500000000000
21
41.384732410218
31
0.0
0
CIRCLE
5
78b
100
AcDbEntity
8
0-1
6
CONTINUOUS
62
4
100
AcDbCircle
10
200.000000000000
20
0.000000000000
30
0.0
40
15.000000000000
0
CIRCLE
5
78c
100
AcDbEntity
8
0-1
6
CONTINUOUS
62
4
100
AcDbCircle
10
200.000000000000
20
0.000000000000
30
0.0
40
9.000000000000
0
LINE
5
78d
100
AcDbEntity
8
0-1
6
CENTER
62
4
100
AcDbLine
10
200.000000000000
20
76.384732410218
30
0.0
11
200.000000000000
21
40.384732410218
31
0.0
0
LINE
5
78e
100
AcDbEntity
8
0-1
6
CENTER
62
4
100
AcDbLine
10
184.000000000000
20
0.000000000000
30
0.0
11
216.000000000000
21
0.000000000000
31
0.0
0
LINE
5
78f
100
AcDbEntity
8
0-1
6
CENTER
62
4
100
AcDbLine
10
200.000000000000
20
16.000000000000
30
0.0
11
200.000000000000
21
-16.000000000000
31
0.0
0
LINE
5
790
100
AcDbEntity
8
F-F_J_ADD
6
HIDDEN
62
253
100
AcDbLine
10
400.000000000000
20
290.384732410218
30
0.0
11
400.000000000000
21
40.384732410218
31
0.0
0
POLYLINE
5
791
100
AcDbEntity
8
0-0
6
CONTINUOUS
62
  7
100
AcDb2dPolyline
66
1
10
0.0
20
0.0
30
0.0
70
0
0
VERTEX
5
792
100
AcDbEntity
8
0-0
6
CONTINUOUS
62
  7
100
AcDbVertex
100
AcDb2dVertex
10
418.000000000000
20
40.384732410218
30
0.0
0
VERTEX
5
793
100
AcDbEntity
8
0-0
6
CONTINUOUS
62
  7
100
AcDbVertex
100
AcDb2dVertex
10
382.000000000000
20
40.384732410218
30
0.0
0
VERTEX
5
794
100
AcDbEntity
8
0-0
6
CONTINUOUS
62
  7
100
AcDbVertex
100
AcDb2dVertex
10
382.000000000000
20
44.384732410218
30
0.0
0
SEQEND
5
795
100
AcDbEntity
8
0-0
0
POLYLINE
5
796
100
AcDbEntity
8
0-0
6
CONTINUOUS
62
  7
100
AcDb2dPolyline
66
1
10
0.0
20
0.0
30
0.0
70
0
0
VERTEX
5
797
100
AcDbEntity
8
0-0
6
CONTINUOUS
62
  7
100
AcDbVertex
100
AcDb2dVertex
10
380.000000000000
20
44.384732410218
30
0.0
0
VERTEX
5
798
100
AcDbEntity
8
0-0
6
CONTINUOUS
62
  7
100
AcDbVertex
100
AcDb2dVertex
10
420.000000000000
20
44.384732410218
30
0.0
0
VERTEX
5
799
100
AcDbEntity
8
0-0
6
CONTINUOUS
62
  7
100
AcDbVertex
100
AcDb2dVertex
10
420.000000000000
20
48.384732410218
30
0.0
0
SEQEND
5
79a
100
AcDbEntity
8
0-0
0
LINE
5
79b
100
AcDbEntity
8
0-0
6
CONTINUOUS
62
7
100
AcDbLine
10
418.000000000000
20
44.384732410218
30
0.0
11
418.000000000000
21
40.384732410218
31
0.0
0
LINE
5
79c
100
AcDbEntity
8
0-0
6
CONTINUOUS
62
7
100
AcDbLine
10
415.000000000000
20
53.384732410218
30
0.0
11
385.000000000000
21
53.384732410218
31
0.0
0
LINE
5
79d
100
AcDbEntity
8
0-0
6
CONTINUOUS
62
7
100
AcDbLine
10
390.762400000000
20
54.099262410218
30
0.0
11
392.000000000000
21
53.384732410218
31
0.0
0
POLYLINE
5
79e
100
AcDbEntity
8
0-0
6
CONTINUOUS
62
  7
100
AcDb2dPolyline
66
1
10
0.0
20
0.0
30
0.0
70
0
0
VERTEX
5
79f
100
AcDbEntity
8
0-0
6
CONTINUOUS
62
  7
100
AcDbVertex
100
AcDb2dVertex
10
390.762400000000
20
54.099262410218
30
0.0
0
VERTEX
5
7a0
100
AcDbEntity
8
0-0
6
CONTINUOUS
62
  7
100
AcDbVertex
100
AcDb2dVertex
10
390.762400000000
20
60.384732410218
30
0.0
0
VERTEX
5
7a1
100
AcDbEntity
8
0-0
6
CONTINUOUS
62
  7
100
AcDbVertex
100
AcDb2dVertex
10
409.237610000000
20
60.384732410218
30
0.0
0
VERTEX
5
7a2
100
AcDbEntity
8
0-0
6
CONTINUOUS
62
  7
100
AcDbVertex
100
AcDb2dVertex
10
409.237610000000
20
54.099262410218
30
0.0
0
VERTEX
5
7a3
100
AcDbEntity
8
0-0
6
CONTINUOUS
62
  7
100
AcDbVertex
100
AcDb2dVertex
10
408.000000000000
20
53.384732410218
30
0.0
0
SEQEND
5
7a4
100
AcDbEntity
8
0-0
0
LINE
5
7a5
100
AcDbEntity
8
0-0
6
CONTINUOUS
62
7
100
AcDbLine
10
404.618810000000
20
54.099262410218
30
0.0
11
404.618810000000
21
60.384732410218
31
0.0
0
LINE
5
7a6
100
AcDbEntity
8
0-0
6
CONTINUOUS
62
7
100
AcDbLine
10
404.300010000000
20
110.384732410218
30
0.0
11
405.000000000000
21
109.684732410218
31
0.0
0
LINE
5
7a7
100
AcDbEntity
8
0-0
6
CONTINUOUS
62
7
100
AcDbLine
10
395.700000000000
20
110.384732410218
30
0.0
11
395.000000000000
21
109.684732410218
31
0.0
0
LINE
5
7a8
100
AcDbEntity
8
0-0
6
CONTINUOUS
62
7
100
AcDbLine
10
395.381200000000
20
60.384732410218
30
0.0
11
395.381200000000
21
54.099262410218
31
0.0
0
LINE
5
7a9
100
AcDbEntity
8
0-0
6
CONTINUOUS
62
7
100
AcDbLine
10
395.700000000000
20
110.384732410218
30
0.0
11
404.300010000000
21
110.384732410218
31
0.0
0
LINE
5
7aa
100
AcDbEntity
8
0-0
6
CONTINUOUS
62
7
100
AcDbLine
10
380.000000000000
20
48.384732410218
30
0.0
11
380.000000000000
21
44.384732410218
31
0.0
0
ARC
5
7ab
100
AcDbEntity
8
0-0
6
CONTINUOUS
62
7
100
AcDbCircle
10
385.000000000000
20
48.384732410218
30
0.0
40
5.000000000000
100
AcDbArc
50
90.000000000000
51
180.000000000000
0
ARC
5
7ac
100
AcDbEntity
8
0-0
6
CONTINUOUS
62
7
100
AcDbCircle
10
415.000000000000
20
48.384732410218
30
0.0
40
5.000000000000
100
AcDbArc
50
0.000000000000
51
90.000000000000
0
ARC
5
7ad
100
AcDbEntity
8
0-0
6
CONTINUOUS
62
7
100
AcDbCircle
10
393.071800000000
20
57.474042410218
30
0.0
40
4.089316400000
100
AcDbArc
50
235.615760000000
51
304.384250000000
0
ARC
5
7ae
100
AcDbEntity
8
0-0
6
CONTINUOUS
62
7
100
AcDbCircle
10
406.928210000000
20
57.474042410218
30
0.0
40
4.089316400000
100
AcDbArc
50
235.615760000000
51
304.384250000000
0
ARC
5
7af
100
AcDbEntity
8
0-0
6
CONTINUOUS
62
7
100
AcDbCircle
10
400.000000000000
20
68.670202410219
30
0.0
40
15.285468000000
100
AcDbArc
50
252.412050000000
51
287.587960000000
0
LINE
5
7b0
100
AcDbEntity
8
0-0
6
CONTINUOUS
62
7
100
AcDbLine
10
390.185045242309
20
73.288259193208
30
0.0
11
390.185045242309
21
80.384732410218
31
0.0
0
LINE
5
7b1
100
AcDbEntity
8
0-0
6
CONTINUOUS
62
7
100
AcDbLine
10
392.638783931732
20
72.384732410218
30
0.0
11
407.361216068268
21
72.384732410218
31
0.0
0
LINE
5
7b2
100
AcDbEntity
8
0-0
6
CONTINUOUS
62
7
100
AcDbLine
10
395.092522621155
20
73.288259193208
30
0.0
11
395.092522621155
21
80.384732410218
31
0.0
0
LINE
5
7b3
100
AcDbEntity
8
0-0
6
CONTINUOUS
62
7
100
AcDbLine
10
404.907477378845
20
73.288259193208
30
0.0
11
404.907477378845
21
80.384732410218
31
0.0
0
LINE
5
7b4
100
AcDbEntity
8
0-0
6
CONTINUOUS
62
7
100
AcDbLine
10
409.814954757690
20
73.288259193208
30
0.0
11
409.814954757690
21
80.384732410218
31
0.0
0
ARC
5
7b5
100
AcDbEntity
8
0-0
6
CONTINUOUS
62
7
100
AcDbCircle
10
400.000000000000
20
86.163897678163
30
0.0
40
13.779165267944
100
AcDbArc
50
249.135925292969
51
290.864059448242
0
POLYLINE
5
7b6
100
AcDbEntity
8
0-0
6
CONTINUOUS
62
  7
100
AcDb2dPolyline
66
1
10
0.0
20
0.0
30
0.0
70
0
0
VERTEX
5
7b7
100
AcDbEntity
8
0-0
6
CONTINUOUS
62
  7
100
AcDbVertex
100
AcDb2dVertex
10
390.185227084706
20
73.288259604206
30
0.0
0
VERTEX
5
7b8
100
AcDbEntity
8
0-0
6
CONTINUOUS
62
  7
100
AcDbVertex
100
AcDb2dVertex
10
390.784795824836
20
72.875306118455
30
0.0
0
VERTEX
5
7b9
100
AcDbEntity
8
0-0
6
CONTINUOUS
62
  7
100
AcDbVertex
100
AcDb2dVertex
10
391.440697055431
20
72.582711376771
30
0.0
0
VERTEX
5
7ba
100
AcDbEntity
8
0-0
6
CONTINUOUS
62
  7
100
AcDbVertex
100
AcDb2dVertex
10
392.133001549501
20
72.419365722320
30
0.0
0
VERTEX
5
7bb
100
AcDbEntity
8
0-0
6
CONTINUOUS
62
  7
100
AcDbVertex
100
AcDb2dVertex
10
392.840673985317
20
72.390232330156
30
0.0
0
VERTEX
5
7bc
100
AcDbEntity
8
0-0
6
CONTINUOUS
62
  7
100
AcDbVertex
100
AcDb2dVertex
10
393.542212094016
20
72.496196403658
30
0.0
0
VERTEX
5
7bd
100
AcDbEntity
8
0-0
6
CONTINUOUS
62
  7
100
AcDbVertex
100
AcDb2dVertex
10
394.216299995160
20
72.734038278071
30
0.0
0
VERTEX
5
7be
100
AcDbEntity
8
0-0
6
CONTINUOUS
62
  7
100
AcDbVertex
100
AcDb2dVertex
10
394.842455868979
20
73.096531248397
30
0.0
0
VERTEX
5
7bf
100
AcDbEntity
8
0-0
6
CONTINUOUS
62
  7
100
AcDbVertex
100
AcDb2dVertex
10
395.092339916394
20
73.288258888206
30
0.0
0
SEQEND
5
7c0
100
AcDbEntity
8
0-0
0
POLYLINE
5
7c1
100
AcDbEntity
8
0-0
6
CONTINUOUS
62
  7
100
AcDb2dPolyline
66
1
10
0.0
20
0.0
30
0.0
70
0
0
VERTEX
5
7c2
100
AcDbEntity
8
0-0
6
CONTINUOUS
62
  7
100
AcDbVertex
100
AcDb2dVertex
10
404.907659221242
20
73.288259604206
30
0.0
0
VERTEX
5
7c3
100
AcDbEntity
8
0-0
6
CONTINUOUS
62
  7
100
AcDbVertex
100
AcDb2dVertex
10
405.507227961372
20
72.875306118455
30
0.0
0
VERTEX
5
7c4
100
AcDbEntity
8
0-0
6
CONTINUOUS
62
  7
100
AcDbVertex
100
AcDb2dVertex
10
406.163129191967
20
72.582711376771
30
0.0
0
VERTEX
5
7c5
100
AcDbEntity
8
0-0
6
CONTINUOUS
62
  7
100
AcDbVertex
100
AcDb2dVertex
10
406.855433686037
20
72.419365722320
30
0.0
0
VERTEX
5
7c6
100
AcDbEntity
8
0-0
6
CONTINUOUS
62
  7
100
AcDbVertex
100
AcDb2dVertex
10
407.563106121852
20
72.390232330156
30
0.0
0
VERTEX
5
7c7
100
AcDbEntity
8
0-0
6
CONTINUOUS
62
  7
100
AcDbVertex
100
AcDb2dVertex
10
408.264644230551
20
72.496196403658
30
0.0
0
VERTEX
5
7c8
100
AcDbEntity
8
0-0
6
CONTINUOUS
62
  7
100
AcDbVertex
100
AcDb2dVertex
10
408.938732131696
20
72.734038278071
30
0.0
0
VERTEX
5
7c9
100
AcDbEntity
8
0-0
6
CONTINUOUS
62
  7
100
AcDbVertex
100
AcDb2dVertex
10
409.564888005515
20
73.096531248397
30
0.0
0
VERTEX
5
7ca
100
AcDbEntity
8
0-0
6
CONTINUOUS
62
  7
100
AcDbVertex
100
AcDb2dVertex
10
409.814772052930
20
73.288258888206
30
0.0
0
SEQEND
5
7cb
100
AcDbEntity
8
0-0
0
LINE
5
7cc
100
AcDbEntity
8
0-0
6
CONTINUOUS
62
7
100
AcDbLine
10
390.185045242309
20
80.384732410218
30
0.0
11
409.814954757690
21
80.384732410218
31
0.0
0
LINE
5
7cd
100
AcDbEntity
8
0-0
6
CONTINUOUS
62
7
100
AcDbLine
10
395.000000000000
20
109.684732410218
30
0.0
11
395.000000000000
21
80.384732410218
31
0.0
0
LINE
5
7ce
100
AcDbEntity
8
0-0
6
CONTINUOUS
62
7
100
AcDbLine
10
395.000000000000
20
72.384732410218
30
0.0
11
395.000000000000
21
60.384732410218
31
0.0
0
LINE
5
7cf
100
AcDbEntity
8
0-0
6
CONTINUOUS
62
7
100
AcDbLine
10
405.000000000000
20
109.684732410218
30
0.0
11
405.000000000000
21
80.384732410218
31
0.0
0
LINE
5
7d0
100
AcDbEntity
8
0-0
6
CONTINUOUS
62
7
100
AcDbLine
10
405.000000000000
20
72.384732410218
30
0.0
11
405.000000000000
21
60.384732410218
31
0.0
0
CIRCLE
5
7d1
100
AcDbEntity
8
0-0
6
CONTINUOUS
62
7
100
AcDbCircle
10
399.999999997067
20
187.089176355276
30
0.0
40
19.999999997067
0
CIRCLE
5
7d2
100
AcDbEntity
8
0-0
6
CONTINUOUS
62
7
100
AcDbCircle
10
399.999999997067
20
187.089176355276
30
0.0
40
14.999999997067
0
POLYLINE
5
7d3
100
AcDbEntity
8
0-0
6
CONTINUOUS
62
  7
100
AcDb2dPolyline
66
1
10
0.0
20
0.0
30
0.0
70
0
0
VERTEX
5
7d4
100
AcDbEntity
8
0-0
6
CONTINUOUS
62
  7
100
AcDbVertex
100
AcDb2dVertex
10
399.999999997067
20
177.274221597586
30
0.0
0
VERTEX
5
7d5
100
AcDbEntity
8
0-0
6
CONTINUOUS
62
  7
100
AcDbVertex
100
AcDb2dVertex
10
408.499999997067
20
182.181698976431
30
0.0
0
VERTEX
5
7d6
100
AcDbEntity
8
0-0
6
CONTINUOUS
62
  7
100
AcDbVertex
100
AcDb2dVertex
10
408.499999997067
20
191.996653734121
30
0.0
0
VERTEX
5
7d7
100
AcDbEntity
8
0-0
6
CONTINUOUS
62
  7
100
AcDbVertex
100
AcDb2dVertex
10
399.999999997067
20
196.904131112967
30
0.0
0
VERTEX
5
7d8
100
AcDbEntity
8
0-0
6
CONTINUOUS
62
  7
100
AcDbVertex
100
AcDb2dVertex
10
391.499999997067
20
191.996653734121
30
0.0
0
VERTEX
5
7d9
100
AcDbEntity
8
0-0
6
CONTINUOUS
62
  7
100
AcDbVertex
100
AcDb2dVertex
10
391.499999997067
20
182.181698976431
30
0.0
0
VERTEX
5
7da
100
AcDbEntity
8
0-0
6
CONTINUOUS
62
  7
100
AcDbVertex
100
AcDb2dVertex
10
399.999999997067
20
177.274221597586
30
0.0
0
SEQEND
5
7db
100
AcDbEntity
8
0-0
0
CIRCLE
5
7dc
100
AcDbEntity
8
0-0
6
CONTINUOUS
62
7
100
AcDbCircle
10
399.999999997067
20
187.089176355276
30
0.0
40
8.250000000000
0
CIRCLE
5
7dd
100
AcDbEntity
8
0-0
6
CONTINUOUS
62
7
100
AcDbCircle
10
399.999999997067
20
187.089176355276
30
0.0
40
5.000000000000
0
LINE
5
7de
100
AcDbEntity
8
0-1
6
CENTER
62
4
100
AcDbLine
10
400.000000000000
20
40.384732410218
30
0.0
11
400.000000000000
21
110.384732410218
31
0.0
0
LINE
5
7df
100
AcDbEntity
8
0-1
6
CONTINUOUS
62
4
100
AcDbLine
10
405.000000000000
20
109.684732410218
30
0.0
11
395.000000000000
21
109.684732410218
31
0.0
0
TEXT
5
7e0
100
AcDbEntity
8
0-1
62
7
370
-3
100
AcDbText
10
381.161
20
32.355
30
0.0
40
4.208
1
AJ10-S
41
0.579
50
0.000
100
AcDbText
0
LINE
5
7e1
100
AcDbEntity
8
F-F_J_ADD
6
HIDDEN
62
4
100
AcDbLine
10
400.000000000000
20
80.384732410218
30
0.0
11
399.292893218813
21
81.091839191405
31
0.0
0
LINE
5
7e2
100
AcDbEntity
8
F-F_J_ADD
6
HIDDEN
62
4
100
AcDbLine
10
400.000000000000
20
80.384732410218
30
0.0
11
400.707106781187
21
81.091839191405
31
0.0
0
LINE
5
7e3
100
AcDbEntity
8
0-1
6
CONTINUOUS
62
4
100
AcDbLine
10
395.700000000000
20
60.384732410218
30
0.0
11
395.700000000000
21
72.384732410218
31
0.0
0
LINE
5
7e4
100
AcDbEntity
8
0-1
6
CONTINUOUS
62
4
100
AcDbLine
10
395.700000000000
20
80.384732410218
30
0.0
11
395.700000000000
21
110.384732410218
31
0.0
0
LINE
5
7e5
100
AcDbEntity
8
0-1
6
CONTINUOUS
62
4
100
AcDbLine
10
404.300010000000
20
60.384732410218
30
0.0
11
404.300010000000
21
72.384732410218
31
0.0
0
LINE
5
7e6
100
AcDbEntity
8
0-1
6
CONTINUOUS
62
4
100
AcDbLine
10
404.300010000000
20
80.384732410218
30
0.0
11
404.300010000000
21
110.384732410218
31
0.0
0
CIRCLE
5
7e7
100
AcDbEntity
8
0-1
6
CONTINUOUS
62
4
100
AcDbCircle
10
399.999999997067
20
187.089176355276
30
0.0
40
4.349999904633
0
LINE
5
7e8
100
AcDbEntity
8
0-1
6
CENTER
62
4
100
AcDbLine
10
380.000000000000
20
187.089176355276
30
0.0
11
419.999999994134
21
187.089176355276
31
0.0
0
LINE
5
7e9
100
AcDbEntity
8
0-1
6
CENTER
62
4
100
AcDbLine
10
399.999999997067
20
167.089176358209
30
0.0
11
399.999999997067
21
207.089176352343
31
0.0
0
TEXT
5
7ea
100
AcDbEntity
8
0-0
62
7
370
-3
100
AcDbText
10
100.172
20
36.745
30
0.0
40
3.618
41
0.388
50
0.000
1
AJSE
72
0
11
100.000
21
39.285
31
0.0
100
AcDbText
73
3
0
TEXT
5
7eb
100
AcDbEntity
8
0-0
62
7
370
-3
100
AcDbText
10
0.172
20
286.745
30
0.0
40
3.618
41
0.427
50
0.000
1
AJ1040-L80
72
0
11
-0.000
21
289.285
31
0.0
100
AcDbText
73
3
0
TEXT
5
7ec
100
AcDbEntity
8
0-0
62
7
370
-3
100
AcDbText
10
100.172
20
286.745
30
0.0
40
3.618
41
0.451
50
0.000
1
AJ1040-L100
72
0
11
100.000
21
289.285
31
0.0
100
AcDbText
73
3
0
TEXT
5
7ed
100
AcDbEntity
8
0-0
62
7
370
-3
100
AcDbText
10
200.172
20
286.745
30
0.0
40
3.618
41
0.437
50
0.000
1
AJ1240-L100
72
0
11
200.000
21
289.285
31
0.0
100
AcDbText
73
3
0
LINE
5
7ee
100
AcDbEntity
8
F-F_J_ADD
6
HIDDEN
62
253
100
AcDbLine
10
200.000000000000
20
290.384732410218
30
0.0
11
200.000000000000
21
590.384732410218
31
0.0
0
LINE
5
7ef
100
AcDbEntity
8
F-F_J_ADD
6
HIDDEN
62
253
100
AcDbLine
10
100.000000000000
20
290.384732410218
30
0.0
11
100.000000000000
21
590.384732410218
31
0.0
0
LINE
5
7f0
100
AcDbEntity
8
F-F_J_ADD
6
HIDDEN
62
253
100
AcDbLine
10
300.000000000000
20
290.384732410218
30
0.0
11
300.000000000000
21
590.384732410218
31
0.0
0
LINE
5
7f1
100
AcDbEntity
8
F-F_J_ADD
6
HIDDEN
62
253
100
AcDbLine
10
400.000000000000
20
290.384732410218
30
0.0
11
400.000000000000
21
590.384732410218
31
0.0
0
CIRCLE
5
7f2
100
AcDbEntity
8
0-0
6
CONTINUOUS
62
7
100
AcDbCircle
10
100.000000000000
20
0.000000000000
30
0.0
40
17.500000000000
0
CIRCLE
5
7f3
100
AcDbEntity
8
0-0
6
CONTINUOUS
62
7
100
AcDbCircle
10
100.000000000000
20
0.000000000000
30
0.0
40
4.750000000000
0
CIRCLE
5
7f4
100
AcDbEntity
8
0-0
6
CONTINUOUS
62
4
100
AcDbCircle
10
100.000000000000
20
0.000000000000
30
0.0
40
6.300000000000
0
CIRCLE
5
7f5
100
AcDbEntity
8
0-0
6
CONTINUOUS
62
4
100
AcDbCircle
10
100.000000000000
20
0.000000000000
30
0.0
40
8.500000000000
0
LINE
5
7f6
100
AcDbEntity
8
0-0
6
CENTER
62
4
100
AcDbLine
10
82.500000000000
20
0.000000000000
30
0.0
11
117.500000000000
21
0.000000000000
31
0.0
0
LINE
5
7f7
100
AcDbEntity
8
0-0
6
CENTER
62
4
100
AcDbLine
10
100.000000000000
20
17.500000000000
30
0.0
11
100.000000000000
21
-17.500000000000
31
0.0
0
LINE
5
7f8
100
AcDbEntity
8
F-F_J_ADD
6
HIDDEN
62
253
100
AcDbLine
10
-0.000000000000
20
290.384732410218
30
0.0
11
-0.000000000000
21
590.384732410218
31
0.0
0
LINE
5
7f9
100
AcDbEntity
8
F-F_J_ADD
6
HIDDEN
62
253
100
AcDbLine
10
0.000000000000
20
290.384732410218
30
0.0
11
0.000000000000
21
40.384732410218
31
0.0
0
TEXT
5
7fa
100
AcDbEntity
8
0-0
62
7
370
-3
100
AcDbText
10
0.172
20
36.745
30
0.0
40
3.618
41
0.385
50
0.000
1
AJSPB
72
0
11
0.000
21
39.285
31
0.0
100
AcDbText
73
3
0
TEXT
5
7fb
100
AcDbEntity
8
0-0
62
7
370
-3
100
AcDbText
10
200.172
20
36.745
30
0.0
40
3.618
41
0.392
50
0.000
1
AJSS
72
0
11
200.000
21
39.285
31
0.0
100
AcDbText
73
3
0
POLYLINE
5
7fc
100
AcDbEntity
8
0-0
6
CONTINUOUS
62
  7
100
AcDb2dPolyline
66
1
10
0.0
20
0.0
30
0.0
70
0
0
VERTEX
5
7fd
100
AcDbEntity
8
0-0
6
CONTINUOUS
62
  7
100
AcDbVertex
100
AcDb2dVertex
10
525.000000000000
20
127.384732410218
30
0.0
0
VERTEX
5
7fe
100
AcDbEntity
8
0-0
6
CONTINUOUS
62
  7
100
AcDbVertex
100
AcDb2dVertex
10
523.000000000000
20
125.384732410218
30
0.0
0
VERTEX
5
7ff
100
AcDbEntity
8
0-0
6
CONTINUOUS
62
  7
100
AcDbVertex
100
AcDb2dVertex
10
523.000000000000
20
79.384732410218
30
0.0
0
VERTEX
5
800
100
AcDbEntity
8
0-0
6
CONTINUOUS
62
  7
100
AcDbVertex
100
AcDb2dVertex
10
525.000000000000
20
77.384732410218
30
0.0
0
VERTEX
5
801
100
AcDbEntity
8
0-0
6
CONTINUOUS
62
  7
100
AcDbVertex
100
AcDb2dVertex
10
548.000000000000
20
77.384732410218
30
0.0
0
VERTEX
5
802
100
AcDbEntity
8
0-0
6
CONTINUOUS
62
  7
100
AcDbVertex
100
AcDb2dVertex
10
551.026352339251
20
80.411084749470
30
0.0
0
SEQEND
5
803
100
AcDbEntity
8
0-0
0
LINE
5
804
100
AcDbEntity
8
0-1
6
CENTER
62
4
100
AcDbLine
10
550.000000000000
20
91.384732410218
30
0.0
11
550.000000000000
21
109.384732410218
31
0.0
0
POLYLINE
5
805
100
AcDbEntity
8
0-1
6
CONTINUOUS
62
  7
100
AcDb2dPolyline
66
1
10
0.0
20
0.0
30
0.0
70
0
0
VERTEX
5
806
100
AcDbEntity
8
0-1
6
CONTINUOUS
62
  7
100
AcDbVertex
100
AcDb2dVertex
10
549.731006337406
20
120.382923388642
30
0.0
0
VERTEX
5
807
100
AcDbEntity
8
0-1
6
CONTINUOUS
62
  7
100
AcDbVertex
100
AcDb2dVertex
10
550.309401035309
20
121.384732410218
30
0.0
0
VERTEX
5
808
100
AcDbEntity
8
0-1
6
CONTINUOUS
62
  7
100
AcDbVertex
100
AcDb2dVertex
10
549.154700517654
20
123.384732410218
30
0.0
0
VERTEX
5
809
100
AcDbEntity
8
0-1
6
CONTINUOUS
62
  7
100
AcDbVertex
100
AcDb2dVertex
10
546.845299482345
20
123.384732410218
30
0.0
0
VERTEX
5
80a
100
AcDbEntity
8
0-1
6
CONTINUOUS
62
  7
100
AcDbVertex
100
AcDb2dVertex
10
545.690598964691
20
121.384732410218
30
0.0
0
VERTEX
5
80b
100
AcDbEntity
8
0-1
6
CONTINUOUS
62
  7
100
AcDbVertex
100
AcDb2dVertex
10
546.451183229869
20
120.067361795848
30
0.0
0
SEQEND
5
80c
100
AcDbEntity
8
0-1
0
LINE
5
80d
100
AcDbEntity
8
0-1
6
CENTER
62
4
100
AcDbLine
10
545.400000000000
20
121.384732410218
30
0.0
11
550.600000000000
21
121.384732410218
31
0.0
0
LINE
5
80e
100
AcDbEntity
8
0-1
6
CENTER
62
4
100
AcDbLine
10
548.000000000000
20
123.984732410218
30
0.0
11
548.000000000000
21
118.784732410218
31
0.0
0
POLYLINE
5
80f
100
AcDbEntity
8
0-1
6
CONTINUOUS
62
  7
100
AcDb2dPolyline
66
1
10
0.0
20
0.0
30
0.0
70
0
0
VERTEX
5
810
100
AcDbEntity
8
0-1
6
CONTINUOUS
62
  7
100
AcDbVertex
100
AcDb2dVertex
10
566.000000000000
20
120.230031892564
30
0.0
0
VERTEX
5
811
100
AcDbEntity
8
0-1
6
CONTINUOUS
62
  7
100
AcDbVertex
100
AcDb2dVertex
10
566.000000000000
20
122.539432927873
30
0.0
0
VERTEX
5
812
100
AcDbEntity
8
0-1
6
CONTINUOUS
62
  7
100
AcDbVertex
100
AcDb2dVertex
10
568.000000000000
20
123.694133445527
30
0.0
0
VERTEX
5
813
100
AcDbEntity
8
0-1
6
CONTINUOUS
62
  7
100
AcDbVertex
100
AcDb2dVertex
10
570.000000000000
20
122.539432927873
30
0.0
0
VERTEX
5
814
100
AcDbEntity
8
0-1
6
CONTINUOUS
62
  7
100
AcDbVertex
100
AcDb2dVertex
10
570.000000000000
20
120.230031892564
30
0.0
0
VERTEX
5
815
100
AcDbEntity
8
0-1
6
CONTINUOUS
62
  7
100
AcDbVertex
100
AcDb2dVertex
10
568.000000000000
20
119.075331374910
30
0.0
0
VERTEX
5
816
100
AcDbEntity
8
0-1
6
CONTINUOUS
62
  7
100
AcDbVertex
100
AcDb2dVertex
10
566.000000000000
20
120.230031892564
30
0.0
0
SEQEND
5
817
100
AcDbEntity
8
0-1
0
LINE
5
818
100
AcDbEntity
8
0-1
6
CENTER
62
4
100
AcDbLine
10
565.400000000000
20
121.384732410218
30
0.0
11
570.600000000000
21
121.384732410218
31
0.0
0
LINE
5
819
100
AcDbEntity
8
0-1
6
CENTER
62
4
100
AcDbLine
10
568.000000000000
20
123.984732410218
30
0.0
11
568.000000000000
21
118.784732410218
31
0.0
0
LINE
5
81a
100
AcDbEntity
8
0-0
6
CONTINUOUS
62
7
100
AcDbLine
10
571.000000000000
20
127.384732410218
30
0.0
11
525.000000000000
21
127.384732410218
31
0.0
0
POLYLINE
5
81b
100
AcDbEntity
8
0-1
6
CONTINUOUS
62
  7
100
AcDb2dPolyline
66
1
10
0.0
20
0.0
30
0.0
70
0
0
VERTEX
5
81c
100
AcDbEntity
8
0-1
6
CONTINUOUS
62
  7
100
AcDbVertex
100
AcDb2dVertex
10
527.845299482345
20
104.384732410218
30
0.0
0
VERTEX
5
81d
100
AcDbEntity
8
0-1
6
CONTINUOUS
62
  7
100
AcDbVertex
100
AcDb2dVertex
10
530.154700517654
20
104.384732410218
30
0.0
0
VERTEX
5
81e
100
AcDbEntity
8
0-1
6
CONTINUOUS
62
  7
100
AcDbVertex
100
AcDb2dVertex
10
530.340980062082
20
104.062086769069
30
0.0
0
SEQEND
5
81f
100
AcDbEntity
8
0-1
0
LINE
5
820
100
AcDbEntity
8
0-1
6
CENTER
62
4
100
AcDbLine
10
529.000000000000
20
104.984732410218
30
0.0
11
529.000000000000
21
99.784732410219
31
0.0
0
POLYLINE
5
821
100
AcDbEntity
8
0-1
6
CONTINUOUS
62
  7
100
AcDb2dPolyline
66
1
10
0.0
20
0.0
30
0.0
70
0
0
VERTEX
5
822
100
AcDbEntity
8
0-1
6
CONTINUOUS
62
  7
100
AcDbVertex
100
AcDb2dVertex
10
529.999999999999
20
100.384732410218
30
0.0
0
VERTEX
5
823
100
AcDbEntity
8
0-1
6
CONTINUOUS
62
  7
100
AcDbVertex
100
AcDb2dVertex
10
527.845299482345
20
100.384732410218
30
0.0
0
VERTEX
5
824
100
AcDbEntity
8
0-1
6
CONTINUOUS
62
  7
100
AcDbVertex
100
AcDb2dVertex
10
526.690598964691
20
102.384732410218
30
0.0
0
VERTEX
5
825
100
AcDbEntity
8
0-1
6
CONTINUOUS
62
  7
100
AcDbVertex
100
AcDb2dVertex
10
527.845299482345
20
104.384732410218
30
0.0
0
SEQEND
5
826
100
AcDbEntity
8
0-1
0
LINE
5
827
100
AcDbEntity
8
0-1
6
CENTER
62
4
100
AcDbLine
10
526.400000000000
20
102.384732410218
30
0.0
11
531.600000000000
21
102.384732410218
31
0.0
0
LINE
5
828
100
AcDbEntity
8
0-1
6
CENTER
62
4
100
AcDbLine
10
541.000000000000
20
100.384732410218
30
0.0
11
559.000000000000
21
100.384732410218
31
0.0
0
POLYLINE
5
829
100
AcDbEntity
8
0-0
6
CONTINUOUS
62
  7
100
AcDb2dPolyline
66
1
10
0.0
20
0.0
30
0.0
70
0
0
VERTEX
5
82a
100
AcDbEntity
8
0-0
6
CONTINUOUS
62
  7
100
AcDbVertex
100
AcDb2dVertex
10
569.973647660749
20
99.358380070967
30
0.0
0
VERTEX
5
82b
100
AcDbEntity
8
0-0
6
CONTINUOUS
62
  7
100
AcDbVertex
100
AcDb2dVertex
10
573.000000000000
20
102.384732410218
30
0.0
0
VERTEX
5
82c
100
AcDbEntity
8
0-0
6
CONTINUOUS
62
  7
100
AcDbVertex
100
AcDb2dVertex
10
573.000000000000
20
125.384732410218
30
0.0
0
VERTEX
5
82d
100
AcDbEntity
8
0-0
6
CONTINUOUS
62
  7
100
AcDbVertex
100
AcDb2dVertex
10
571.000000000000
20
127.384732410218
30
0.0
0
SEQEND
5
82e
100
AcDbEntity
8
0-0
0
LINE
5
82f
100
AcDbEntity
8
0-1
6
CENTER
62
4
100
AcDbLine
10
529.000000000000
20
84.984732410218
30
0.0
11
529.000000000000
21
79.784732410219
31
0.0
0
POLYLINE
5
830
100
AcDbEntity
8
0-1
6
CONTINUOUS
62
  7
100
AcDb2dPolyline
66
1
10
0.0
20
0.0
30
0.0
70
0
0
VERTEX
5
831
100
AcDbEntity
8
0-1
6
CONTINUOUS
62
  7
100
AcDbVertex
100
AcDb2dVertex
10
527.845299482345
20
80.384732410218
30
0.0
0
VERTEX
5
832
100
AcDbEntity
8
0-1
6
CONTINUOUS
62
  7
100
AcDbVertex
100
AcDb2dVertex
10
526.690598964691
20
82.384732410218
30
0.0
0
VERTEX
5
833
100
AcDbEntity
8
0-1
6
CONTINUOUS
62
  7
100
AcDbVertex
100
AcDb2dVertex
10
527.845299482345
20
84.384732410218
30
0.0
0
VERTEX
5
834
100
AcDbEntity
8
0-1
6
CONTINUOUS
62
  7
100
AcDbVertex
100
AcDb2dVertex
10
530.154700517654
20
84.384732410218
30
0.0
0
VERTEX
5
835
100
AcDbEntity
8
0-1
6
CONTINUOUS
62
  7
100
AcDbVertex
100
AcDb2dVertex
10
531.309401035309
20
82.384732410218
30
0.0
0
VERTEX
5
836
100
AcDbEntity
8
0-1
6
CONTINUOUS
62
  7
100
AcDbVertex
100
AcDb2dVertex
10
530.154700517654
20
80.384732410218
30
0.0
0
VERTEX
5
837
100
AcDbEntity
8
0-1
6
CONTINUOUS
62
  7
100
AcDbVertex
100
AcDb2dVertex
10
527.845299482345
20
80.384732410218
30
0.0
0
SEQEND
5
838
100
AcDbEntity
8
0-1
0
LINE
5
839
100
AcDbEntity
8
0-1
6
CENTER
62
4
100
AcDbLine
10
526.400000000000
20
82.384732410218
30
0.0
11
531.600000000000
21
82.384732410218
31
0.0
0
CIRCLE
5
83a
100
AcDbEntity
8
0-0
6
CONTINUOUS
62
7
100
AcDbCircle
10
550.000000000000
20
100.384732410218
30
0.0
40
5.050000000000
0
CIRCLE
5
83b
100
AcDbEntity
8
0-0
6
CONTINUOUS
62
7
100
AcDbCircle
10
550.000000000000
20
100.384732410218
30
0.0
40
8.000000000000
0
CIRCLE
5
83c
100
AcDbEntity
8
0-1
6
CONTINUOUS
62
4
100
AcDbCircle
10
550.000000000000
20
100.384732410218
30
0.0
40
6.000000000000
0
CIRCLE
5
83d
100
AcDbEntity
8
0-0
6
CONTINUOUS
62
7
100
AcDbCircle
10
550.000000000000
20
100.384732410218
30
0.0
40
20.000000000000
0
CIRCLE
5
83e
100
AcDbEntity
8
0-0
6
CONTINUOUS
62
7
100
AcDbCircle
10
550.000000000000
20
100.384732410218
30
0.0
40
19.400000000000
0
CIRCLE
5
83f
100
AcDbEntity
8
0-0
6
CONTINUOUS
62
7
100
AcDbCircle
10
550.000000000000
20
100.384732410218
30
0.0
40
18.000000000000
0
CIRCLE
5
840
100
AcDbEntity
8
0-1
6
CONTINUOUS
62
7
100
AcDbCircle
10
568.000000000000
20
121.384732410218
30
0.0
40
4.250000000000
0
CIRCLE
5
841
100
AcDbEntity
8
0-1
6
CONTINUOUS
62
7
100
AcDbCircle
10
529.000000000000
20
82.384732410218
30
0.0
40
4.250000000000
0
ARC
5
842
100
AcDbEntity
8
0-1
6
CONTINUOUS
62
7
100
AcDbCircle
10
548.000000000000
20
121.384732410218
30
0.0
40
4.250000000000
100
AcDbArc
50
344.849007765769
51
566.031656296242
0
ARC
5
843
100
AcDbEntity
8
0-1
6
CONTINUOUS
62
7
100
AcDbCircle
10
529.000000000000
20
102.384732410218
30
0.0
40
4.250000000000
100
AcDbArc
50
63.968343703758
51
285.150992234231
0
POLYLINE
5
844
100
AcDbEntity
8
0-1
6
CONTINUOUS
62
  7
100
AcDb2dPolyline
66
1
10
0.0
20
0.0
30
0.0
70
0
0
VERTEX
5
845
100
AcDbEntity
8
0-1
6
CONTINUOUS
62
  7
100
AcDbVertex
100
AcDb2dVertex
10
573.000000000000
20
270.408641595495
30
0.0
0
VERTEX
5
846
100
AcDbEntity
8
0-1
6
CONTINUOUS
62
  7
100
AcDbVertex
100
AcDb2dVertex
10
573.000000000000
20
265.908641595495
30
0.0
0
VERTEX
5
847
100
AcDbEntity
8
0-1
6
CONTINUOUS
62
  7
100
AcDbVertex
100
AcDb2dVertex
10
543.000000000000
20
265.908641595495
30
0.0
0
VERTEX
5
848
100
AcDbEntity
8
0-1
6
CONTINUOUS
62
  7
100
AcDbVertex
100
AcDb2dVertex
10
543.000000000000
20
270.408641595495
30
0.0
0
VERTEX
5
849
100
AcDbEntity
8
0-1
6
CONTINUOUS
62
  7
100
AcDbVertex
100
AcDb2dVertex
10
573.000000000000
20
270.408641595495
30
0.0
0
SEQEND
5
84a
100
AcDbEntity
8
0-1
0
POLYLINE
5
84b
100
AcDbEntity
8
0-1
6
CONTINUOUS
62
  7
100
AcDb2dPolyline
66
1
10
0.0
20
0.0
30
0.0
70
0
0
VERTEX
5
84c
100
AcDbEntity
8
0-1
6
CONTINUOUS
62
  7
100
AcDbVertex
100
AcDb2dVertex
10
570.500000000000
20
270.408641595495
30
0.0
0
VERTEX
5
84d
100
AcDbEntity
8
0-1
6
CONTINUOUS
62
  7
100
AcDbVertex
100
AcDb2dVertex
10
570.500000000000
20
270.458641023291
30
0.0
0
VERTEX
5
84e
100
AcDbEntity
8
0-1
6
CONTINUOUS
62
  7
100
AcDbVertex
100
AcDb2dVertex
10
570.150000095367
20
270.808641404761
30
0.0
0
VERTEX
5
84f
100
AcDbEntity
8
0-1
6
CONTINUOUS
62
  7
100
AcDbVertex
100
AcDb2dVertex
10
565.849999904632
20
270.808641404761
30
0.0
0
VERTEX
5
850
100
AcDbEntity
8
0-1
6
CONTINUOUS
62
  7
100
AcDbVertex
100
AcDb2dVertex
10
565.500000000000
20
270.458641023291
30
0.0
0
VERTEX
5
851
100
AcDbEntity
8
0-1
6
CONTINUOUS
62
  7
100
AcDbVertex
100
AcDb2dVertex
10
570.500000000000
20
270.458641023291
30
0.0
0
SEQEND
5
852
100
AcDbEntity
8
0-1
0
LINE
5
853
100
AcDbEntity
8
0-1
6
CONTINUOUS
62
7
100
AcDbLine
10
570.150000095367
20
270.408641595495
30
0.0
11
570.150000095367
21
270.808641404761
31
0.0
0
LINE
5
854
100
AcDbEntity
8
0-1
6
CENTER
62
4
100
AcDbLine
10
568.000000000000
20
272.709735466764
30
0.0
11
568.000000000000
21
253.405573018284
31
0.0
0
LINE
5
855
100
AcDbEntity
8
0-1
6
CONTINUOUS
62
7
100
AcDbLine
10
566.785714268684
20
256.308641404761
30
0.0
11
566.785714268684
21
260.808641404761
31
0.0
0
LINE
5
856
100
AcDbEntity
8
0-1
6
CONTINUOUS
62
7
100
AcDbLine
10
566.178571462631
20
260.808641404761
30
0.0
11
566.178571462631
21
256.308641404761
31
0.0
0
LINE
5
857
100
AcDbEntity
8
0-1
6
CONTINUOUS
62
7
100
AcDbLine
10
565.571428537369
20
256.308641404761
30
0.0
11
565.571428537369
21
260.808641404761
31
0.0
0
LINE
5
858
100
AcDbEntity
8
0-1
6
CONTINUOUS
62
7
100
AcDbLine
10
564.964285612106
20
260.808641404761
30
0.0
11
564.964285612106
21
256.308641404761
31
0.0
0
LINE
5
859
100
AcDbEntity
8
0-1
6
CONTINUOUS
62
7
100
AcDbLine
10
564.357142925262
20
256.308641404761
30
0.0
11
564.357142925262
21
260.808641404761
31
0.0
0
LINE
5
85a
100
AcDbEntity
8
0-1
6
CONTINUOUS
62
7
100
AcDbLine
10
563.750000000000
20
260.808641404761
30
0.0
11
572.250000000000
21
260.808641404761
31
0.0
0
POLYLINE
5
85b
100
AcDbEntity
8
0-1
6
CONTINUOUS
62
  7
100
AcDb2dPolyline
66
1
10
0.0
20
0.0
30
0.0
70
0
0
VERTEX
5
85c
100
AcDbEntity
8
0-1
6
CONTINUOUS
62
  7
100
AcDbVertex
100
AcDb2dVertex
10
572.250000000000
20
262.108641595496
30
0.0
0
VERTEX
5
85d
100
AcDbEntity
8
0-1
6
CONTINUOUS
62
  7
100
AcDbVertex
100
AcDb2dVertex
10
572.250000000000
20
256.308641404761
30
0.0
0
VERTEX
5
85e
100
AcDbEntity
8
0-1
6
CONTINUOUS
62
  7
100
AcDbVertex
100
AcDb2dVertex
10
571.750000000000
20
255.808641404761
30
0.0
0
VERTEX
5
85f
100
AcDbEntity
8
0-1
6
CONTINUOUS
62
  7
100
AcDbVertex
100
AcDb2dVertex
10
564.250000000000
20
255.808641404761
30
0.0
0
VERTEX
5
860
100
AcDbEntity
8
0-1
6
CONTINUOUS
62
  7
100
AcDbVertex
100
AcDb2dVertex
10
563.750000000000
20
256.308641404761
30
0.0
0
VERTEX
5
861
100
AcDbEntity
8
0-1
6
CONTINUOUS
62
  7
100
AcDbVertex
100
AcDb2dVertex
10
572.250000000000
20
256.308641404761
30
0.0
0
SEQEND
5
862
100
AcDbEntity
8
0-1
0
POLYLINE
5
863
100
AcDbEntity
8
0-0
6
CONTINUOUS
62
  7
100
AcDb2dPolyline
66
1
10
0.0
20
0.0
30
0.0
70
0
0
VERTEX
5
864
100
AcDbEntity
8
0-0
6
CONTINUOUS
62
  7
100
AcDbVertex
100
AcDb2dVertex
10
573.000000000000
20
262.108641595496
30
0.0
0
VERTEX
5
865
100
AcDbEntity
8
0-0
6
CONTINUOUS
62
  7
100
AcDbVertex
100
AcDb2dVertex
10
573.000000000000
20
265.308641595495
30
0.0
0
VERTEX
5
866
100
AcDbEntity
8
0-0
6
CONTINUOUS
62
  7
100
AcDbVertex
100
AcDb2dVertex
10
523.000000000000
20
265.308641595495
30
0.0
0
VERTEX
5
867
100
AcDbEntity
8
0-0
6
CONTINUOUS
62
  7
100
AcDbVertex
100
AcDb2dVertex
10
523.000000000000
20
262.108641595496
30
0.0
0
VERTEX
5
868
100
AcDbEntity
8
0-0
6
CONTINUOUS
62
  7
100
AcDbVertex
100
AcDb2dVertex
10
573.000000000000
20
262.108641595496
30
0.0
0
SEQEND
5
869
100
AcDbEntity
8
0-0
0
LINE
5
86a
100
AcDbEntity
8
0-0
6
CONTINUOUS
62
7
100
AcDbLine
10
571.000000000000
20
262.108641595496
30
0.0
11
571.000000000000
21
265.308641595495
31
0.0
0
LINE
5
86b
100
AcDbEntity
8
0-1
6
CONTINUOUS
62
7
100
AcDbLine
10
570.500000000000
20
265.308641595495
30
0.0
11
570.500000000000
21
265.908641595495
31
0.0
0
LINE
5
86c
100
AcDbEntity
8
0-1
6
CONTINUOUS
62
7
100
AcDbLine
10
570.150000095367
20
265.908641595495
30
0.0
11
570.150000095367
21
265.308641595495
31
0.0
0
LINE
5
86d
100
AcDbEntity
8
0-1
6
CONTINUOUS
62
7
100
AcDbLine
10
565.849999904632
20
265.308641595495
30
0.0
11
565.849999904632
21
265.908641595495
31
0.0
0
LINE
5
86e
100
AcDbEntity
8
0-1
6
CONTINUOUS
62
7
100
AcDbLine
10
565.500000000000
20
265.908641595495
30
0.0
11
565.500000000000
21
265.308641595495
31
0.0
0
LINE
5
86f
100
AcDbEntity
8
0-1
6
CONTINUOUS
62
7
100
AcDbLine
10
563.750000000000
20
262.108641595496
30
0.0
11
563.750000000000
21
256.308641404761
31
0.0
0
LINE
5
870
100
AcDbEntity
8
0-1
6
CONTINUOUS
62
7
100
AcDbLine
10
568.375277668238
20
260.808641404761
30
0.0
11
567.624722331762
21
262.108641595496
31
0.0
0
POLYLINE
5
871
100
AcDbEntity
8
0-0
6
CONTINUOUS
62
  7
100
AcDb2dPolyline
66
1
10
0.0
20
0.0
30
0.0
70
0
0
VERTEX
5
872
100
AcDbEntity
8
0-0
6
CONTINUOUS
62
  7
100
AcDbVertex
100
AcDb2dVertex
10
559.000000000000
20
262.108641595496
30
0.0
0
VERTEX
5
873
100
AcDbEntity
8
0-0
6
CONTINUOUS
62
  7
100
AcDbVertex
100
AcDb2dVertex
10
559.000000000000
20
246.308641595495
30
0.0
0
VERTEX
5
874
100
AcDbEntity
8
0-0
6
CONTINUOUS
62
  7
100
AcDbVertex
100
AcDb2dVertex
10
558.000000000000
20
245.308641595495
30
0.0
0
VERTEX
5
875
100
AcDbEntity
8
0-0
6
CONTINUOUS
62
  7
100
AcDbVertex
100
AcDb2dVertex
10
542.000000000000
20
245.308641595495
30
0.0
0
VERTEX
5
876
100
AcDbEntity
8
0-0
6
CONTINUOUS
62
  7
100
AcDbVertex
100
AcDb2dVertex
10
541.000000000000
20
246.308641595495
30
0.0
0
VERTEX
5
877
100
AcDbEntity
8
0-0
6
CONTINUOUS
62
  7
100
AcDbVertex
100
AcDb2dVertex
10
541.000000000000
20
262.108641595496
30
0.0
0
SEQEND
5
878
100
AcDbEntity
8
0-0
0
POLYLINE
5
879
100
AcDbEntity
8
0-1
6
CONTINUOUS
62
  7
100
AcDb2dPolyline
66
1
10
0.0
20
0.0
30
0.0
70
0
0
VERTEX
5
87a
100
AcDbEntity
8
0-1
6
CONTINUOUS
62
  7
100
AcDbVertex
100
AcDb2dVertex
10
543.750000000000
20
262.108641595496
30
0.0
0
VERTEX
5
87b
100
AcDbEntity
8
0-1
6
CONTINUOUS
62
  7
100
AcDbVertex
100
AcDb2dVertex
10
543.750000000000
20
256.308641404761
30
0.0
0
VERTEX
5
87c
100
AcDbEntity
8
0-1
6
CONTINUOUS
62
  7
100
AcDbVertex
100
AcDb2dVertex
10
544.250000000000
20
255.808641404761
30
0.0
0
VERTEX
5
87d
100
AcDbEntity
8
0-1
6
CONTINUOUS
62
  7
100
AcDbVertex
100
AcDb2dVertex
10
551.750000000000
20
255.808641404761
30
0.0
0
VERTEX
5
87e
100
AcDbEntity
8
0-1
6
CONTINUOUS
62
  7
100
AcDbVertex
100
AcDb2dVertex
10
552.250000000000
20
256.308641404761
30
0.0
0
VERTEX
5
87f
100
AcDbEntity
8
0-1
6
CONTINUOUS
62
  7
100
AcDbVertex
100
AcDb2dVertex
10
543.750000000000
20
256.308641404761
30
0.0
0
SEQEND
5
880
100
AcDbEntity
8
0-1
0
LINE
5
881
100
AcDbEntity
8
0-1
6
CONTINUOUS
62
7
100
AcDbLine
10
544.357142925262
20
256.308641404761
30
0.0
11
544.357142925262
21
260.808641404761
31
0.0
0
LINE
5
882
100
AcDbEntity
8
0-1
6
CONTINUOUS
62
7
100
AcDbLine
10
544.964285612106
20
260.808641404761
30
0.0
11
544.964285612106
21
256.308641404761
31
0.0
0
LINE
5
883
100
AcDbEntity
8
0-1
6
CONTINUOUS
62
7
100
AcDbLine
10
545.571428537369
20
256.308641404761
30
0.0
11
545.571428537369
21
260.808641404761
31
0.0
0
LINE
5
884
100
AcDbEntity
8
0-1
6
CONTINUOUS
62
7
100
AcDbLine
10
546.178571462631
20
260.808641404761
30
0.0
11
546.178571462631
21
256.308641404761
31
0.0
0
LINE
5
885
100
AcDbEntity
8
0-1
6
CONTINUOUS
62
7
100
AcDbLine
10
546.785714268684
20
256.308641404761
30
0.0
11
546.785714268684
21
260.808641404761
31
0.0
0
LINE
5
886
100
AcDbEntity
8
0-1
6
CONTINUOUS
62
7
100
AcDbLine
10
548.375277668238
20
260.808641404761
30
0.0
11
547.624722331762
21
262.108641595496
31
0.0
0
LINE
5
887
100
AcDbEntity
8
0-1
6
CONTINUOUS
62
7
100
AcDbLine
10
552.250000000000
20
262.108641595496
30
0.0
11
552.250000000000
21
256.308641404761
31
0.0
0
LINE
5
888
100
AcDbEntity
8
0-0
6
CONTINUOUS
62
7
100
AcDbLine
10
541.000000000000
20
246.308641595495
30
0.0
11
559.000000000000
21
246.308641595495
31
0.0
0
LINE
5
889
100
AcDbEntity
8
0-1
6
CENTER
62
4
100
AcDbLine
10
548.000000000000
20
253.405573018284
30
0.0
11
548.000000000000
21
272.709735466764
31
0.0
0
POLYLINE
5
88a
100
AcDbEntity
8
0-1
6
CONTINUOUS
62
  7
100
AcDb2dPolyline
66
1
10
0.0
20
0.0
30
0.0
70
0
0
VERTEX
5
88b
100
AcDbEntity
8
0-1
6
CONTINUOUS
62
  7
100
AcDbVertex
100
AcDb2dVertex
10
550.150000095367
20
270.808641404761
30
0.0
0
VERTEX
5
88c
100
AcDbEntity
8
0-1
6
CONTINUOUS
62
  7
100
AcDbVertex
100
AcDb2dVertex
10
545.849999904632
20
270.808641404761
30
0.0
0
VERTEX
5
88d
100
AcDbEntity
8
0-1
6
CONTINUOUS
62
  7
100
AcDbVertex
100
AcDb2dVertex
10
545.500000000000
20
270.458641023291
30
0.0
0
VERTEX
5
88e
100
AcDbEntity
8
0-1
6
CONTINUOUS
62
  7
100
AcDbVertex
100
AcDb2dVertex
10
550.500000000000
20
270.458641023291
30
0.0
0
VERTEX
5
88f
100
AcDbEntity
8
0-1
6
CONTINUOUS
62
  7
100
AcDbVertex
100
AcDb2dVertex
10
550.150000095367
20
270.808641404761
30
0.0
0
VERTEX
5
890
100
AcDbEntity
8
0-1
6
CONTINUOUS
62
  7
100
AcDbVertex
100
AcDb2dVertex
10
550.150000095367
20
270.408641595495
30
0.0
0
SEQEND
5
891
100
AcDbEntity
8
0-1
0
LINE
5
892
100
AcDbEntity
8
0-1
6
CONTINUOUS
62
7
100
AcDbLine
10
550.500000000000
20
270.408641595495
30
0.0
11
550.500000000000
21
270.458641023291
31
0.0
0
LINE
5
893
100
AcDbEntity
8
0-1
6
CONTINUOUS
62
7
100
AcDbLine
10
550.500000000000
20
265.908641595495
30
0.0
11
550.500000000000
21
265.308641595495
31
0.0
0
LINE
5
894
100
AcDbEntity
8
0-1
6
CONTINUOUS
62
7
100
AcDbLine
10
550.150000095367
20
265.308641595495
30
0.0
11
550.150000095367
21
265.908641595495
31
0.0
0
LINE
5
895
100
AcDbEntity
8
0-1
6
CONTINUOUS
62
7
100
AcDbLine
10
545.849999904632
20
265.908641595495
30
0.0
11
545.849999904632
21
265.308641595495
31
0.0
0
LINE
5
896
100
AcDbEntity
8
0-1
6
CONTINUOUS
62
7
100
AcDbLine
10
545.500000000000
20
265.308641595495
30
0.0
11
545.500000000000
21
265.908641595495
31
0.0
0
LINE
5
897
100
AcDbEntity
8
0-1
6
CONTINUOUS
62
7
100
AcDbLine
10
543.000000000000
20
267.108641595495
30
0.0
11
573.000000000000
21
267.108641595495
31
0.0
0
LINE
5
898
100
AcDbEntity
8
0-1
6
CONTINUOUS
62
7
100
AcDbLine
10
565.849999904632
20
270.408641595495
30
0.0
11
565.849999904632
21
270.808641404761
31
0.0
0
LINE
5
899
100
AcDbEntity
8
0-1
6
CONTINUOUS
62
7
100
AcDbLine
10
565.500000000000
20
270.458641023291
30
0.0
11
565.500000000000
21
270.408641595495
31
0.0
0
LINE
5
89a
100
AcDbEntity
8
0-1
6
CONTINUOUS
62
7
100
AcDbLine
10
545.849999904632
20
270.408641595495
30
0.0
11
545.849999904632
21
270.808641404761
31
0.0
0
LINE
5
89b
100
AcDbEntity
8
0-1
6
CONTINUOUS
62
7
100
AcDbLine
10
545.500000000000
20
270.458641023291
30
0.0
11
545.500000000000
21
270.408641595495
31
0.0
0
LINE
5
89c
100
AcDbEntity
8
0-1
6
CONTINUOUS
62
7
100
AcDbLine
10
543.750000000000
20
260.808641404761
30
0.0
11
552.250000000000
21
260.808641404761
31
0.0
0
LINE
5
89d
100
AcDbEntity
8
0-1
6
CONTINUOUS
62
7
100
AcDbLine
10
533.250000000000
20
260.808641404761
30
0.0
11
524.750000000000
21
260.808641404761
31
0.0
0
LINE
5
89e
100
AcDbEntity
8
0-1
6
CONTINUOUS
62
7
100
AcDbLine
10
525.357142925262
20
260.808641404761
30
0.0
11
525.357142925262
21
256.308641404761
31
0.0
0
LINE
5
89f
100
AcDbEntity
8
0-1
6
CONTINUOUS
62
7
100
AcDbLine
10
525.964285612106
20
256.308641404761
30
0.0
11
525.964285612106
21
260.808641404761
31
0.0
0
LINE
5
8a0
100
AcDbEntity
8
0-1
6
CONTINUOUS
62
7
100
AcDbLine
10
526.571428537369
20
260.808641404761
30
0.0
11
526.571428537369
21
256.308641404761
31
0.0
0
LINE
5
8a1
100
AcDbEntity
8
0-1
6
CONTINUOUS
62
7
100
AcDbLine
10
527.178571462631
20
256.308641404761
30
0.0
11
527.178571462631
21
260.808641404761
31
0.0
0
LINE
5
8a2
100
AcDbEntity
8
0-1
6
CONTINUOUS
62
7
100
AcDbLine
10
527.785714268684
20
260.808641404761
30
0.0
11
527.785714268684
21
256.308641404761
31
0.0
0
POLYLINE
5
8a3
100
AcDbEntity
8
0-1
6
CONTINUOUS
62
  7
100
AcDb2dPolyline
66
1
10
0.0
20
0.0
30
0.0
70
0
0
VERTEX
5
8a4
100
AcDbEntity
8
0-1
6
CONTINUOUS
62
  7
100
AcDbVertex
100
AcDb2dVertex
10
525.250000000000
20
255.808641404761
30
0.0
0
VERTEX
5
8a5
100
AcDbEntity
8
0-1
6
CONTINUOUS
62
  7
100
AcDbVertex
100
AcDb2dVertex
10
532.750000000000
20
255.808641404761
30
0.0
0
VERTEX
5
8a6
100
AcDbEntity
8
0-1
6
CONTINUOUS
62
  7
100
AcDbVertex
100
AcDb2dVertex
10
533.250000000000
20
256.308641404761
30
0.0
0
VERTEX
5
8a7
100
AcDbEntity
8
0-1
6
CONTINUOUS
62
  7
100
AcDbVertex
100
AcDb2dVertex
10
524.750000000000
20
256.308641404761
30
0.0
0
VERTEX
5
8a8
100
AcDbEntity
8
0-1
6
CONTINUOUS
62
  7
100
AcDbVertex
100
AcDb2dVertex
10
525.250000000000
20
255.808641404761
30
0.0
0
SEQEND
5
8a9
100
AcDbEntity
8
0-1
0
LINE
5
8aa
100
AcDbEntity
8
0-1
6
CONTINUOUS
62
7
100
AcDbLine
10
524.750000000000
20
256.308641404761
30
0.0
11
524.750000000000
21
262.108641595496
31
0.0
0
LINE
5
8ab
100
AcDbEntity
8
0-0
6
CONTINUOUS
62
7
100
AcDbLine
10
525.000000000000
20
262.108641595496
30
0.0
11
525.000000000000
21
265.308641595495
31
0.0
0
POLYLINE
5
8ac
100
AcDbEntity
8
0-1
6
CONTINUOUS
62
  7
100
AcDb2dPolyline
66
1
10
0.0
20
0.0
30
0.0
70
0
0
VERTEX
5
8ad
100
AcDbEntity
8
0-1
6
CONTINUOUS
62
  7
100
AcDbVertex
100
AcDb2dVertex
10
525.749998906792
20
265.908641595495
30
0.0
0
VERTEX
5
8ae
100
AcDbEntity
8
0-1
6
CONTINUOUS
62
  7
100
AcDbVertex
100
AcDb2dVertex
10
525.428463093208
20
267.108641595495
30
0.0
0
VERTEX
5
8af
100
AcDbEntity
8
0-1
6
CONTINUOUS
62
  7
100
AcDbVertex
100
AcDb2dVertex
10
524.253025972533
20
267.108641595495
30
0.0
0
SEQEND
5
8b0
100
AcDbEntity
8
0-1
0
POLYLINE
5
8b1
100
AcDbEntity
8
0-1
6
CONTINUOUS
62
  7
100
AcDb2dPolyline
66
1
10
0.0
20
0.0
30
0.0
70
0
0
VERTEX
5
8b2
100
AcDbEntity
8
0-1
6
CONTINUOUS
62
  7
100
AcDbVertex
100
AcDb2dVertex
10
525.749998906792
20
265.908641595495
30
0.0
0
VERTEX
5
8b3
100
AcDbEntity
8
0-1
6
CONTINUOUS
62
  7
100
AcDbVertex
100
AcDb2dVertex
10
532.250002093208
20
265.908641595495
30
0.0
0
VERTEX
5
8b4
100
AcDbEntity
8
0-1
6
CONTINUOUS
62
  7
100
AcDbVertex
100
AcDb2dVertex
10
532.571537906792
20
267.108641595495
30
0.0
0
VERTEX
5
8b5
100
AcDbEntity
8
0-1
6
CONTINUOUS
62
  7
100
AcDbVertex
100
AcDb2dVertex
10
533.746974027467
20
267.108641595495
30
0.0
0
SEQEND
5
8b6
100
AcDbEntity
8
0-1
0
LINE
5
8b7
100
AcDbEntity
8
0-1
6
CONTINUOUS
62
7
100
AcDbLine
10
531.500000000000
20
265.908641595495
30
0.0
11
531.500000000000
21
265.308641595495
31
0.0
0
LINE
5
8b8
100
AcDbEntity
8
0-1
6
CONTINUOUS
62
7
100
AcDbLine
10
531.150000095367
20
265.308641595495
30
0.0
11
531.150000095367
21
265.908641595495
31
0.0
0
LINE
5
8b9
100
AcDbEntity
8
0-1
6
CONTINUOUS
62
7
100
AcDbLine
10
526.849999904632
20
265.908641595495
30
0.0
11
526.849999904632
21
265.308641595495
31
0.0
0
LINE
5
8ba
100
AcDbEntity
8
0-1
6
CONTINUOUS
62
7
100
AcDbLine
10
526.500000000000
20
265.308641595495
30
0.0
11
526.500000000000
21
265.908641595495
31
0.0
0
POLYLINE
5
8bb
100
AcDbEntity
8
0-1
6
CONTINUOUS
62
  7
100
AcDb2dPolyline
66
1
10
0.0
20
0.0
30
0.0
70
0
0
VERTEX
5
8bc
100
AcDbEntity
8
0-1
6
CONTINUOUS
62
  7
100
AcDbVertex
100
AcDb2dVertex
10
526.500000000000
20
270.208462028866
30
0.0
0
VERTEX
5
8bd
100
AcDbEntity
8
0-1
6
CONTINUOUS
62
  7
100
AcDbVertex
100
AcDb2dVertex
10
526.500000000000
20
270.458641023291
30
0.0
0
VERTEX
5
8be
100
AcDbEntity
8
0-1
6
CONTINUOUS
62
  7
100
AcDbVertex
100
AcDb2dVertex
10
526.849999904632
20
270.808641404761
30
0.0
0
VERTEX
5
8bf
100
AcDbEntity
8
0-1
6
CONTINUOUS
62
  7
100
AcDbVertex
100
AcDb2dVertex
10
531.150000095367
20
270.808641404761
30
0.0
0
VERTEX
5
8c0
100
AcDbEntity
8
0-1
6
CONTINUOUS
62
  7
100
AcDbVertex
100
AcDb2dVertex
10
531.500000000000
20
270.458641023291
30
0.0
0
VERTEX
5
8c1
100
AcDbEntity
8
0-1
6
CONTINUOUS
62
  7
100
AcDbVertex
100
AcDb2dVertex
10
526.500000000000
20
270.458641023291
30
0.0
0
SEQEND
5
8c2
100
AcDbEntity
8
0-1
0
LINE
5
8c3
100
AcDbEntity
8
0-1
6
CONTINUOUS
62
7
100
AcDbLine
10
526.718614000000
20
270.288031595495
30
0.0
11
525.844950000000
21
269.970041595496
31
0.0
0
LINE
5
8c4
100
AcDbEntity
8
0-1
6
CONTINUOUS
62
7
100
AcDbLine
10
526.849999904632
20
270.330768919809
30
0.0
11
526.849999904632
21
270.808641404761
31
0.0
0
LINE
5
8c5
100
AcDbEntity
8
0-1
6
CONTINUOUS
62
7
100
AcDbLine
10
527.402654000000
20
270.408641595495
30
0.0
11
530.597347000000
21
270.408641595495
31
0.0
0
LINE
5
8c6
100
AcDbEntity
8
0-1
6
CONTINUOUS
62
7
100
AcDbLine
10
531.150000095367
20
270.330769207331
30
0.0
11
531.150000095367
21
270.808641404761
31
0.0
0
LINE
5
8c7
100
AcDbEntity
8
0-1
6
CONTINUOUS
62
7
100
AcDbLine
10
531.281387000000
20
270.288031595495
30
0.0
11
532.155051000000
21
269.970041595496
31
0.0
0
LINE
5
8c8
100
AcDbEntity
8
0-1
6
CONTINUOUS
62
7
100
AcDbLine
10
531.500000000000
20
270.208462392839
30
0.0
11
531.500000000000
21
270.458641023291
31
0.0
0
LINE
5
8c9
100
AcDbEntity
8
0-1
6
CENTER
62
4
100
AcDbLine
10
529.000000000000
20
272.709735466764
30
0.0
11
529.000000000000
21
253.405573018284
31
0.0
0
LINE
5
8ca
100
AcDbEntity
8
0-1
6
CONTINUOUS
62
7
100
AcDbLine
10
533.250000000000
20
256.308641404761
30
0.0
11
533.250000000000
21
262.108641595496
31
0.0
0
LINE
5
8cb
100
AcDbEntity
8
0-1
6
CONTINUOUS
62
7
100
AcDbLine
10
528.624722331762
20
262.108641595496
30
0.0
11
529.375277668238
21
260.808641404761
31
0.0
0
ARC
5
8cc
100
AcDbEntity
8
0-1
6
CONTINUOUS
62
7
100
AcDbCircle
10
530.597347000000
20
268.408641595495
30
0.0
40
2.000000000000
100
AcDbArc
50
70.000000000000
51
90.000000000000
0
ARC
5
8cd
100
AcDbEntity
8
0-1
6
CONTINUOUS
62
7
100
AcDbCircle
10
527.402654000000
20
268.408641595495
30
0.0
40
2.000000000000
100
AcDbArc
50
90.000000000000
51
110.000000000000
0
ARC
5
8ce
100
AcDbEntity
8
0-1
6
CONTINUOUS
62
7
100
AcDbCircle
10
531.300000000000
20
267.620811595495
30
0.0
40
2.500000000000
100
AcDbArc
50
348.178227994579
51
430.000000000000
0
ARC
5
8cf
100
AcDbEntity
8
0-1
6
CONTINUOUS
62
7
100
AcDbCircle
10
526.700000000000
20
267.620811595495
30
0.0
40
2.500000000000
100
AcDbArc
50
110.000000000000
51
191.821772005421
0
POLYLINE
5
8d0
100
AcDbEntity
8
0-9
6
PHANTOM
62
  4
100
AcDb2dPolyline
66
1
10
0.0
20
0.0
30
0.0
70
0
0
VERTEX
5
8d1
100
AcDbEntity
8
0-9
6
PHANTOM
62
  4
100
AcDbVertex
100
AcDb2dVertex
10
556.000000000000
20
316.008641833914
30
0.0
0
VERTEX
5
8d2
100
AcDbEntity
8
0-9
6
PHANTOM
62
  4
100
AcDbVertex
100
AcDb2dVertex
10
555.000000000000
20
317.008641833914
30
0.0
0
VERTEX
5
8d3
100
AcDbEntity
8
0-9
6
PHANTOM
62
  4
100
AcDbVertex
100
AcDb2dVertex
10
545.000000000000
20
317.008641833914
30
0.0
0
VERTEX
5
8d4
100
AcDbEntity
8
0-9
6
PHANTOM
62
  4
100
AcDbVertex
100
AcDb2dVertex
10
544.000000000000
20
316.008641833914
30
0.0
0
VERTEX
5
8d5
100
AcDbEntity
8
0-9
6
PHANTOM
62
  4
100
AcDbVertex
100
AcDb2dVertex
10
544.000000000000
20
297.108641833914
30
0.0
0
SEQEND
5
8d6
100
AcDbEntity
8
0-9
0
LINE
5
8d7
100
AcDbEntity
8
0-9
6
PHANTOM
62
4
100
AcDbLine
10
556.000000000000
20
297.108641833914
30
0.0
11
556.000000000000
21
316.008641833914
31
0.0
0
LINE
5
8d8
100
AcDbEntity
8
0-9
6
PHANTOM
62
4
100
AcDbLine
10
561.999999999999
20
179.208641595495
30
0.0
11
561.999999999999
21
178.808641595495
31
0.0
0
LINE
5
8d9
100
AcDbEntity
8
0-9
6
PHANTOM
62
4
100
AcDbLine
10
538.000000000001
20
178.808641595495
30
0.0
11
538.000000000001
21
179.208641595495
31
0.0
0
LINE
5
8da
100
AcDbEntity
8
0-9
6
PHANTOM
62
4
100
AcDbLine
10
570.000000000000
20
175.808641595495
30
0.0
11
570.000000000000
21
170.808641595495
31
0.0
0
LINE
5
8db
100
AcDbEntity
8
0-9
6
PHANTOM
62
4
100
AcDbLine
10
530.000000000000
20
170.808641595495
30
0.0
11
530.000000000000
21
175.808641595495
31
0.0
0
LINE
5
8dc
100
AcDbEntity
8
0-9
6
PHANTOM
62
4
100
AcDbLine
10
530.600000000000
20
170.808641595495
30
0.0
11
530.600000000000
21
168.308641595495
31
0.0
0
LINE
5
8dd
100
AcDbEntity
8
0-9
6
PHANTOM
62
4
100
AcDbLine
10
569.399999999999
20
168.308641595495
30
0.0
11
569.399999999999
21
170.808641595495
31
0.0
0
POLYLINE
5
8de
100
AcDbEntity
8
0-9
6
PHANTOM
62
  4
100
AcDb2dPolyline
66
1
10
0.0
20
0.0
30
0.0
70
0
0
VERTEX
5
8df
100
AcDbEntity
8
0-9
6
PHANTOM
62
  4
100
AcDbVertex
100
AcDb2dVertex
10
568.000000000001
20
168.308641595495
30
0.0
0
VERTEX
5
8e0
100
AcDbEntity
8
0-9
6
PHANTOM
62
  4
100
AcDbVertex
100
AcDb2dVertex
10
568.000000000001
20
165.308641595495
30
0.0
0
VERTEX
5
8e1
100
AcDbEntity
8
0-9
6
PHANTOM
62
  4
100
AcDbVertex
100
AcDb2dVertex
10
531.999999999999
20
165.308641595495
30
0.0
0
VERTEX
5
8e2
100
AcDbEntity
8
0-9
6
PHANTOM
62
  4
100
AcDbVertex
100
AcDb2dVertex
10
531.999999999999
20
168.308641595495
30
0.0
0
SEQEND
5
8e3
100
AcDbEntity
8
0-9
0
ARC
5
8e4
100
AcDbEntity
8
0-9
6
PHANTOM
62
4
100
AcDbCircle
10
533.000000000001
20
175.808641595495
30
0.0
40
3.000000000000
100
AcDbArc
50
89.999999999999
51
180.000000000000
0
ARC
5
8e5
100
AcDbEntity
8
0-9
6
PHANTOM
62
4
100
AcDbCircle
10
566.999999999999
20
175.808641595495
30
0.0
40
3.000000000000
100
AcDbArc
50
360.000000000000
51
450.000000000001
0
LINE
5
8e6
100
AcDbEntity
8
0-9
6
PHANTOM
62
4
100
AcDbLine
10
538.000000000001
20
179.208641595495
30
0.0
11
541.999999999999
21
179.208641595495
31
0.0
0
LINE
5
8e7
100
AcDbEntity
8
0-9
6
PHANTOM
62
4
100
AcDbLine
10
558.000000000001
20
179.208641595495
30
0.0
11
561.999999999999
21
179.208641595495
31
0.0
0
LINE
5
8e8
100
AcDbEntity
8
0-9
6
PHANTOM
62
4
100
AcDbLine
10
566.999999999999
20
178.808641595495
30
0.0
11
561.999999999999
21
178.808641595495
31
0.0
0
LINE
5
8e9
100
AcDbEntity
8
0-9
6
PHANTOM
62
4
100
AcDbLine
10
538.000000000001
20
178.808641595495
30
0.0
11
533.000000000251
21
178.808641595495
31
0.0
0
LINE
5
8ea
100
AcDbEntity
8
0-9
6
PHANTOM
62
4
100
AcDbLine
10
570.000000000000
20
170.808641595495
30
0.0
11
569.399999999999
21
170.808641595495
31
0.0
0
LINE
5
8eb
100
AcDbEntity
8
0-9
6
PHANTOM
62
4
100
AcDbLine
10
530.600000000000
20
170.808641595495
30
0.0
11
530.000000000000
21
170.808641595495
31
0.0
0
LINE
5
8ec
100
AcDbEntity
8
0-9
6
PHANTOM
62
4
100
AcDbLine
10
530.600000000000
20
168.308641595495
30
0.0
11
531.999999999999
21
168.308641595495
31
0.0
0
LINE
5
8ed
100
AcDbEntity
8
0-9
6
PHANTOM
62
4
100
AcDbLine
10
568.000000000001
20
168.308641595495
30
0.0
11
569.399999999999
21
168.308641595495
31
0.0
0
LINE
5
8ee
100
AcDbEntity
8
0-1
6
CENTER
62
4
100
AcDbLine
10
550.000000000000
20
317.008641833914
30
0.0
11
550.000000000000
21
165.308641595495
31
0.0
0
POLYLINE
5
8ef
100
AcDbEntity
8
0-0
6
CONTINUOUS
62
  7
100
AcDb2dPolyline
66
1
10
0.0
20
0.0
30
0.0
70
0
0
VERTEX
5
8f0
100
AcDbEntity
8
0-0
6
CONTINUOUS
62
  7
100
AcDbVertex
100
AcDb2dVertex
10
523.000000000000
20
393.198982271895
30
0.0
0
VERTEX
5
8f1
100
AcDbEntity
8
0-0
6
CONTINUOUS
62
  7
100
AcDbVertex
100
AcDb2dVertex
10
523.000000000000
20
347.198982271895
30
0.0
0
VERTEX
5
8f2
100
AcDbEntity
8
0-0
6
CONTINUOUS
62
  7
100
AcDbVertex
100
AcDb2dVertex
10
525.000000000000
20
345.198982271895
30
0.0
0
VERTEX
5
8f3
100
AcDbEntity
8
0-0
6
CONTINUOUS
62
  7
100
AcDbVertex
100
AcDb2dVertex
10
571.000000000000
20
345.198982271895
30
0.0
0
VERTEX
5
8f4
100
AcDbEntity
8
0-0
6
CONTINUOUS
62
  7
100
AcDbVertex
100
AcDb2dVertex
10
573.000000000000
20
347.198982271895
30
0.0
0
VERTEX
5
8f5
100
AcDbEntity
8
0-0
6
CONTINUOUS
62
  7
100
AcDbVertex
100
AcDb2dVertex
10
573.000000000000
20
370.198982271895
30
0.0
0
VERTEX
5
8f6
100
AcDbEntity
8
0-0
6
CONTINUOUS
62
  7
100
AcDbVertex
100
AcDb2dVertex
10
548.000000000000
20
395.198982271895
30
0.0
0
VERTEX
5
8f7
100
AcDbEntity
8
0-0
6
CONTINUOUS
62
  7
100
AcDbVertex
100
AcDb2dVertex
10
525.000000000000
20
395.198982271895
30
0.0
0
VERTEX
5
8f8
100
AcDbEntity
8
0-0
6
CONTINUOUS
62
  7
100
AcDbVertex
100
AcDb2dVertex
10
523.000000000000
20
393.198982271895
30
0.0
0
SEQEND
5
8f9
100
AcDbEntity
8
0-0
0
LINE
5
8fa
100
AcDbEntity
8
0-1
6
CENTER
62
4
100
AcDbLine
10
529.000000000000
20
392.798982271895
30
0.0
11
529.000000000000
21
387.598982271895
31
0.0
0
LINE
5
8fb
100
AcDbEntity
8
0-1
6
CENTER
62
4
100
AcDbLine
10
531.600000000000
20
390.198982271895
30
0.0
11
526.400000000000
21
390.198982271895
31
0.0
0
LINE
5
8fc
100
AcDbEntity
8
0-1
6
CENTER
62
4
100
AcDbLine
10
526.400000000000
20
370.198982271895
30
0.0
11
531.600000000000
21
370.198982271895
31
0.0
0
LINE
5
8fd
100
AcDbEntity
8
0-1
6
CENTER
62
4
100
AcDbLine
10
529.000000000000
20
372.798982271895
30
0.0
11
529.000000000000
21
367.598982271895
31
0.0
0
LINE
5
8fe
100
AcDbEntity
8
0-1
6
CENTER
62
4
100
AcDbLine
10
541.000000000000
20
372.198982271895
30
0.0
11
559.000000000000
21
372.198982271895
31
0.0
0
LINE
5
8ff
100
AcDbEntity
8
0-1
6
CENTER
62
4
100
AcDbLine
10
550.000000000000
20
363.198982271895
30
0.0
11
550.000000000000
21
381.198982271895
31
0.0
0
LINE
5
900
100
AcDbEntity
8
0-1
6
CENTER
62
4
100
AcDbLine
10
548.000000000000
20
353.798982271895
30
0.0
11
548.000000000000
21
348.598982271895
31
0.0
0
LINE
5
901
100
AcDbEntity
8
0-1
6
CENTER
62
4
100
AcDbLine
10
550.600000000000
20
351.198982271895
30
0.0
11
545.400000000000
21
351.198982271895
31
0.0
0
LINE
5
902
100
AcDbEntity
8
0-1
6
CENTER
62
4
100
AcDbLine
10
565.400000000000
20
351.198982271895
30
0.0
11
570.600000000000
21
351.198982271895
31
0.0
0
LINE
5
903
100
AcDbEntity
8
0-1
6
CENTER
62
4
100
AcDbLine
10
568.000000000000
20
348.598982271895
30
0.0
11
568.000000000000
21
353.798982271895
31
0.0
0
LINE
5
904
100
AcDbEntity
8
0-0
6
CONTINUOUS
62
7
100
AcDbLine
10
590.546399071470
20
347.198982271895
30
0.0
11
593.746399071470
21
347.198982271895
31
0.0
0
POLYLINE
5
905
100
AcDbEntity
8
0-0
6
CONTINUOUS
62
  7
100
AcDb2dPolyline
66
1
10
0.0
20
0.0
30
0.0
70
0
0
VERTEX
5
906
100
AcDbEntity
8
0-0
6
CONTINUOUS
62
  7
100
AcDbVertex
100
AcDb2dVertex
10
593.746399071470
20
345.198982271895
30
0.0
0
VERTEX
5
907
100
AcDbEntity
8
0-0
6
CONTINUOUS
62
  7
100
AcDbVertex
100
AcDb2dVertex
10
593.746399071470
20
395.198982271895
30
0.0
0
VERTEX
5
908
100
AcDbEntity
8
0-0
6
CONTINUOUS
62
  7
100
AcDbVertex
100
AcDb2dVertex
10
590.546399071470
20
395.198982271895
30
0.0
0
VERTEX
5
909
100
AcDbEntity
8
0-0
6
CONTINUOUS
62
  7
100
AcDbVertex
100
AcDb2dVertex
10
590.546399071470
20
345.198982271895
30
0.0
0
VERTEX
5
90a
100
AcDbEntity
8
0-0
6
CONTINUOUS
62
  7
100
AcDbVertex
100
AcDb2dVertex
10
593.746399071470
20
345.198982271895
30
0.0
0
SEQEND
5
90b
100
AcDbEntity
8
0-0
0
POLYLINE
5
90c
100
AcDbEntity
8
0-0
6
CONTINUOUS
62
  7
100
AcDb2dPolyline
66
1
10
0.0
20
0.0
30
0.0
70
0
0
VERTEX
5
90d
100
AcDbEntity
8
0-0
6
CONTINUOUS
62
  7
100
AcDbVertex
100
AcDb2dVertex
10
593.746399071470
20
363.198982271895
30
0.0
0
VERTEX
5
90e
100
AcDbEntity
8
0-0
6
CONTINUOUS
62
  7
100
AcDbVertex
100
AcDb2dVertex
10
609.546399071470
20
363.198982271895
30
0.0
0
VERTEX
5
90f
100
AcDbEntity
8
0-0
6
CONTINUOUS
62
  7
100
AcDbVertex
100
AcDb2dVertex
10
609.546399071470
20
381.198982271895
30
0.0
0
VERTEX
5
910
100
AcDbEntity
8
0-0
6
CONTINUOUS
62
  7
100
AcDbVertex
100
AcDb2dVertex
10
593.746399071470
20
381.198982271895
30
0.0
0
SEQEND
5
911
100
AcDbEntity
8
0-0
0
LINE
5
912
100
AcDbEntity
8
0-0
6
CONTINUOUS
62
7
100
AcDbLine
10
593.746399071470
20
393.198982271895
30
0.0
11
590.546399071470
21
393.198982271895
31
0.0
0
LINE
5
913
100
AcDbEntity
8
0-1
6
CENTER
62
4
100
AcDbLine
10
590.546399071470
20
372.198982271895
30
0.0
11
610.546399071470
21
372.198982271895
31
0.0
0
LINE
5
914
100
AcDbEntity
8
0-0
6
CONTINUOUS
62
7
100
AcDbLine
10
610.546399071470
20
380.198982271895
30
0.0
11
609.546399071470
21
381.198982271895
31
0.0
0
POLYLINE
5
915
100
AcDbEntity
8
0-0
6
CONTINUOUS
62
  7
100
AcDb2dPolyline
66
1
10
0.0
20
0.0
30
0.0
70
0
0
VERTEX
5
916
100
AcDbEntity
8
0-0
6
CONTINUOUS
62
  7
100
AcDbVertex
100
AcDb2dVertex
10
610.546399071470
20
380.198982271895
30
0.0
0
VERTEX
5
917
100
AcDbEntity
8
0-0
6
CONTINUOUS
62
  7
100
AcDbVertex
100
AcDb2dVertex
10
610.546399071470
20
364.198982271895
30
0.0
0
VERTEX
5
918
100
AcDbEntity
8
0-0
6
CONTINUOUS
62
  7
100
AcDbVertex
100
AcDb2dVertex
10
609.546399071470
20
363.198982271895
30
0.0
0
SEQEND
5
919
100
AcDbEntity
8
0-0
0
CIRCLE
5
91a
100
AcDbEntity
8
0-0
6
CONTINUOUS
62
7
100
AcDbCircle
10
550.000000000000
20
372.198982271895
30
0.0
40
5.050000000000
0
CIRCLE
5
91b
100
AcDbEntity
8
0-0
6
CONTINUOUS
62
7
100
AcDbCircle
10
529.000000000000
20
390.198982271895
30
0.0
40
2.750000000000
0
CIRCLE
5
91c
100
AcDbEntity
8
0-0
6
CONTINUOUS
62
7
100
AcDbCircle
10
529.000000000000
20
370.198982271895
30
0.0
40
2.750000000000
0
CIRCLE
5
91d
100
AcDbEntity
8
0-0
6
CONTINUOUS
62
7
100
AcDbCircle
10
548.000000000000
20
351.198982271895
30
0.0
40
2.750000000000
0
CIRCLE
5
91e
100
AcDbEntity
8
0-0
6
CONTINUOUS
62
7
100
AcDbCircle
10
568.000000000000
20
351.198982271895
30
0.0
40
2.750000000000
0
CIRCLE
5
91f
100
AcDbEntity
8
0-0
6
CONTINUOUS
62
7
100
AcDbCircle
10
550.000000000000
20
372.198982271895
30
0.0
40
8.000000000000
0
CIRCLE
5
920
100
AcDbEntity
8
0-1
6
CONTINUOUS
62
4
100
AcDbCircle
10
550.000000000000
20
372.198982271895
30
0.0
40
6.000000000000
0
LINE
5
921
100
AcDbEntity
8
0-8
6
CONTINUOUS
62
4
100
AcDbLine
10
556.000000000000
20
289.308641595495
30
0.0
11
544.000000000000
21
289.308641595495
31
0.0
0
LINE
5
922
100
AcDbEntity
8
0-8
6
CONTINUOUS
62
4
100
AcDbLine
10
530.000000000000
20
200.708641595495
30
0.0
11
570.000000000000
21
200.708641595495
31
0.0
0
LINE
5
923
100
AcDbEntity
8
0-8
6
CONTINUOUS
62
7
100
AcDbLine
10
568.000000000001
20
190.308641595495
30
0.0
11
532.000000000000
21
190.308641595495
31
0.0
0
POLYLINE
5
924
100
AcDbEntity
8
0-8
6
CONTINUOUS
62
  7
100
AcDb2dPolyline
66
1
10
0.0
20
0.0
30
0.0
70
0
0
VERTEX
5
925
100
AcDbEntity
8
0-8
6
CONTINUOUS
62
  7
100
AcDbVertex
100
AcDb2dVertex
10
545.000000000000
20
290.308641595495
30
0.0
0
VERTEX
5
926
100
AcDbEntity
8
0-8
6
CONTINUOUS
62
  7
100
AcDbVertex
100
AcDb2dVertex
10
555.000000000000
20
290.308641595495
30
0.0
0
VERTEX
5
927
100
AcDbEntity
8
0-8
6
CONTINUOUS
62
  7
100
AcDbVertex
100
AcDb2dVertex
10
556.000000000000
20
289.308641595495
30
0.0
0
SEQEND
5
928
100
AcDbEntity
8
0-8
0
LINE
5
929
100
AcDbEntity
8
0-8
6
CONTINUOUS
62
7
100
AcDbLine
10
544.000000000000
20
289.308641595495
30
0.0
11
545.000000000000
21
290.308641595495
31
0.0
0
LINE
5
92a
100
AcDbEntity
8
0-8
6
CONTINUOUS
62
7
100
AcDbLine
10
570.000000000000
20
195.708641595496
30
0.0
11
530.000000000000
21
195.708641595496
31
0.0
0
LINE
5
92b
100
AcDbEntity
8
0-8
6
CONTINUOUS
62
7
100
AcDbLine
10
568.000000000001
20
193.208641595496
30
0.0
11
568.000000000001
21
190.308641595495
31
0.0
0
LINE
5
92c
100
AcDbEntity
8
0-8
6
CONTINUOUS
62
7
100
AcDbLine
10
532.000000000000
20
190.308641595495
30
0.0
11
532.000000000000
21
193.208641595496
31
0.0
0
LINE
5
92d
100
AcDbEntity
8
0-8
6
CONTINUOUS
62
7
100
AcDbLine
10
533.000000000251
20
203.708641595495
30
0.0
11
567.000000000000
21
203.708641595495
31
0.0
0
POLYLINE
5
92e
100
AcDbEntity
8
0-8
6
CONTINUOUS
62
  7
100
AcDb2dPolyline
66
1
10
0.0
20
0.0
30
0.0
70
0
0
VERTEX
5
92f
100
AcDbEntity
8
0-8
6
CONTINUOUS
62
  7
100
AcDbVertex
100
AcDb2dVertex
10
562.000000000000
20
203.708641595495
30
0.0
0
VERTEX
5
930
100
AcDbEntity
8
0-8
6
CONTINUOUS
62
  7
100
AcDbVertex
100
AcDb2dVertex
10
562.000000000000
20
204.108641595495
30
0.0
0
VERTEX
5
931
100
AcDbEntity
8
0-8
6
CONTINUOUS
62
  7
100
AcDbVertex
100
AcDb2dVertex
10
538.000000000001
20
204.108641595495
30
0.0
0
VERTEX
5
932
100
AcDbEntity
8
0-8
6
CONTINUOUS
62
  7
100
AcDbVertex
100
AcDb2dVertex
10
538.000000000001
20
203.708641595495
30
0.0
0
SEQEND
5
933
100
AcDbEntity
8
0-8
0
POLYLINE
5
934
100
AcDbEntity
8
0-8
6
CONTINUOUS
62
  7
100
AcDb2dPolyline
66
1
10
0.0
20
0.0
30
0.0
70
0
0
VERTEX
5
935
100
AcDbEntity
8
0-8
6
CONTINUOUS
62
  7
100
AcDbVertex
100
AcDb2dVertex
10
539.030344885398
20
204.875004205715
30
0.0
0
VERTEX
5
936
100
AcDbEntity
8
0-8
6
CONTINUOUS
62
  7
100
AcDbVertex
100
AcDb2dVertex
10
539.721387159641
20
204.714594488893
30
0.0
0
VERTEX
5
937
100
AcDbEntity
8
0-8
6
CONTINUOUS
62
  7
100
AcDbVertex
100
AcDb2dVertex
10
540.413845783983
20
204.594092497977
30
0.0
0
VERTEX
5
938
100
AcDbEntity
8
0-8
6
CONTINUOUS
62
  7
100
AcDbVertex
100
AcDb2dVertex
10
541.105552255941
20
204.519805737305
30
0.0
0
VERTEX
5
939
100
AcDbEntity
8
0-8
6
CONTINUOUS
62
  7
100
AcDbVertex
100
AcDb2dVertex
10
541.797225329449
20
204.495770891998
30
0.0
0
VERTEX
5
93a
100
AcDbEntity
8
0-8
6
CONTINUOUS
62
  7
100
AcDbVertex
100
AcDb2dVertex
10
542.480397671751
20
204.522794665453
30
0.0
0
VERTEX
5
93b
100
AcDbEntity
8
0-8
6
CONTINUOUS
62
  7
100
AcDbVertex
100
AcDb2dVertex
10
543.161810030200
20
204.598414814909
30
0.0
0
VERTEX
5
93c
100
AcDbEntity
8
0-8
6
CONTINUOUS
62
  7
100
AcDbVertex
100
AcDb2dVertex
10
543.839711646786
20
204.717793150082
30
0.0
0
VERTEX
5
93d
100
AcDbEntity
8
0-8
6
CONTINUOUS
62
  7
100
AcDbVertex
100
AcDb2dVertex
10
544.515172442699
20
204.875004205715
30
0.0
0
VERTEX
5
93e
100
AcDbEntity
8
0-8
6
CONTINUOUS
62
  7
100
AcDbVertex
100
AcDb2dVertex
10
546.925856413380
20
204.620901388942
30
0.0
0
VERTEX
5
93f
100
AcDbEntity
8
0-8
6
CONTINUOUS
62
  7
100
AcDbVertex
100
AcDb2dVertex
10
549.338956369459
20
204.501666396986
30
0.0
0
VERTEX
5
940
100
AcDbEntity
8
0-8
6
CONTINUOUS
62
  7
100
AcDbVertex
100
AcDb2dVertex
10
551.728238644714
20
204.535976026460
30
0.0
0
VERTEX
5
941
100
AcDbEntity
8
0-8
6
CONTINUOUS
62
  7
100
AcDbVertex
100
AcDb2dVertex
10
554.102755653401
20
204.714595782638
30
0.0
0
VERTEX
5
942
100
AcDbEntity
8
0-8
6
CONTINUOUS
62
  7
100
AcDbVertex
100
AcDb2dVertex
10
555.484827557302
20
204.875004205715
30
0.0
0
VERTEX
5
943
100
AcDbEntity
8
0-8
6
CONTINUOUS
62
  7
100
AcDbVertex
100
AcDb2dVertex
10
556.175869831546
20
204.714594488893
30
0.0
0
VERTEX
5
944
100
AcDbEntity
8
0-8
6
CONTINUOUS
62
  7
100
AcDbVertex
100
AcDb2dVertex
10
556.868328455887
20
204.594092497977
30
0.0
0
VERTEX
5
945
100
AcDbEntity
8
0-8
6
CONTINUOUS
62
  7
100
AcDbVertex
100
AcDb2dVertex
10
557.560034927845
20
204.519805737305
30
0.0
0
VERTEX
5
946
100
AcDbEntity
8
0-8
6
CONTINUOUS
62
  7
100
AcDbVertex
100
AcDb2dVertex
10
558.251708001353
20
204.495770891998
30
0.0
0
VERTEX
5
947
100
AcDbEntity
8
0-8
6
CONTINUOUS
62
  7
100
AcDbVertex
100
AcDb2dVertex
10
558.934880343655
20
204.522794665453
30
0.0
0
VERTEX
5
948
100
AcDbEntity
8
0-8
6
CONTINUOUS
62
  7
100
AcDbVertex
100
AcDb2dVertex
10
559.616292702104
20
204.598414814909
30
0.0
0
VERTEX
5
949
100
AcDbEntity
8
0-8
6
CONTINUOUS
62
  7
100
AcDbVertex
100
AcDb2dVertex
10
560.294194318691
20
204.717793150082
30
0.0
0
VERTEX
5
94a
100
AcDbEntity
8
0-8
6
CONTINUOUS
62
  7
100
AcDbVertex
100
AcDb2dVertex
10
560.969655114603
20
204.875004205715
30
0.0
0
VERTEX
5
94b
100
AcDbEntity
8
0-8
6
CONTINUOUS
62
  7
100
AcDbVertex
100
AcDb2dVertex
10
558.000000000001
20
204.108641595495
30
0.0
0
SEQEND
5
94c
100
AcDbEntity
8
0-8
0
LINE
5
94d
100
AcDbEntity
8
0-8
6
CONTINUOUS
62
7
100
AcDbLine
10
555.484827557302
20
204.875004205715
30
0.0
11
555.484827557302
21
210.308641595495
31
0.0
0
POLYLINE
5
94e
100
AcDbEntity
8
0-8
6
CONTINUOUS
62
  7
100
AcDb2dPolyline
66
1
10
0.0
20
0.0
30
0.0
70
0
0
VERTEX
5
94f
100
AcDbEntity
8
0-8
6
CONTINUOUS
62
  7
100
AcDbVertex
100
AcDb2dVertex
10
560.969655114603
20
210.308641595495
30
0.0
0
VERTEX
5
950
100
AcDbEntity
8
0-8
6
CONTINUOUS
62
  7
100
AcDbVertex
100
AcDb2dVertex
10
539.030344885398
20
210.308641595495
30
0.0
0
VERTEX
5
951
100
AcDbEntity
8
0-8
6
CONTINUOUS
62
  7
100
AcDbVertex
100
AcDb2dVertex
10
539.030344885398
20
204.875004205715
30
0.0
0
VERTEX
5
952
100
AcDbEntity
8
0-8
6
CONTINUOUS
62
  7
100
AcDbVertex
100
AcDb2dVertex
10
542.000000000000
20
204.108641595495
30
0.0
0
SEQEND
5
953
100
AcDbEntity
8
0-8
0
LINE
5
954
100
AcDbEntity
8
0-8
6
CONTINUOUS
62
7
100
AcDbLine
10
544.515172442699
20
204.875004205715
30
0.0
11
544.515172442699
21
210.308641595495
31
0.0
0
LINE
5
955
100
AcDbEntity
8
0-8
6
CONTINUOUS
62
7
100
AcDbLine
10
560.969655114603
20
210.308641595495
30
0.0
11
560.969655114603
21
204.875004205715
31
0.0
0
ARC
5
956
100
AcDbEntity
8
0-8
6
CONTINUOUS
62
7
100
AcDbCircle
10
533.000000000001
20
200.708641595495
30
0.0
40
3.000000000000
100
AcDbArc
50
89.999999999999
51
180.000000000000
0
ARC
5
957
100
AcDbEntity
8
0-8
6
CONTINUOUS
62
7
100
AcDbCircle
10
567.000000000000
20
200.708641595495
30
0.0
40
3.000000000000
100
AcDbArc
50
360.000000000000
51
450.000000000001
0
LINE
5
958
100
AcDbEntity
8
0-8
6
CONTINUOUS
62
7
100
AcDbLine
10
530.000000000000
20
193.208641595496
30
0.0
11
530.000000000000
21
200.708641595495
31
0.0
0
LINE
5
959
100
AcDbEntity
8
0-8
6
CONTINUOUS
62
7
100
AcDbLine
10
530.000000000000
20
193.208641595496
30
0.0
11
570.000000000000
21
193.208641595496
31
0.0
0
LINE
5
95a
100
AcDbEntity
8
0-8
6
CONTINUOUS
62
7
100
AcDbLine
10
570.000000000000
20
200.708641595495
30
0.0
11
570.000000000000
21
193.208641595496
31
0.0
0
LINE
5
95b
100
AcDbEntity
8
0-8
6
CONTINUOUS
62
4
100
AcDbLine
10
544.750000000000
20
210.308641595495
30
0.0
11
544.750000000000
21
238.108641833914
31
0.0
0
LINE
5
95c
100
AcDbEntity
8
0-8
6
CONTINUOUS
62
4
100
AcDbLine
10
555.250000000000
20
210.308641595495
30
0.0
11
555.250000000000
21
238.108641833914
31
0.0
0
LINE
5
95d
100
AcDbEntity
8
0-8
6
CONTINUOUS
62
7
100
AcDbLine
10
541.772758483887
20
245.308641833914
30
0.0
11
558.227241516113
21
245.308641833914
31
0.0
0
ARC
5
95e
100
AcDbEntity
8
0-8
6
CONTINUOUS
62
7
100
AcDbCircle
10
550.000000000000
20
231.512897653235
30
0.0
40
13.795743942261
100
AcDbArc
50
66.573394775391
51
113.426589965820
0
POLYLINE
5
95f
100
AcDbEntity
8
0-8
6
CONTINUOUS
62
  7
100
AcDb2dPolyline
66
1
10
0.0
20
0.0
30
0.0
70
0
0
VERTEX
5
960
100
AcDbEntity
8
0-8
6
CONTINUOUS
62
  7
100
AcDbVertex
100
AcDb2dVertex
10
560.969524736243
20
244.171460049749
30
0.0
0
VERTEX
5
961
100
AcDbEntity
8
0-8
6
CONTINUOUS
62
  7
100
AcDbVertex
100
AcDb2dVertex
10
560.302100954103
20
244.689715550454
30
0.0
0
VERTEX
5
962
100
AcDbEntity
8
0-8
6
CONTINUOUS
62
  7
100
AcDbVertex
100
AcDb2dVertex
10
559.571633617870
20
245.057578004305
30
0.0
0
VERTEX
5
963
100
AcDbEntity
8
0-8
6
CONTINUOUS
62
  7
100
AcDbVertex
100
AcDb2dVertex
10
558.800317607920
20
245.263870096789
30
0.0
0
VERTEX
5
964
100
AcDbEntity
8
0-8
6
CONTINUOUS
62
  7
100
AcDbVertex
100
AcDb2dVertex
10
558.011588970910
20
245.302323747066
30
0.0
0
VERTEX
5
965
100
AcDbEntity
8
0-8
6
CONTINUOUS
62
  7
100
AcDbVertex
100
AcDb2dVertex
10
557.229412827361
20
245.171770560430
30
0.0
0
VERTEX
5
966
100
AcDbEntity
8
0-8
6
CONTINUOUS
62
  7
100
AcDbVertex
100
AcDb2dVertex
10
556.477555203595
20
244.876177329394
30
0.0
0
VERTEX
5
967
100
AcDbEntity
8
0-8
6
CONTINUOUS
62
  7
100
AcDbVertex
100
AcDb2dVertex
10
555.778860913050
20
244.424525504706
30
0.0
0
VERTEX
5
968
100
AcDbEntity
8
0-8
6
CONTINUOUS
62
  7
100
AcDbVertex
100
AcDb2dVertex
10
555.484959255685
20
244.171460947824
30
0.0
0
SEQEND
5
969
100
AcDbEntity
8
0-8
0
POLYLINE
5
96a
100
AcDbEntity
8
0-8
6
CONTINUOUS
62
  7
100
AcDb2dPolyline
66
1
10
0.0
20
0.0
30
0.0
70
0
0
VERTEX
5
96b
100
AcDbEntity
8
0-8
6
CONTINUOUS
62
  7
100
AcDbVertex
100
AcDb2dVertex
10
544.515041704018
20
244.171460049749
30
0.0
0
VERTEX
5
96c
100
AcDbEntity
8
0-8
6
CONTINUOUS
62
  7
100
AcDbVertex
100
AcDb2dVertex
10
543.847617921878
20
244.689715550454
30
0.0
0
VERTEX
5
96d
100
AcDbEntity
8
0-8
6
CONTINUOUS
62
  7
100
AcDbVertex
100
AcDb2dVertex
10
543.117150585644
20
245.057578004305
30
0.0
0
VERTEX
5
96e
100
AcDbEntity
8
0-8
6
CONTINUOUS
62
  7
100
AcDbVertex
100
AcDb2dVertex
10
542.345834575694
20
245.263870096789
30
0.0
0
VERTEX
5
96f
100
AcDbEntity
8
0-8
6
CONTINUOUS
62
  7
100
AcDbVertex
100
AcDb2dVertex
10
541.557105938685
20
245.302323747066
30
0.0
0
VERTEX
5
970
100
AcDbEntity
8
0-8
6
CONTINUOUS
62
  7
100
AcDbVertex
100
AcDb2dVertex
10
540.774929795136
20
245.171770560430
30
0.0
0
VERTEX
5
971
100
AcDbEntity
8
0-8
6
CONTINUOUS
62
  7
100
AcDbVertex
100
AcDb2dVertex
10
540.023072171369
20
244.876177329394
30
0.0
0
VERTEX
5
972
100
AcDbEntity
8
0-8
6
CONTINUOUS
62
  7
100
AcDbVertex
100
AcDb2dVertex
10
539.324377880824
20
244.424525504706
30
0.0
0
VERTEX
5
973
100
AcDbEntity
8
0-8
6
CONTINUOUS
62
  7
100
AcDbVertex
100
AcDb2dVertex
10
539.030476223459
20
244.171460947824
30
0.0
0
SEQEND
5
974
100
AcDbEntity
8
0-8
0
LINE
5
975
100
AcDbEntity
8
0-8
6
CONTINUOUS
62
7
100
AcDbLine
10
544.515172481537
20
239.245823115958
30
0.0
11
544.515172481537
21
244.171460551871
31
0.0
0
LINE
5
976
100
AcDbEntity
8
0-8
6
CONTINUOUS
62
7
100
AcDbLine
10
560.969655036927
20
244.171460551871
30
0.0
11
560.969655036927
21
239.245823115958
31
0.0
0
LINE
5
977
100
AcDbEntity
8
0-8
6
CONTINUOUS
62
7
100
AcDbLine
10
558.227241516113
20
238.108641833914
30
0.0
11
541.772758483887
21
238.108641833914
31
0.0
0
LINE
5
978
100
AcDbEntity
8
0-8
6
CONTINUOUS
62
7
100
AcDbLine
10
539.030344963073
20
239.245823115958
30
0.0
11
539.030344963073
21
244.171460551871
31
0.0
0
LINE
5
979
100
AcDbEntity
8
0-8
6
CONTINUOUS
62
7
100
AcDbLine
10
555.484827518463
20
244.171460551871
30
0.0
11
555.484827518463
21
239.245823115958
31
0.0
0
ARC
5
97a
100
AcDbEntity
8
0-8
6
CONTINUOUS
62
7
100
AcDbCircle
10
550.000000000000
20
251.904386014594
30
0.0
40
13.795743942261
100
AcDbArc
50
246.573410034180
51
293.426605224609
0
POLYLINE
5
97b
100
AcDbEntity
8
0-8
6
CONTINUOUS
62
  7
100
AcDb2dPolyline
66
1
10
0.0
20
0.0
30
0.0
70
0
0
VERTEX
5
97c
100
AcDbEntity
8
0-8
6
CONTINUOUS
62
  7
100
AcDbVertex
100
AcDb2dVertex
10
555.484959255685
20
239.245822720005
30
0.0
0
VERTEX
5
97d
100
AcDbEntity
8
0-8
6
CONTINUOUS
62
  7
100
AcDbVertex
100
AcDb2dVertex
10
556.152383150062
20
238.727567437876
30
0.0
0
VERTEX
5
97e
100
AcDbEntity
8
0-8
6
CONTINUOUS
62
  7
100
AcDbVertex
100
AcDb2dVertex
10
556.882850565963
20
238.359705223247
30
0.0
0
VERTEX
5
97f
100
AcDbEntity
8
0-8
6
CONTINUOUS
62
  7
100
AcDbVertex
100
AcDb2dVertex
10
557.654166620590
20
238.153413383362
30
0.0
0
VERTEX
5
980
100
AcDbEntity
8
0-8
6
CONTINUOUS
62
  7
100
AcDbVertex
100
AcDb2dVertex
10
558.442895265927
20
238.114959991387
30
0.0
0
VERTEX
5
981
100
AcDbEntity
8
0-8
6
CONTINUOUS
62
  7
100
AcDbVertex
100
AcDb2dVertex
10
559.225071381202
20
238.245513434179
30
0.0
0
VERTEX
5
982
100
AcDbEntity
8
0-8
6
CONTINUOUS
62
  7
100
AcDbVertex
100
AcDb2dVertex
10
559.976928940953
20
238.541106911442
30
0.0
0
VERTEX
5
983
100
AcDbEntity
8
0-8
6
CONTINUOUS
62
  7
100
AcDbVertex
100
AcDb2dVertex
10
560.675623133684
20
238.992758964947
30
0.0
0
VERTEX
5
984
100
AcDbEntity
8
0-8
6
CONTINUOUS
62
  7
100
AcDbVertex
100
AcDb2dVertex
10
560.969524736243
20
239.245823618079
30
0.0
0
SEQEND
5
985
100
AcDbEntity
8
0-8
0
POLYLINE
5
986
100
AcDbEntity
8
0-8
6
CONTINUOUS
62
  7
100
AcDb2dPolyline
66
1
10
0.0
20
0.0
30
0.0
70
0
0
VERTEX
5
987
100
AcDbEntity
8
0-8
6
CONTINUOUS
62
  7
100
AcDbVertex
100
AcDb2dVertex
10
539.030476223459
20
239.245822720005
30
0.0
0
VERTEX
5
988
100
AcDbEntity
8
0-8
6
CONTINUOUS
62
  7
100
AcDbVertex
100
AcDb2dVertex
10
539.697900117837
20
238.727567437876
30
0.0
0
VERTEX
5
989
100
AcDbEntity
8
0-8
6
CONTINUOUS
62
  7
100
AcDbVertex
100
AcDb2dVertex
10
540.428367533737
20
238.359705223247
30
0.0
0
VERTEX
5
98a
100
AcDbEntity
8
0-8
6
CONTINUOUS
62
  7
100
AcDbVertex
100
AcDb2dVertex
10
541.199683588364
20
238.153413383362
30
0.0
0
VERTEX
5
98b
100
AcDbEntity
8
0-8
6
CONTINUOUS
62
  7
100
AcDbVertex
100
AcDb2dVertex
10
541.988412233701
20
238.114959991387
30
0.0
0
VERTEX
5
98c
100
AcDbEntity
8
0-8
6
CONTINUOUS
62
  7
100
AcDbVertex
100
AcDb2dVertex
10
542.770588348976
20
238.245513434179
30
0.0
0
VERTEX
5
98d
100
AcDbEntity
8
0-8
6
CONTINUOUS
62
  7
100
AcDbVertex
100
AcDb2dVertex
10
543.522445908727
20
238.541106911442
30
0.0
0
VERTEX
5
98e
100
AcDbEntity
8
0-8
6
CONTINUOUS
62
  7
100
AcDbVertex
100
AcDb2dVertex
10
544.221140101458
20
238.992758964947
30
0.0
0
VERTEX
5
98f
100
AcDbEntity
8
0-8
6
CONTINUOUS
62
  7
100
AcDbVertex
100
AcDb2dVertex
10
544.515041704018
20
239.245823618079
30
0.0
0
SEQEND
5
990
100
AcDbEntity
8
0-8
0
LINE
5
991
100
AcDbEntity
8
0-8
6
CONTINUOUS
62
7
100
AcDbLine
10
556.000000000000
20
238.108641833914
30
0.0
11
556.000000000000
21
210.308641595495
31
0.0
0
LINE
5
992
100
AcDbEntity
8
0-8
6
CONTINUOUS
62
7
100
AcDbLine
10
544.000000000000
20
238.108641833914
30
0.0
11
544.000000000000
21
210.308641595495
31
0.0
0
LINE
5
993
100
AcDbEntity
8
0-8
6
CONTINUOUS
62
4
100
AcDbLine
10
555.250000000000
20
270.408641595495
30
0.0
11
555.250000000000
21
290.058641595495
31
0.0
0
LINE
5
994
100
AcDbEntity
8
0-8
6
CONTINUOUS
62
4
100
AcDbLine
10
544.750000000000
20
270.408641595495
30
0.0
11
544.750000000000
21
290.058641595495
31
0.0
0
LINE
5
995
100
AcDbEntity
8
0-8
6
CONTINUOUS
62
7
100
AcDbLine
10
556.000000000000
20
289.308641595495
30
0.0
11
556.000000000000
21
270.408641595495
31
0.0
0
LINE
5
996
100
AcDbEntity
8
0-8
6
CONTINUOUS
62
7
100
AcDbLine
10
544.000000000000
20
289.308641595495
30
0.0
11
544.000000000000
21
270.408641595495
31
0.0
0
LINE
5
997
100
AcDbEntity
8
0-9
6
PHANTOM
62
4
100
AcDbLine
10
560.969655114603
20
231.975004205715
30
0.0
11
558.000000000001
21
231.208641595495
31
0.0
0
LINE
5
998
100
AcDbEntity
8
0-9
6
PHANTOM
62
4
100
AcDbLine
10
539.030344885397
20
237.408641595495
30
0.0
11
539.030344885397
21
231.975004205715
31
0.0
0
LINE
5
999
100
AcDbEntity
8
0-9
6
PHANTOM
62
4
100
AcDbLine
10
541.999999999999
20
231.208641595495
30
0.0
11
539.030344885397
21
231.975004205715
31
0.0
0
LINE
5
99a
100
AcDbEntity
8
0-9
6
PHANTOM
62
4
100
AcDbLine
10
561.999999999999
20
231.208641595495
30
0.0
11
561.999999999999
21
230.808641595495
31
0.0
0
LINE
5
99b
100
AcDbEntity
8
0-9
6
PHANTOM
62
4
100
AcDbLine
10
560.969655114603
20
231.975004205715
30
0.0
11
560.969655114603
21
237.408641595495
31
0.0
0
LINE
5
99c
100
AcDbEntity
8
0-9
6
PHANTOM
62
4
100
AcDbLine
10
538.000000000001
20
230.808641595495
30
0.0
11
538.000000000001
21
231.208641595495
31
0.0
0
LINE
5
99d
100
AcDbEntity
8
0-9
6
PHANTOM
62
4
100
AcDbLine
10
570.000000000000
20
227.808641595495
30
0.0
11
570.000000000000
21
222.808641595495
31
0.0
0
LINE
5
99e
100
AcDbEntity
8
0-9
6
PHANTOM
62
4
100
AcDbLine
10
530.000000000000
20
222.808641595495
30
0.0
11
530.000000000000
21
227.808641595495
31
0.0
0
LINE
5
99f
100
AcDbEntity
8
0-9
6
PHANTOM
62
4
100
AcDbLine
10
530.600000000000
20
222.808641595495
30
0.0
11
530.600000000000
21
220.308641595495
31
0.0
0
LINE
5
9a0
100
AcDbEntity
8
0-9
6
PHANTOM
62
4
100
AcDbLine
10
569.399999999999
20
220.308641595495
30
0.0
11
569.399999999999
21
222.808641595495
31
0.0
0
POLYLINE
5
9a1
100
AcDbEntity
8
0-9
6
PHANTOM
62
  4
100
AcDb2dPolyline
66
1
10
0.0
20
0.0
30
0.0
70
0
0
VERTEX
5
9a2
100
AcDbEntity
8
0-9
6
PHANTOM
62
  4
100
AcDbVertex
100
AcDb2dVertex
10
568.000000000001
20
220.308641595495
30
0.0
0
VERTEX
5
9a3
100
AcDbEntity
8
0-9
6
PHANTOM
62
  4
100
AcDbVertex
100
AcDb2dVertex
10
568.000000000001
20
217.308641595495
30
0.0
0
VERTEX
5
9a4
100
AcDbEntity
8
0-9
6
PHANTOM
62
  4
100
AcDbVertex
100
AcDb2dVertex
10
531.999999999999
20
217.308641595495
30
0.0
0
VERTEX
5
9a5
100
AcDbEntity
8
0-9
6
PHANTOM
62
  4
100
AcDbVertex
100
AcDb2dVertex
10
531.999999999999
20
220.308641595495
30
0.0
0
SEQEND
5
9a6
100
AcDbEntity
8
0-9
0
ARC
5
9a7
100
AcDbEntity
8
0-9
6
PHANTOM
62
4
100
AcDbCircle
10
533.000000000001
20
227.808641595495
30
0.0
40
3.000000000000
100
AcDbArc
50
89.999999999999
51
180.000000000000
0
ARC
5
9a8
100
AcDbEntity
8
0-9
6
PHANTOM
62
4
100
AcDbCircle
10
566.999999999999
20
227.808641595495
30
0.0
40
3.000000000000
100
AcDbArc
50
360.000000000000
51
450.000000000001
0
LINE
5
9a9
100
AcDbEntity
8
0-9
6
PHANTOM
62
4
100
AcDbLine
10
538.000000000001
20
231.208641595495
30
0.0
11
541.999999999999
21
231.208641595495
31
0.0
0
LINE
5
9aa
100
AcDbEntity
8
0-9
6
PHANTOM
62
4
100
AcDbLine
10
558.000000000001
20
231.208641595495
30
0.0
11
561.999999999999
21
231.208641595495
31
0.0
0
LINE
5
9ab
100
AcDbEntity
8
0-9
6
PHANTOM
62
4
100
AcDbLine
10
566.999999999999
20
230.808641595495
30
0.0
11
561.999999999999
21
230.808641595495
31
0.0
0
LINE
5
9ac
100
AcDbEntity
8
0-9
6
PHANTOM
62
4
100
AcDbLine
10
538.000000000001
20
230.808641595495
30
0.0
11
533.000000000251
21
230.808641595495
31
0.0
0
LINE
5
9ad
100
AcDbEntity
8
0-9
6
PHANTOM
62
4
100
AcDbLine
10
570.000000000000
20
222.808641595495
30
0.0
11
569.399999999999
21
222.808641595495
31
0.0
0
LINE
5
9ae
100
AcDbEntity
8
0-9
6
PHANTOM
62
4
100
AcDbLine
10
530.600000000000
20
222.808641595495
30
0.0
11
530.000000000000
21
222.808641595495
31
0.0
0
LINE
5
9af
100
AcDbEntity
8
0-9
6
PHANTOM
62
4
100
AcDbLine
10
530.600000000000
20
220.308641595495
30
0.0
11
531.999999999999
21
220.308641595495
31
0.0
0
LINE
5
9b0
100
AcDbEntity
8
0-9
6
PHANTOM
62
4
100
AcDbLine
10
568.000000000001
20
220.308641595495
30
0.0
11
569.399999999999
21
220.308641595495
31
0.0
0
LINE
5
9b1
100
AcDbEntity
8
0-2
6
PHANTOM
62
4
100
AcDbLine
10
580.500000000000
20
108.884732410218
30
0.0
11
580.500000000000
21
133.884732410218
31
0.0
0
POLYLINE
5
9b2
100
AcDbEntity
8
0-2
6
PHANTOM
62
  4
100
AcDb2dPolyline
66
1
10
0.0
20
0.0
30
0.0
70
0
0
VERTEX
5
9b3
100
AcDbEntity
8
0-2
6
PHANTOM
62
  4
100
AcDbVertex
100
AcDb2dVertex
10
516.500000000000
20
69.884732410218
30
0.0
0
VERTEX
5
9b4
100
AcDbEntity
8
0-2
6
PHANTOM
62
  4
100
AcDbVertex
100
AcDb2dVertex
10
541.500000000000
20
69.884732410218
30
0.0
0
VERTEX
5
9b5
100
AcDbEntity
8
0-2
6
PHANTOM
62
  4
100
AcDbVertex
100
AcDb2dVertex
10
541.500000000000
20
133.884732410218
30
0.0
0
SEQEND
5
9b6
100
AcDbEntity
8
0-2
0
LINE
5
9b7
100
AcDbEntity
8
0-2
6
PHANTOM
62
4
100
AcDbLine
10
580.500000000000
20
133.884732410218
30
0.0
11
516.500000000000
21
133.884732410218
31
0.0
0
LINE
5
9b8
100
AcDbEntity
8
0-2
6
PHANTOM
62
4
100
AcDbLine
10
580.500000000000
20
108.884732410218
30
0.0
11
516.500000000000
21
108.884732410218
31
0.0
0
LINE
5
9b9
100
AcDbEntity
8
0-2
6
PHANTOM
62
4
100
AcDbLine
10
516.500000000000
20
69.884732410218
30
0.0
11
516.500000000000
21
133.884732410218
31
0.0
0
LINE
5
9ba
100
AcDbEntity
8
0-2
6
PHANTOM
62
4
100
AcDbLine
10
541.500000000000
20
402.698982271895
30
0.0
11
516.500000000000
21
402.698982271895
31
0.0
0
POLYLINE
5
9bb
100
AcDbEntity
8
0-2
6
PHANTOM
62
  4
100
AcDb2dPolyline
66
1
10
0.0
20
0.0
30
0.0
70
0
0
VERTEX
5
9bc
100
AcDbEntity
8
0-2
6
PHANTOM
62
  4
100
AcDbVertex
100
AcDb2dVertex
10
580.500000000000
20
338.698982271895
30
0.0
0
VERTEX
5
9bd
100
AcDbEntity
8
0-2
6
PHANTOM
62
  4
100
AcDbVertex
100
AcDb2dVertex
10
580.500000000000
20
363.698982271895
30
0.0
0
VERTEX
5
9be
100
AcDbEntity
8
0-2
6
PHANTOM
62
  4
100
AcDbVertex
100
AcDb2dVertex
10
516.500000000000
20
363.698982271895
30
0.0
0
SEQEND
5
9bf
100
AcDbEntity
8
0-2
0
LINE
5
9c0
100
AcDbEntity
8
0-2
6
PHANTOM
62
4
100
AcDbLine
10
516.500000000000
20
402.698982271895
30
0.0
11
516.500000000000
21
338.698982271895
31
0.0
0
LINE
5
9c1
100
AcDbEntity
8
0-2
6
PHANTOM
62
4
100
AcDbLine
10
541.500000000000
20
402.698982271895
30
0.0
11
541.500000000000
21
338.698982271895
31
0.0
0
LINE
5
9c2
100
AcDbEntity
8
0-2
6
PHANTOM
62
4
100
AcDbLine
10
580.500000000000
20
338.698982271895
30
0.0
11
516.500000000000
21
338.698982271895
31
0.0
0
LINE
5
9c3
100
AcDbEntity
8
0-2
6
PHANTOM
62
4
100
AcDbLine
10
516.500000000000
20
325.565774334452
30
0.0
11
516.500000000000
21
265.308641595495
31
0.0
0
LINE
5
9c4
100
AcDbEntity
8
0-2
6
PHANTOM
62
4
100
AcDbLine
10
541.500000000000
20
265.308641595495
30
0.0
11
541.500000000000
21
327.333045151368
31
0.0
0
LINE
5
9c5
100
AcDbEntity
8
0-2
6
PHANTOM
62
4
100
AcDbLine
10
583.358005123664
20
290.308641595495
30
0.0
11
516.500000000000
21
290.308641595495
31
0.0
0
LINE
5
9c6
100
AcDbEntity
8
0-2
6
PHANTOM
62
4
100
AcDbLine
10
516.500000000000
20
265.308641595495
30
0.0
11
588.659817574413
21
265.308641595495
31
0.0
0
TEXT
5
9c7
100
AcDbEntity
8
0-0
62
7
370
-3
100
AcDbText
10
525.200
20
395.966
30
0.0
40
4.208
1
LP25-M12
41
0.524
50
0.000
100
AcDbText
0
LINE
5
9c8
100
AcDbEntity
8
F-F_J_ADD
6
HIDDEN
62
253
100
AcDbLine
10
500.000000000000
20
40.384732410218
30
0.0
11
500.000000000000
21
410.308641595495
31
0.0
0
LINE
5
9c9
100
AcDbEntity
8
F-F_J_ADD
6
HIDDEN
62
253
100
AcDbLine
10
630.000000000000
20
40.384732410218
30
0.0
11
630.000000000000
21
410.308641595495
31
0.0
0
POLYLINE
5
9ca
100
AcDbEntity
8
0-0
6
CONTINUOUS
62
  7
100
AcDb2dPolyline
66
1
10
0.0
20
0.0
30
0.0
70
0
0
VERTEX
5
9cb
100
AcDbEntity
8
0-0
6
CONTINUOUS
62
  7
100
AcDbVertex
100
AcDb2dVertex
10
655.000000000000
20
127.384732410218
30
0.0
0
VERTEX
5
9cc
100
AcDbEntity
8
0-0
6
CONTINUOUS
62
  7
100
AcDbVertex
100
AcDb2dVertex
10
653.000000000000
20
125.384732410218
30
0.0
0
VERTEX
5
9cd
100
AcDbEntity
8
0-0
6
CONTINUOUS
62
  7
100
AcDbVertex
100
AcDb2dVertex
10
653.000000000000
20
79.384732410218
30
0.0
0
VERTEX
5
9ce
100
AcDbEntity
8
0-0
6
CONTINUOUS
62
  7
100
AcDbVertex
100
AcDb2dVertex
10
655.000000000000
20
77.384732410218
30
0.0
0
VERTEX
5
9cf
100
AcDbEntity
8
0-0
6
CONTINUOUS
62
  7
100
AcDbVertex
100
AcDb2dVertex
10
678.000000000000
20
77.384732410218
30
0.0
0
VERTEX
5
9d0
100
AcDbEntity
8
0-0
6
CONTINUOUS
62
  7
100
AcDbVertex
100
AcDb2dVertex
10
681.026352339251
20
80.411084749470
30
0.0
0
SEQEND
5
9d1
100
AcDbEntity
8
0-0
0
LINE
5
9d2
100
AcDbEntity
8
0-1
6
CENTER
62
4
100
AcDbLine
10
680.000000000000
20
91.384732410218
30
0.0
11
680.000000000000
21
109.384732410218
31
0.0
0
POLYLINE
5
9d3
100
AcDbEntity
8
0-1
6
CONTINUOUS
62
  7
100
AcDb2dPolyline
66
1
10
0.0
20
0.0
30
0.0
70
0
0
VERTEX
5
9d4
100
AcDbEntity
8
0-1
6
CONTINUOUS
62
  7
100
AcDbVertex
100
AcDb2dVertex
10
679.731006337406
20
120.382923388642
30
0.0
0
VERTEX
5
9d5
100
AcDbEntity
8
0-1
6
CONTINUOUS
62
  7
100
AcDbVertex
100
AcDb2dVertex
10
680.309401035309
20
121.384732410218
30
0.0
0
VERTEX
5
9d6
100
AcDbEntity
8
0-1
6
CONTINUOUS
62
  7
100
AcDbVertex
100
AcDb2dVertex
10
679.154700517654
20
123.384732410218
30
0.0
0
VERTEX
5
9d7
100
AcDbEntity
8
0-1
6
CONTINUOUS
62
  7
100
AcDbVertex
100
AcDb2dVertex
10
676.845299482345
20
123.384732410218
30
0.0
0
VERTEX
5
9d8
100
AcDbEntity
8
0-1
6
CONTINUOUS
62
  7
100
AcDbVertex
100
AcDb2dVertex
10
675.690598964691
20
121.384732410218
30
0.0
0
VERTEX
5
9d9
100
AcDbEntity
8
0-1
6
CONTINUOUS
62
  7
100
AcDbVertex
100
AcDb2dVertex
10
676.451183229869
20
120.067361795848
30
0.0
0
SEQEND
5
9da
100
AcDbEntity
8
0-1
0
LINE
5
9db
100
AcDbEntity
8
0-1
6
CENTER
62
4
100
AcDbLine
10
675.400000000000
20
121.384732410218
30
0.0
11
680.600000000000
21
121.384732410218
31
0.0
0
LINE
5
9dc
100
AcDbEntity
8
0-1
6
CENTER
62
4
100
AcDbLine
10
678.000000000000
20
123.984732410218
30
0.0
11
678.000000000000
21
118.784732410218
31
0.0
0
POLYLINE
5
9dd
100
AcDbEntity
8
0-1
6
CONTINUOUS
62
  7
100
AcDb2dPolyline
66
1
10
0.0
20
0.0
30
0.0
70
0
0
VERTEX
5
9de
100
AcDbEntity
8
0-1
6
CONTINUOUS
62
  7
100
AcDbVertex
100
AcDb2dVertex
10
696.000000000000
20
120.230031892564
30
0.0
0
VERTEX
5
9df
100
AcDbEntity
8
0-1
6
CONTINUOUS
62
  7
100
AcDbVertex
100
AcDb2dVertex
10
696.000000000000
20
122.539432927873
30
0.0
0
VERTEX
5
9e0
100
AcDbEntity
8
0-1
6
CONTINUOUS
62
  7
100
AcDbVertex
100
AcDb2dVertex
10
698.000000000000
20
123.694133445527
30
0.0
0
VERTEX
5
9e1
100
AcDbEntity
8
0-1
6
CONTINUOUS
62
  7
100
AcDbVertex
100
AcDb2dVertex
10
700.000000000000
20
122.539432927873
30
0.0
0
VERTEX
5
9e2
100
AcDbEntity
8
0-1
6
CONTINUOUS
62
  7
100
AcDbVertex
100
AcDb2dVertex
10
700.000000000000
20
120.230031892564
30
0.0
0
VERTEX
5
9e3
100
AcDbEntity
8
0-1
6
CONTINUOUS
62
  7
100
AcDbVertex
100
AcDb2dVertex
10
698.000000000000
20
119.075331374910
30
0.0
0
VERTEX
5
9e4
100
AcDbEntity
8
0-1
6
CONTINUOUS
62
  7
100
AcDbVertex
100
AcDb2dVertex
10
696.000000000000
20
120.230031892564
30
0.0
0
SEQEND
5
9e5
100
AcDbEntity
8
0-1
0
LINE
5
9e6
100
AcDbEntity
8
0-1
6
CENTER
62
4
100
AcDbLine
10
695.400000000000
20
121.384732410218
30
0.0
11
700.600000000000
21
121.384732410218
31
0.0
0
LINE
5
9e7
100
AcDbEntity
8
0-1
6
CENTER
62
4
100
AcDbLine
10
698.000000000000
20
123.984732410218
30
0.0
11
698.000000000000
21
118.784732410218
31
0.0
0
LINE
5
9e8
100
AcDbEntity
8
0-0
6
CONTINUOUS
62
7
100
AcDbLine
10
701.000000000000
20
127.384732410218
30
0.0
11
655.000000000000
21
127.384732410218
31
0.0
0
POLYLINE
5
9e9
100
AcDbEntity
8
0-1
6
CONTINUOUS
62
  7
100
AcDb2dPolyline
66
1
10
0.0
20
0.0
30
0.0
70
0
0
VERTEX
5
9ea
100
AcDbEntity
8
0-1
6
CONTINUOUS
62
  7
100
AcDbVertex
100
AcDb2dVertex
10
657.845299482345
20
104.384732410218
30
0.0
0
VERTEX
5
9eb
100
AcDbEntity
8
0-1
6
CONTINUOUS
62
  7
100
AcDbVertex
100
AcDb2dVertex
10
660.154700517654
20
104.384732410218
30
0.0
0
VERTEX
5
9ec
100
AcDbEntity
8
0-1
6
CONTINUOUS
62
  7
100
AcDbVertex
100
AcDb2dVertex
10
660.340980062082
20
104.062086769069
30
0.0
0
SEQEND
5
9ed
100
AcDbEntity
8
0-1
0
LINE
5
9ee
100
AcDbEntity
8
0-1
6
CENTER
62
4
100
AcDbLine
10
659.000000000000
20
104.984732410218
30
0.0
11
659.000000000000
21
99.784732410219
31
0.0
0
POLYLINE
5
9ef
100
AcDbEntity
8
0-1
6
CONTINUOUS
62
  7
100
AcDb2dPolyline
66
1
10
0.0
20
0.0
30
0.0
70
0
0
VERTEX
5
9f0
100
AcDbEntity
8
0-1
6
CONTINUOUS
62
  7
100
AcDbVertex
100
AcDb2dVertex
10
659.999999999999
20
100.384732410218
30
0.0
0
VERTEX
5
9f1
100
AcDbEntity
8
0-1
6
CONTINUOUS
62
  7
100
AcDbVertex
100
AcDb2dVertex
10
657.845299482345
20
100.384732410218
30
0.0
0
VERTEX
5
9f2
100
AcDbEntity
8
0-1
6
CONTINUOUS
62
  7
100
AcDbVertex
100
AcDb2dVertex
10
656.690598964691
20
102.384732410218
30
0.0
0
VERTEX
5
9f3
100
AcDbEntity
8
0-1
6
CONTINUOUS
62
  7
100
AcDbVertex
100
AcDb2dVertex
10
657.845299482345
20
104.384732410218
30
0.0
0
SEQEND
5
9f4
100
AcDbEntity
8
0-1
0
LINE
5
9f5
100
AcDbEntity
8
0-1
6
CENTER
62
4
100
AcDbLine
10
656.400000000000
20
102.384732410218
30
0.0
11
661.600000000000
21
102.384732410218
31
0.0
0
LINE
5
9f6
100
AcDbEntity
8
0-1
6
CENTER
62
4
100
AcDbLine
10
671.000000000000
20
100.384732410218
30
0.0
11
689.000000000000
21
100.384732410218
31
0.0
0
POLYLINE
5
9f7
100
AcDbEntity
8
0-0
6
CONTINUOUS
62
  7
100
AcDb2dPolyline
66
1
10
0.0
20
0.0
30
0.0
70
0
0
VERTEX
5
9f8
100
AcDbEntity
8
0-0
6
CONTINUOUS
62
  7
100
AcDbVertex
100
AcDb2dVertex
10
699.973647660749
20
99.358380070967
30
0.0
0
VERTEX
5
9f9
100
AcDbEntity
8
0-0
6
CONTINUOUS
62
  7
100
AcDbVertex
100
AcDb2dVertex
10
703.000000000000
20
102.384732410218
30
0.0
0
VERTEX
5
9fa
100
AcDbEntity
8
0-0
6
CONTINUOUS
62
  7
100
AcDbVertex
100
AcDb2dVertex
10
703.000000000000
20
125.384732410218
30
0.0
0
VERTEX
5
9fb
100
AcDbEntity
8
0-0
6
CONTINUOUS
62
  7
100
AcDbVertex
100
AcDb2dVertex
10
701.000000000000
20
127.384732410218
30
0.0
0
SEQEND
5
9fc
100
AcDbEntity
8
0-0
0
POLYLINE
5
9fd
100
AcDbEntity
8
0-1
6
CONTINUOUS
62
  7
100
AcDb2dPolyline
66
1
10
0.0
20
0.0
30
0.0
70
0
0
VERTEX
5
9fe
100
AcDbEntity
8
0-1
6
CONTINUOUS
62
  7
100
AcDbVertex
100
AcDb2dVertex
10
660.154700517654
20
84.384732410218
30
0.0
0
VERTEX
5
9ff
100
AcDbEntity
8
0-1
6
CONTINUOUS
62
  7
100
AcDbVertex
100
AcDb2dVertex
10
657.845299482345
20
84.384732410218
30
0.0
0
VERTEX
5
a00
100
AcDbEntity
8
0-1
6
CONTINUOUS
62
  7
100
AcDbVertex
100
AcDb2dVertex
10
656.690598964691
20
82.384732410218
30
0.0
0
VERTEX
5
a01
100
AcDbEntity
8
0-1
6
CONTINUOUS
62
  7
100
AcDbVertex
100
AcDb2dVertex
10
657.845299482345
20
80.384732410218
30
0.0
0
VERTEX
5
a02
100
AcDbEntity
8
0-1
6
CONTINUOUS
62
  7
100
AcDbVertex
100
AcDb2dVertex
10
660.154700517654
20
80.384732410218
30
0.0
0
VERTEX
5
a03
100
AcDbEntity
8
0-1
6
CONTINUOUS
62
  7
100
AcDbVertex
100
AcDb2dVertex
10
661.309401035309
20
82.384732410218
30
0.0
0
VERTEX
5
a04
100
AcDbEntity
8
0-1
6
CONTINUOUS
62
  7
100
AcDbVertex
100
AcDb2dVertex
10
660.154700517654
20
84.384732410218
30
0.0
0
SEQEND
5
a05
100
AcDbEntity
8
0-1
0
LINE
5
a06
100
AcDbEntity
8
0-1
6
CENTER
62
4
100
AcDbLine
10
659.000000000000
20
84.984732410218
30
0.0
11
659.000000000000
21
79.784732410219
31
0.0
0
LINE
5
a07
100
AcDbEntity
8
0-1
6
CENTER
62
4
100
AcDbLine
10
661.600000000000
20
82.384732410218
30
0.0
11
656.400000000000
21
82.384732410218
31
0.0
0
CIRCLE
5
a08
100
AcDbEntity
8
0-0
6
CONTINUOUS
62
7
100
AcDbCircle
10
680.000000000000
20
100.384732410218
30
0.0
40
5.050000000000
0
CIRCLE
5
a09
100
AcDbEntity
8
0-0
6
CONTINUOUS
62
7
100
AcDbCircle
10
680.000000000000
20
100.384732410218
30
0.0
40
8.000000000000
0
CIRCLE
5
a0a
100
AcDbEntity
8
0-1
6
CONTINUOUS
62
4
100
AcDbCircle
10
680.000000000000
20
100.384732410218
30
0.0
40
6.000000000000
0
CIRCLE
5
a0b
100
AcDbEntity
8
0-0
6
CONTINUOUS
62
7
100
AcDbCircle
10
680.000000000000
20
100.384732410218
30
0.0
40
20.000000000000
0
CIRCLE
5
a0c
100
AcDbEntity
8
0-0
6
CONTINUOUS
62
7
100
AcDbCircle
10
680.000000000000
20
100.384732410218
30
0.0
40
19.400000000000
0
CIRCLE
5
a0d
100
AcDbEntity
8
0-0
6
CONTINUOUS
62
7
100
AcDbCircle
10
680.000000000000
20
100.384732410218
30
0.0
40
18.000000000000
0
CIRCLE
5
a0e
100
AcDbEntity
8
0-1
6
CONTINUOUS
62
7
100
AcDbCircle
10
698.000000000000
20
121.384732410218
30
0.0
40
4.250000000000
0
CIRCLE
5
a0f
100
AcDbEntity
8
0-1
6
CONTINUOUS
62
7
100
AcDbCircle
10
659.000000000000
20
82.384732410218
30
0.0
40
4.250000000000
0
ARC
5
a10
100
AcDbEntity
8
0-1
6
CONTINUOUS
62
7
100
AcDbCircle
10
678.000000000000
20
121.384732410218
30
0.0
40
4.250000000000
100
AcDbArc
50
344.849007765769
51
566.031656296242
0
ARC
5
a11
100
AcDbEntity
8
0-1
6
CONTINUOUS
62
7
100
AcDbCircle
10
659.000000000000
20
102.384732410218
30
0.0
40
4.250000000000
100
AcDbArc
50
63.968343703758
51
285.150992234231
0
POLYLINE
5
a12
100
AcDbEntity
8
0-1
6
CONTINUOUS
62
  7
100
AcDb2dPolyline
66
1
10
0.0
20
0.0
30
0.0
70
0
0
VERTEX
5
a13
100
AcDbEntity
8
0-1
6
CONTINUOUS
62
  7
100
AcDbVertex
100
AcDb2dVertex
10
675.849999904632
20
270.408641595495
30
0.0
0
VERTEX
5
a14
100
AcDbEntity
8
0-1
6
CONTINUOUS
62
  7
100
AcDbVertex
100
AcDb2dVertex
10
675.849999904632
20
270.808641404761
30
0.0
0
VERTEX
5
a15
100
AcDbEntity
8
0-1
6
CONTINUOUS
62
  7
100
AcDbVertex
100
AcDb2dVertex
10
680.150000095367
20
270.808641404761
30
0.0
0
VERTEX
5
a16
100
AcDbEntity
8
0-1
6
CONTINUOUS
62
  7
100
AcDbVertex
100
AcDb2dVertex
10
680.500000000000
20
270.458641023291
30
0.0
0
VERTEX
5
a17
100
AcDbEntity
8
0-1
6
CONTINUOUS
62
  7
100
AcDbVertex
100
AcDb2dVertex
10
675.500000000000
20
270.458641023291
30
0.0
0
VERTEX
5
a18
100
AcDbEntity
8
0-1
6
CONTINUOUS
62
  7
100
AcDbVertex
100
AcDb2dVertex
10
675.849999904632
20
270.808641404761
30
0.0
0
SEQEND
5
a19
100
AcDbEntity
8
0-1
0
LINE
5
a1a
100
AcDbEntity
8
0-1
6
CONTINUOUS
62
7
100
AcDbLine
10
675.500000000000
20
270.458641023291
30
0.0
11
675.500000000000
21
270.408641595495
31
0.0
0
LINE
5
a1b
100
AcDbEntity
8
0-1
6
CENTER
62
4
100
AcDbLine
10
678.000000000000
20
272.709735466764
30
0.0
11
678.000000000000
21
253.405573018284
31
0.0
0
LINE
5
a1c
100
AcDbEntity
8
0-1
6
CONTINUOUS
62
7
100
AcDbLine
10
676.785714268684
20
256.308641404761
30
0.0
11
676.785714268684
21
260.808641404761
31
0.0
0
LINE
5
a1d
100
AcDbEntity
8
0-1
6
CONTINUOUS
62
7
100
AcDbLine
10
676.178571462631
20
260.808641404761
30
0.0
11
676.178571462631
21
256.308641404761
31
0.0
0
LINE
5
a1e
100
AcDbEntity
8
0-1
6
CONTINUOUS
62
7
100
AcDbLine
10
675.571428537369
20
256.308641404761
30
0.0
11
675.571428537369
21
260.808641404761
31
0.0
0
LINE
5
a1f
100
AcDbEntity
8
0-1
6
CONTINUOUS
62
7
100
AcDbLine
10
674.964285612106
20
260.808641404761
30
0.0
11
674.964285612106
21
256.308641404761
31
0.0
0
LINE
5
a20
100
AcDbEntity
8
0-1
6
CONTINUOUS
62
7
100
AcDbLine
10
674.357142925262
20
256.308641404761
30
0.0
11
674.357142925262
21
260.808641404761
31
0.0
0
LINE
5
a21
100
AcDbEntity
8
0-1
6
CONTINUOUS
62
7
100
AcDbLine
10
673.750000000000
20
260.808641404761
30
0.0
11
682.250000000000
21
260.808641404761
31
0.0
0
POLYLINE
5
a22
100
AcDbEntity
8
0-1
6
CONTINUOUS
62
  7
100
AcDb2dPolyline
66
1
10
0.0
20
0.0
30
0.0
70
0
0
VERTEX
5
a23
100
AcDbEntity
8
0-1
6
CONTINUOUS
62
  7
100
AcDbVertex
100
AcDb2dVertex
10
682.250000000000
20
262.108641595496
30
0.0
0
VERTEX
5
a24
100
AcDbEntity
8
0-1
6
CONTINUOUS
62
  7
100
AcDbVertex
100
AcDb2dVertex
10
682.250000000000
20
256.308641404761
30
0.0
0
VERTEX
5
a25
100
AcDbEntity
8
0-1
6
CONTINUOUS
62
  7
100
AcDbVertex
100
AcDb2dVertex
10
681.750000000000
20
255.808641404761
30
0.0
0
VERTEX
5
a26
100
AcDbEntity
8
0-1
6
CONTINUOUS
62
  7
100
AcDbVertex
100
AcDb2dVertex
10
674.250000000000
20
255.808641404761
30
0.0
0
VERTEX
5
a27
100
AcDbEntity
8
0-1
6
CONTINUOUS
62
  7
100
AcDbVertex
100
AcDb2dVertex
10
673.750000000000
20
256.308641404761
30
0.0
0
VERTEX
5
a28
100
AcDbEntity
8
0-1
6
CONTINUOUS
62
  7
100
AcDbVertex
100
AcDb2dVertex
10
682.250000000000
20
256.308641404761
30
0.0
0
SEQEND
5
a29
100
AcDbEntity
8
0-1
0
POLYLINE
5
a2a
100
AcDbEntity
8
0-0
6
CONTINUOUS
62
  7
100
AcDb2dPolyline
66
1
10
0.0
20
0.0
30
0.0
70
0
0
VERTEX
5
a2b
100
AcDbEntity
8
0-0
6
CONTINUOUS
62
  7
100
AcDbVertex
100
AcDb2dVertex
10
672.000000000000
20
245.308641595495
30
0.0
0
VERTEX
5
a2c
100
AcDbEntity
8
0-0
6
CONTINUOUS
62
  7
100
AcDbVertex
100
AcDb2dVertex
10
688.000000000000
20
245.308641595495
30
0.0
0
VERTEX
5
a2d
100
AcDbEntity
8
0-0
6
CONTINUOUS
62
  7
100
AcDbVertex
100
AcDb2dVertex
10
689.000000000000
20
246.308641595495
30
0.0
0
VERTEX
5
a2e
100
AcDbEntity
8
0-0
6
CONTINUOUS
62
  7
100
AcDbVertex
100
AcDb2dVertex
10
689.000000000000
20
262.108641595496
30
0.0
0
SEQEND
5
a2f
100
AcDbEntity
8
0-0
0
POLYLINE
5
a30
100
AcDbEntity
8
0-1
6
CONTINUOUS
62
  7
100
AcDb2dPolyline
66
1
10
0.0
20
0.0
30
0.0
70
0
0
VERTEX
5
a31
100
AcDbEntity
8
0-1
6
CONTINUOUS
62
  7
100
AcDbVertex
100
AcDb2dVertex
10
693.750000000000
20
262.108641595496
30
0.0
0
VERTEX
5
a32
100
AcDbEntity
8
0-1
6
CONTINUOUS
62
  7
100
AcDbVertex
100
AcDb2dVertex
10
693.750000000000
20
256.308641404761
30
0.0
0
VERTEX
5
a33
100
AcDbEntity
8
0-1
6
CONTINUOUS
62
  7
100
AcDbVertex
100
AcDb2dVertex
10
694.250000000000
20
255.808641404761
30
0.0
0
VERTEX
5
a34
100
AcDbEntity
8
0-1
6
CONTINUOUS
62
  7
100
AcDbVertex
100
AcDb2dVertex
10
701.750000000000
20
255.808641404761
30
0.0
0
VERTEX
5
a35
100
AcDbEntity
8
0-1
6
CONTINUOUS
62
  7
100
AcDbVertex
100
AcDb2dVertex
10
702.250000000000
20
256.308641404761
30
0.0
0
VERTEX
5
a36
100
AcDbEntity
8
0-1
6
CONTINUOUS
62
  7
100
AcDbVertex
100
AcDb2dVertex
10
693.750000000000
20
256.308641404761
30
0.0
0
SEQEND
5
a37
100
AcDbEntity
8
0-1
0
LINE
5
a38
100
AcDbEntity
8
0-1
6
CONTINUOUS
62
7
100
AcDbLine
10
694.357142925262
20
256.308641404761
30
0.0
11
694.357142925262
21
260.808641404761
31
0.0
0
LINE
5
a39
100
AcDbEntity
8
0-1
6
CONTINUOUS
62
7
100
AcDbLine
10
694.964285612106
20
260.808641404761
30
0.0
11
694.964285612106
21
256.308641404761
31
0.0
0
LINE
5
a3a
100
AcDbEntity
8
0-1
6
CONTINUOUS
62
7
100
AcDbLine
10
695.571428537369
20
256.308641404761
30
0.0
11
695.571428537369
21
260.808641404761
31
0.0
0
LINE
5
a3b
100
AcDbEntity
8
0-1
6
CONTINUOUS
62
7
100
AcDbLine
10
696.178571462631
20
260.808641404761
30
0.0
11
696.178571462631
21
256.308641404761
31
0.0
0
LINE
5
a3c
100
AcDbEntity
8
0-1
6
CONTINUOUS
62
7
100
AcDbLine
10
696.785714268684
20
256.308641404761
30
0.0
11
696.785714268684
21
260.808641404761
31
0.0
0
LINE
5
a3d
100
AcDbEntity
8
0-1
6
CONTINUOUS
62
7
100
AcDbLine
10
698.375277668238
20
260.808641404761
30
0.0
11
697.624722331762
21
262.108641595496
31
0.0
0
LINE
5
a3e
100
AcDbEntity
8
0-0
6
CONTINUOUS
62
7
100
AcDbLine
10
701.000000000000
20
262.108641595496
30
0.0
11
701.000000000000
21
265.308641595495
31
0.0
0
LINE
5
a3f
100
AcDbEntity
8
0-1
6
CONTINUOUS
62
7
100
AcDbLine
10
700.500000000000
20
265.308641595495
30
0.0
11
700.500000000000
21
265.908641595495
31
0.0
0
LINE
5
a40
100
AcDbEntity
8
0-1
6
CONTINUOUS
62
7
100
AcDbLine
10
700.150000095367
20
265.908641595495
30
0.0
11
700.150000095367
21
265.308641595495
31
0.0
0
POLYLINE
5
a41
100
AcDbEntity
8
0-0
6
CONTINUOUS
62
  7
100
AcDb2dPolyline
66
1
10
0.0
20
0.0
30
0.0
70
0
0
VERTEX
5
a42
100
AcDbEntity
8
0-0
6
CONTINUOUS
62
  7
100
AcDbVertex
100
AcDb2dVertex
10
703.000000000000
20
265.308641595495
30
0.0
0
VERTEX
5
a43
100
AcDbEntity
8
0-0
6
CONTINUOUS
62
  7
100
AcDbVertex
100
AcDb2dVertex
10
703.000000000000
20
262.108641595496
30
0.0
0
VERTEX
5
a44
100
AcDbEntity
8
0-0
6
CONTINUOUS
62
  7
100
AcDbVertex
100
AcDb2dVertex
10
653.000000000000
20
262.108641595496
30
0.0
0
VERTEX
5
a45
100
AcDbEntity
8
0-0
6
CONTINUOUS
62
  7
100
AcDbVertex
100
AcDb2dVertex
10
653.000000000000
20
265.308641595495
30
0.0
0
VERTEX
5
a46
100
AcDbEntity
8
0-0
6
CONTINUOUS
62
  7
100
AcDbVertex
100
AcDb2dVertex
10
703.000000000000
20
265.308641595495
30
0.0
0
SEQEND
5
a47
100
AcDbEntity
8
0-0
0
POLYLINE
5
a48
100
AcDbEntity
8
0-1
6
CONTINUOUS
62
  7
100
AcDb2dPolyline
66
1
10
0.0
20
0.0
30
0.0
70
0
0
VERTEX
5
a49
100
AcDbEntity
8
0-1
6
CONTINUOUS
62
  7
100
AcDbVertex
100
AcDb2dVertex
10
703.000000000000
20
265.908641595495
30
0.0
0
VERTEX
5
a4a
100
AcDbEntity
8
0-1
6
CONTINUOUS
62
  7
100
AcDbVertex
100
AcDb2dVertex
10
703.000000000000
20
270.408641595495
30
0.0
0
VERTEX
5
a4b
100
AcDbEntity
8
0-1
6
CONTINUOUS
62
  7
100
AcDbVertex
100
AcDb2dVertex
10
673.000000000000
20
270.408641595495
30
0.0
0
VERTEX
5
a4c
100
AcDbEntity
8
0-1
6
CONTINUOUS
62
  7
100
AcDbVertex
100
AcDb2dVertex
10
673.000000000000
20
265.908641595495
30
0.0
0
VERTEX
5
a4d
100
AcDbEntity
8
0-1
6
CONTINUOUS
62
  7
100
AcDbVertex
100
AcDb2dVertex
10
703.000000000000
20
265.908641595495
30
0.0
0
SEQEND
5
a4e
100
AcDbEntity
8
0-1
0
LINE
5
a4f
100
AcDbEntity
8
0-1
6
CONTINUOUS
62
7
100
AcDbLine
10
703.000000000000
20
267.108641595495
30
0.0
11
673.000000000000
21
267.108641595495
31
0.0
0
LINE
5
a50
100
AcDbEntity
8
0-1
6
CONTINUOUS
62
7
100
AcDbLine
10
675.500000000000
20
265.908641595495
30
0.0
11
675.500000000000
21
265.308641595495
31
0.0
0
LINE
5
a51
100
AcDbEntity
8
0-1
6
CONTINUOUS
62
7
100
AcDbLine
10
675.849999904632
20
265.308641595495
30
0.0
11
675.849999904632
21
265.908641595495
31
0.0
0
LINE
5
a52
100
AcDbEntity
8
0-1
6
CONTINUOUS
62
7
100
AcDbLine
10
680.150000095367
20
265.908641595495
30
0.0
11
680.150000095367
21
265.308641595495
31
0.0
0
LINE
5
a53
100
AcDbEntity
8
0-1
6
CONTINUOUS
62
7
100
AcDbLine
10
680.500000000000
20
265.308641595495
30
0.0
11
680.500000000000
21
265.908641595495
31
0.0
0
LINE
5
a54
100
AcDbEntity
8
0-1
6
CONTINUOUS
62
7
100
AcDbLine
10
680.500000000000
20
270.408641595495
30
0.0
11
680.500000000000
21
270.458641023291
31
0.0
0
LINE
5
a55
100
AcDbEntity
8
0-1
6
CONTINUOUS
62
7
100
AcDbLine
10
680.150000095367
20
270.408641595495
30
0.0
11
680.150000095367
21
270.808641404761
31
0.0
0
LINE
5
a56
100
AcDbEntity
8
0-1
6
CONTINUOUS
62
7
100
AcDbLine
10
677.624722331762
20
262.108641595496
30
0.0
11
678.375277668238
21
260.808641404761
31
0.0
0
LINE
5
a57
100
AcDbEntity
8
0-1
6
CONTINUOUS
62
7
100
AcDbLine
10
673.750000000000
20
262.108641595496
30
0.0
11
673.750000000000
21
256.308641404761
31
0.0
0
POLYLINE
5
a58
100
AcDbEntity
8
0-0
6
CONTINUOUS
62
  7
100
AcDb2dPolyline
66
1
10
0.0
20
0.0
30
0.0
70
0
0
VERTEX
5
a59
100
AcDbEntity
8
0-0
6
CONTINUOUS
62
  7
100
AcDbVertex
100
AcDb2dVertex
10
671.000000000000
20
262.108641595496
30
0.0
0
VERTEX
5
a5a
100
AcDbEntity
8
0-0
6
CONTINUOUS
62
  7
100
AcDbVertex
100
AcDb2dVertex
10
671.000000000000
20
246.308641595495
30
0.0
0
VERTEX
5
a5b
100
AcDbEntity
8
0-0
6
CONTINUOUS
62
  7
100
AcDbVertex
100
AcDb2dVertex
10
672.000000000000
20
245.308641595495
30
0.0
0
SEQEND
5
a5c
100
AcDbEntity
8
0-0
0
LINE
5
a5d
100
AcDbEntity
8
0-0
6
CONTINUOUS
62
7
100
AcDbLine
10
689.000000000000
20
246.308641595495
30
0.0
11
671.000000000000
21
246.308641595495
31
0.0
0
LINE
5
a5e
100
AcDbEntity
8
0-1
6
CENTER
62
4
100
AcDbLine
10
698.000000000000
20
253.405573018284
30
0.0
11
698.000000000000
21
272.709735466764
31
0.0
0
POLYLINE
5
a5f
100
AcDbEntity
8
0-1
6
CONTINUOUS
62
  7
100
AcDb2dPolyline
66
1
10
0.0
20
0.0
30
0.0
70
0
0
VERTEX
5
a60
100
AcDbEntity
8
0-1
6
CONTINUOUS
62
  7
100
AcDbVertex
100
AcDb2dVertex
10
695.849999904632
20
270.808641404761
30
0.0
0
VERTEX
5
a61
100
AcDbEntity
8
0-1
6
CONTINUOUS
62
  7
100
AcDbVertex
100
AcDb2dVertex
10
700.150000095367
20
270.808641404761
30
0.0
0
VERTEX
5
a62
100
AcDbEntity
8
0-1
6
CONTINUOUS
62
  7
100
AcDbVertex
100
AcDb2dVertex
10
700.500000000000
20
270.458641023291
30
0.0
0
VERTEX
5
a63
100
AcDbEntity
8
0-1
6
CONTINUOUS
62
  7
100
AcDbVertex
100
AcDb2dVertex
10
695.500000000000
20
270.458641023291
30
0.0
0
VERTEX
5
a64
100
AcDbEntity
8
0-1
6
CONTINUOUS
62
  7
100
AcDbVertex
100
AcDb2dVertex
10
695.849999904632
20
270.808641404761
30
0.0
0
VERTEX
5
a65
100
AcDbEntity
8
0-1
6
CONTINUOUS
62
  7
100
AcDbVertex
100
AcDb2dVertex
10
695.849999904632
20
270.408641595495
30
0.0
0
SEQEND
5
a66
100
AcDbEntity
8
0-1
0
LINE
5
a67
100
AcDbEntity
8
0-1
6
CONTINUOUS
62
7
100
AcDbLine
10
695.500000000000
20
270.408641595495
30
0.0
11
695.500000000000
21
270.458641023291
31
0.0
0
LINE
5
a68
100
AcDbEntity
8
0-1
6
CONTINUOUS
62
7
100
AcDbLine
10
695.500000000000
20
265.908641595495
30
0.0
11
695.500000000000
21
265.308641595495
31
0.0
0
LINE
5
a69
100
AcDbEntity
8
0-1
6
CONTINUOUS
62
7
100
AcDbLine
10
695.849999904632
20
265.308641595495
30
0.0
11
695.849999904632
21
265.908641595495
31
0.0
0
LINE
5
a6a
100
AcDbEntity
8
0-1
6
CONTINUOUS
62
7
100
AcDbLine
10
693.750000000000
20
260.808641404761
30
0.0
11
702.250000000000
21
260.808641404761
31
0.0
0
LINE
5
a6b
100
AcDbEntity
8
0-1
6
CONTINUOUS
62
7
100
AcDbLine
10
702.250000000000
20
262.108641595496
30
0.0
11
702.250000000000
21
256.308641404761
31
0.0
0
LINE
5
a6c
100
AcDbEntity
8
0-1
6
CONTINUOUS
62
7
100
AcDbLine
10
700.500000000000
20
270.408641595495
30
0.0
11
700.500000000000
21
270.458641023291
31
0.0
0
LINE
5
a6d
100
AcDbEntity
8
0-1
6
CONTINUOUS
62
7
100
AcDbLine
10
700.150000095367
20
270.408641595495
30
0.0
11
700.150000095367
21
270.808641404761
31
0.0
0
LINE
5
a6e
100
AcDbEntity
8
0-1
6
CONTINUOUS
62
7
100
AcDbLine
10
662.155051000000
20
269.970041595496
30
0.0
11
661.281387000000
21
270.288031595495
31
0.0
0
POLYLINE
5
a6f
100
AcDbEntity
8
0-1
6
CONTINUOUS
62
  7
100
AcDb2dPolyline
66
1
10
0.0
20
0.0
30
0.0
70
0
0
VERTEX
5
a70
100
AcDbEntity
8
0-1
6
CONTINUOUS
62
  7
100
AcDbVertex
100
AcDb2dVertex
10
661.150000095367
20
270.330769207331
30
0.0
0
VERTEX
5
a71
100
AcDbEntity
8
0-1
6
CONTINUOUS
62
  7
100
AcDbVertex
100
AcDb2dVertex
10
661.150000095367
20
270.808641404761
30
0.0
0
VERTEX
5
a72
100
AcDbEntity
8
0-1
6
CONTINUOUS
62
  7
100
AcDbVertex
100
AcDb2dVertex
10
656.849999904632
20
270.808641404761
30
0.0
0
VERTEX
5
a73
100
AcDbEntity
8
0-1
6
CONTINUOUS
62
  7
100
AcDbVertex
100
AcDb2dVertex
10
656.500000000000
20
270.458641023291
30
0.0
0
VERTEX
5
a74
100
AcDbEntity
8
0-1
6
CONTINUOUS
62
  7
100
AcDbVertex
100
AcDb2dVertex
10
661.500000000000
20
270.458641023291
30
0.0
0
VERTEX
5
a75
100
AcDbEntity
8
0-1
6
CONTINUOUS
62
  7
100
AcDbVertex
100
AcDb2dVertex
10
661.150000095367
20
270.808641404761
30
0.0
0
SEQEND
5
a76
100
AcDbEntity
8
0-1
0
LINE
5
a77
100
AcDbEntity
8
0-1
6
CONTINUOUS
62
7
100
AcDbLine
10
661.500000000000
20
270.458641023291
30
0.0
11
661.500000000000
21
270.208462392839
31
0.0
0
LINE
5
a78
100
AcDbEntity
8
0-1
6
CONTINUOUS
62
7
100
AcDbLine
10
660.597347000000
20
270.408641595495
30
0.0
11
657.402654000000
21
270.408641595495
31
0.0
0
LINE
5
a79
100
AcDbEntity
8
0-1
6
CONTINUOUS
62
7
100
AcDbLine
10
656.849999904632
20
270.330768919809
30
0.0
11
656.849999904632
21
270.808641404761
31
0.0
0
LINE
5
a7a
100
AcDbEntity
8
0-1
6
CONTINUOUS
62
7
100
AcDbLine
10
656.718614000000
20
270.288031595495
30
0.0
11
655.844950000000
21
269.970041595496
31
0.0
0
LINE
5
a7b
100
AcDbEntity
8
0-1
6
CONTINUOUS
62
7
100
AcDbLine
10
656.500000000000
20
270.208462028866
30
0.0
11
656.500000000000
21
270.458641023291
31
0.0
0
LINE
5
a7c
100
AcDbEntity
8
0-1
6
CONTINUOUS
62
7
100
AcDbLine
10
655.428463093208
20
267.108641595495
30
0.0
11
654.253025972533
21
267.108641595495
31
0.0
0
POLYLINE
5
a7d
100
AcDbEntity
8
0-1
6
CONTINUOUS
62
  7
100
AcDb2dPolyline
66
1
10
0.0
20
0.0
30
0.0
70
0
0
VERTEX
5
a7e
100
AcDbEntity
8
0-1
6
CONTINUOUS
62
  7
100
AcDbVertex
100
AcDb2dVertex
10
655.428463093208
20
267.108641595495
30
0.0
0
VERTEX
5
a7f
100
AcDbEntity
8
0-1
6
CONTINUOUS
62
  7
100
AcDbVertex
100
AcDb2dVertex
10
655.749998906792
20
265.908641595495
30
0.0
0
VERTEX
5
a80
100
AcDbEntity
8
0-1
6
CONTINUOUS
62
  7
100
AcDbVertex
100
AcDb2dVertex
10
662.250002093208
20
265.908641595495
30
0.0
0
VERTEX
5
a81
100
AcDbEntity
8
0-1
6
CONTINUOUS
62
  7
100
AcDbVertex
100
AcDb2dVertex
10
662.571537906792
20
267.108641595495
30
0.0
0
VERTEX
5
a82
100
AcDbEntity
8
0-1
6
CONTINUOUS
62
  7
100
AcDbVertex
100
AcDb2dVertex
10
663.746974027467
20
267.108641595495
30
0.0
0
SEQEND
5
a83
100
AcDbEntity
8
0-1
0
LINE
5
a84
100
AcDbEntity
8
0-1
6
CONTINUOUS
62
7
100
AcDbLine
10
661.500000000000
20
265.908641595495
30
0.0
11
661.500000000000
21
265.308641595495
31
0.0
0
LINE
5
a85
100
AcDbEntity
8
0-1
6
CONTINUOUS
62
7
100
AcDbLine
10
661.150000095367
20
265.308641595495
30
0.0
11
661.150000095367
21
265.908641595495
31
0.0
0
LINE
5
a86
100
AcDbEntity
8
0-1
6
CONTINUOUS
62
7
100
AcDbLine
10
656.849999904632
20
265.908641595495
30
0.0
11
656.849999904632
21
265.308641595495
31
0.0
0
LINE
5
a87
100
AcDbEntity
8
0-1
6
CONTINUOUS
62
7
100
AcDbLine
10
656.500000000000
20
265.308641595495
30
0.0
11
656.500000000000
21
265.908641595495
31
0.0
0
LINE
5
a88
100
AcDbEntity
8
0-0
6
CONTINUOUS
62
7
100
AcDbLine
10
655.000000000000
20
265.308641595495
30
0.0
11
655.000000000000
21
262.108641595496
31
0.0
0
POLYLINE
5
a89
100
AcDbEntity
8
0-1
6
CONTINUOUS
62
  7
100
AcDb2dPolyline
66
1
10
0.0
20
0.0
30
0.0
70
0
0
VERTEX
5
a8a
100
AcDbEntity
8
0-1
6
CONTINUOUS
62
  7
100
AcDbVertex
100
AcDb2dVertex
10
654.750000000000
20
262.108641595496
30
0.0
0
VERTEX
5
a8b
100
AcDbEntity
8
0-1
6
CONTINUOUS
62
  7
100
AcDbVertex
100
AcDb2dVertex
10
654.750000000000
20
256.308641404761
30
0.0
0
VERTEX
5
a8c
100
AcDbEntity
8
0-1
6
CONTINUOUS
62
  7
100
AcDbVertex
100
AcDb2dVertex
10
655.250000000000
20
255.808641404761
30
0.0
0
VERTEX
5
a8d
100
AcDbEntity
8
0-1
6
CONTINUOUS
62
  7
100
AcDbVertex
100
AcDb2dVertex
10
662.750000000000
20
255.808641404761
30
0.0
0
VERTEX
5
a8e
100
AcDbEntity
8
0-1
6
CONTINUOUS
62
  7
100
AcDbVertex
100
AcDb2dVertex
10
663.250000000000
20
256.308641404761
30
0.0
0
VERTEX
5
a8f
100
AcDbEntity
8
0-1
6
CONTINUOUS
62
  7
100
AcDbVertex
100
AcDb2dVertex
10
654.750000000000
20
256.308641404761
30
0.0
0
SEQEND
5
a90
100
AcDbEntity
8
0-1
0
LINE
5
a91
100
AcDbEntity
8
0-1
6
CONTINUOUS
62
7
100
AcDbLine
10
655.357142925262
20
256.308641404761
30
0.0
11
655.357142925262
21
260.808641404761
31
0.0
0
LINE
5
a92
100
AcDbEntity
8
0-1
6
CONTINUOUS
62
7
100
AcDbLine
10
655.964285612106
20
260.808641404761
30
0.0
11
655.964285612106
21
256.308641404761
31
0.0
0
LINE
5
a93
100
AcDbEntity
8
0-1
6
CONTINUOUS
62
7
100
AcDbLine
10
656.571428537369
20
256.308641404761
30
0.0
11
656.571428537369
21
260.808641404761
31
0.0
0
LINE
5
a94
100
AcDbEntity
8
0-1
6
CONTINUOUS
62
7
100
AcDbLine
10
657.178571462631
20
260.808641404761
30
0.0
11
657.178571462631
21
256.308641404761
31
0.0
0
LINE
5
a95
100
AcDbEntity
8
0-1
6
CONTINUOUS
62
7
100
AcDbLine
10
657.785714268684
20
256.308641404761
30
0.0
11
657.785714268684
21
260.808641404761
31
0.0
0
LINE
5
a96
100
AcDbEntity
8
0-1
6
CONTINUOUS
62
7
100
AcDbLine
10
659.375277668238
20
260.808641404761
30
0.0
11
658.624722331762
21
262.108641595496
31
0.0
0
LINE
5
a97
100
AcDbEntity
8
0-1
6
CONTINUOUS
62
7
100
AcDbLine
10
663.250000000000
20
262.108641595496
30
0.0
11
663.250000000000
21
256.308641404761
31
0.0
0
LINE
5
a98
100
AcDbEntity
8
0-1
6
CONTINUOUS
62
7
100
AcDbLine
10
663.250000000000
20
260.808641404761
30
0.0
11
654.750000000000
21
260.808641404761
31
0.0
0
LINE
5
a99
100
AcDbEntity
8
0-1
6
CENTER
62
4
100
AcDbLine
10
659.000000000000
20
253.405573018284
30
0.0
11
659.000000000000
21
272.709735466764
31
0.0
0
ARC
5
a9a
100
AcDbEntity
8
0-1
6
CONTINUOUS
62
7
100
AcDbCircle
10
660.597347000000
20
268.408641595495
30
0.0
40
2.000000000000
100
AcDbArc
50
70.000000000000
51
90.000000000000
0
ARC
5
a9b
100
AcDbEntity
8
0-1
6
CONTINUOUS
62
7
100
AcDbCircle
10
657.402654000000
20
268.408641595495
30
0.0
40
2.000000000000
100
AcDbArc
50
90.000000000000
51
110.000000000000
0
ARC
5
a9c
100
AcDbEntity
8
0-1
6
CONTINUOUS
62
7
100
AcDbCircle
10
661.300000000000
20
267.620811595495
30
0.0
40
2.500000000000
100
AcDbArc
50
348.178227994579
51
430.000000000000
0
ARC
5
a9d
100
AcDbEntity
8
0-1
6
CONTINUOUS
62
7
100
AcDbCircle
10
656.700000000000
20
267.620811595495
30
0.0
40
2.500000000000
100
AcDbArc
50
110.000000000000
51
191.821772005421
0
POLYLINE
5
a9e
100
AcDbEntity
8
0-9
6
PHANTOM
62
  4
100
AcDb2dPolyline
66
1
10
0.0
20
0.0
30
0.0
70
0
0
VERTEX
5
a9f
100
AcDbEntity
8
0-9
6
PHANTOM
62
  4
100
AcDbVertex
100
AcDb2dVertex
10
676.000000000000
20
318.908641595496
30
0.0
0
VERTEX
5
aa0
100
AcDbEntity
8
0-9
6
PHANTOM
62
  4
100
AcDbVertex
100
AcDb2dVertex
10
684.000000000000
20
318.908641595496
30
0.0
0
VERTEX
5
aa1
100
AcDbEntity
8
0-9
6
PHANTOM
62
  4
100
AcDbVertex
100
AcDb2dVertex
10
685.000000000000
20
317.908641595495
30
0.0
0
SEQEND
5
aa2
100
AcDbEntity
8
0-9
0
LINE
5
aa3
100
AcDbEntity
8
0-9
6
PHANTOM
62
4
100
AcDbLine
10
675.000000000000
20
317.908641595495
30
0.0
11
676.000000000000
21
318.908641595496
31
0.0
0
LINE
5
aa4
100
AcDbEntity
8
0-9
6
PHANTOM
62
4
100
AcDbLine
10
675.000000000000
20
299.008641595496
30
0.0
11
675.000000000000
21
317.908641595495
31
0.0
0
LINE
5
aa5
100
AcDbEntity
8
0-9
6
PHANTOM
62
4
100
AcDbLine
10
685.000000000000
20
317.908641595495
30
0.0
11
685.000000000000
21
299.008641595496
31
0.0
0
LINE
5
aa6
100
AcDbEntity
8
0-9
6
PHANTOM
62
4
100
AcDbLine
10
667.999999999999
20
179.208641595495
30
0.0
11
667.999999999999
21
178.808641595495
31
0.0
0
LINE
5
aa7
100
AcDbEntity
8
0-9
6
PHANTOM
62
4
100
AcDbLine
10
692.000000000000
20
179.208641595495
30
0.0
11
692.000000000000
21
178.808641595495
31
0.0
0
LINE
5
aa8
100
AcDbEntity
8
0-9
6
PHANTOM
62
4
100
AcDbLine
10
700.000000000000
20
175.808641595495
30
0.0
11
700.000000000000
21
170.808641595495
31
0.0
0
LINE
5
aa9
100
AcDbEntity
8
0-9
6
PHANTOM
62
4
100
AcDbLine
10
660.000000000000
20
170.808641595495
30
0.0
11
660.000000000000
21
175.808641595495
31
0.0
0
LINE
5
aaa
100
AcDbEntity
8
0-9
6
PHANTOM
62
4
100
AcDbLine
10
660.599999999999
20
170.808641595495
30
0.0
11
660.599999999999
21
168.308641595495
31
0.0
0
LINE
5
aab
100
AcDbEntity
8
0-9
6
PHANTOM
62
4
100
AcDbLine
10
699.400000000000
20
168.308641595495
30
0.0
11
699.400000000000
21
170.808641595495
31
0.0
0
ARC
5
aac
100
AcDbEntity
8
0-9
6
PHANTOM
62
4
100
AcDbCircle
10
662.999999999999
20
175.808641595495
30
0.0
40
3.000000000000
100
AcDbArc
50
89.999999999999
51
180.000000000000
0
ARC
5
aad
100
AcDbEntity
8
0-9
6
PHANTOM
62
4
100
AcDbCircle
10
697.000000000000
20
175.808641595495
30
0.0
40
3.000000000000
100
AcDbArc
50
360.000000000000
51
450.000000000001
0
LINE
5
aae
100
AcDbEntity
8
0-9
6
PHANTOM
62
4
100
AcDbLine
10
688.450000000000
20
179.208641595495
30
0.0
11
692.000000000000
21
179.208641595495
31
0.0
0
LINE
5
aaf
100
AcDbEntity
8
0-9
6
PHANTOM
62
4
100
AcDbLine
10
697.000000000000
20
178.808641595495
30
0.0
11
692.000000000000
21
178.808641595495
31
0.0
0
LINE
5
ab0
100
AcDbEntity
8
0-9
6
PHANTOM
62
4
100
AcDbLine
10
667.999999999999
20
178.808641595495
30
0.0
11
663.000000000250
21
178.808641595495
31
0.0
0
LINE
5
ab1
100
AcDbEntity
8
0-9
6
PHANTOM
62
4
100
AcDbLine
10
700.000000000000
20
170.808641595495
30
0.0
11
699.400000000000
21
170.808641595495
31
0.0
0
LINE
5
ab2
100
AcDbEntity
8
0-9
6
PHANTOM
62
4
100
AcDbLine
10
660.599999999999
20
170.808641595495
30
0.0
11
660.000000000000
21
170.808641595495
31
0.0
0
LINE
5
ab3
100
AcDbEntity
8
0-9
6
PHANTOM
62
4
100
AcDbLine
10
660.599999999999
20
168.308641595495
30
0.0
11
662.000000000000
21
168.308641595495
31
0.0
0
LINE
5
ab4
100
AcDbEntity
8
0-9
6
PHANTOM
62
4
100
AcDbLine
10
697.999999999999
20
168.308641595495
30
0.0
11
699.400000000000
21
168.308641595495
31
0.0
0
LINE
5
ab5
100
AcDbEntity
8
0-9
6
PHANTOM
62
4
100
AcDbLine
10
667.999999999999
20
179.208641595495
30
0.0
11
671.550000000000
21
179.208641595495
31
0.0
0
LINE
5
ab6
100
AcDbEntity
8
0-1
6
CENTER
62
4
100
AcDbLine
10
680.000000000000
20
318.908641595496
30
0.0
11
680.000000000000
21
165.308641595495
31
0.0
0
LINE
5
ab7
100
AcDbEntity
8
0-1
6
CENTER
62
4
100
AcDbLine
10
656.400000000000
20
370.137972634915
30
0.0
11
661.600000000000
21
370.137972634915
31
0.0
0
LINE
5
ab8
100
AcDbEntity
8
0-1
6
CENTER
62
4
100
AcDbLine
10
659.000000000000
20
372.737972634915
30
0.0
11
659.000000000000
21
367.537972634915
31
0.0
0
LINE
5
ab9
100
AcDbEntity
8
0-1
6
CENTER
62
4
100
AcDbLine
10
671.000000000000
20
372.137972634915
30
0.0
11
689.000000000000
21
372.137972634915
31
0.0
0
POLYLINE
5
aba
100
AcDbEntity
8
0-0
6
CONTINUOUS
62
  7
100
AcDb2dPolyline
66
1
10
0.0
20
0.0
30
0.0
70
0
0
VERTEX
5
abb
100
AcDbEntity
8
0-0
6
CONTINUOUS
62
  7
100
AcDbVertex
100
AcDb2dVertex
10
703.000000000000
20
370.137972634915
30
0.0
0
VERTEX
5
abc
100
AcDbEntity
8
0-0
6
CONTINUOUS
62
  7
100
AcDbVertex
100
AcDb2dVertex
10
678.000000000000
20
395.137972634915
30
0.0
0
VERTEX
5
abd
100
AcDbEntity
8
0-0
6
CONTINUOUS
62
  7
100
AcDbVertex
100
AcDb2dVertex
10
655.000000000000
20
395.137972634915
30
0.0
0
VERTEX
5
abe
100
AcDbEntity
8
0-0
6
CONTINUOUS
62
  7
100
AcDbVertex
100
AcDb2dVertex
10
653.000000000000
20
393.137972634915
30
0.0
0
VERTEX
5
abf
100
AcDbEntity
8
0-0
6
CONTINUOUS
62
  7
100
AcDbVertex
100
AcDb2dVertex
10
653.000000000000
20
347.137972634915
30
0.0
0
VERTEX
5
ac0
100
AcDbEntity
8
0-0
6
CONTINUOUS
62
  7
100
AcDbVertex
100
AcDb2dVertex
10
655.000000000000
20
345.137972634915
30
0.0
0
VERTEX
5
ac1
100
AcDbEntity
8
0-0
6
CONTINUOUS
62
  7
100
AcDbVertex
100
AcDb2dVertex
10
701.000000000000
20
345.137972634915
30
0.0
0
VERTEX
5
ac2
100
AcDbEntity
8
0-0
6
CONTINUOUS
62
  7
100
AcDbVertex
100
AcDb2dVertex
10
703.000000000000
20
347.137972634915
30
0.0
0
VERTEX
5
ac3
100
AcDbEntity
8
0-0
6
CONTINUOUS
62
  7
100
AcDbVertex
100
AcDb2dVertex
10
703.000000000000
20
370.137972634915
30
0.0
0
SEQEND
5
ac4
100
AcDbEntity
8
0-0
0
LINE
5
ac5
100
AcDbEntity
8
0-1
6
CENTER
62
4
100
AcDbLine
10
717.794511052988
20
372.137972634915
30
0.0
11
737.794511052988
21
372.137972634915
31
0.0
0
POLYLINE
5
ac6
100
AcDbEntity
8
0-0
6
CONTINUOUS
62
  7
100
AcDb2dPolyline
66
1
10
0.0
20
0.0
30
0.0
70
0
0
VERTEX
5
ac7
100
AcDbEntity
8
0-0
6
CONTINUOUS
62
  7
100
AcDbVertex
100
AcDb2dVertex
10
737.794511052988
20
364.137972634915
30
0.0
0
VERTEX
5
ac8
100
AcDbEntity
8
0-0
6
CONTINUOUS
62
  7
100
AcDbVertex
100
AcDb2dVertex
10
736.794511052988
20
363.137972634915
30
0.0
0
VERTEX
5
ac9
100
AcDbEntity
8
0-0
6
CONTINUOUS
62
  7
100
AcDbVertex
100
AcDb2dVertex
10
720.994511052988
20
363.137972634915
30
0.0
0
SEQEND
5
aca
100
AcDbEntity
8
0-0
0
POLYLINE
5
acb
100
AcDbEntity
8
0-0
6
CONTINUOUS
62
  7
100
AcDb2dPolyline
66
1
10
0.0
20
0.0
30
0.0
70
0
0
VERTEX
5
acc
100
AcDbEntity
8
0-0
6
CONTINUOUS
62
  7
100
AcDbVertex
100
AcDb2dVertex
10
736.794511052988
20
363.137972634915
30
0.0
0
VERTEX
5
acd
100
AcDbEntity
8
0-0
6
CONTINUOUS
62
  7
100
AcDbVertex
100
AcDb2dVertex
10
736.794511052988
20
381.137972634915
30
0.0
0
VERTEX
5
ace
100
AcDbEntity
8
0-0
6
CONTINUOUS
62
  7
100
AcDbVertex
100
AcDb2dVertex
10
737.794511052988
20
380.137972634915
30
0.0
0
VERTEX
5
acf
100
AcDbEntity
8
0-0
6
CONTINUOUS
62
  7
100
AcDbVertex
100
AcDb2dVertex
10
737.794511052988
20
364.137972634915
30
0.0
0
SEQEND
5
ad0
100
AcDbEntity
8
0-0
0
LINE
5
ad1
100
AcDbEntity
8
0-0
6
CONTINUOUS
62
7
100
AcDbLine
10
736.794511052988
20
381.137972634915
30
0.0
11
720.994511052988
21
381.137972634915
31
0.0
0
LINE
5
ad2
100
AcDbEntity
8
0-0
6
CONTINUOUS
62
7
100
AcDbLine
10
720.994511052988
20
393.137972634915
30
0.0
11
717.794511052988
21
393.137972634915
31
0.0
0
POLYLINE
5
ad3
100
AcDbEntity
8
0-0
6
CONTINUOUS
62
  7
100
AcDb2dPolyline
66
1
10
0.0
20
0.0
30
0.0
70
0
0
VERTEX
5
ad4
100
AcDbEntity
8
0-0
6
CONTINUOUS
62
  7
100
AcDbVertex
100
AcDb2dVertex
10
717.794511052988
20
395.137972634915
30
0.0
0
VERTEX
5
ad5
100
AcDbEntity
8
0-0
6
CONTINUOUS
62
  7
100
AcDbVertex
100
AcDb2dVertex
10
720.994511052988
20
395.137972634915
30
0.0
0
VERTEX
5
ad6
100
AcDbEntity
8
0-0
6
CONTINUOUS
62
  7
100
AcDbVertex
100
AcDb2dVertex
10
720.994511052988
20
345.137972634915
30
0.0
0
VERTEX
5
ad7
100
AcDbEntity
8
0-0
6
CONTINUOUS
62
  7
100
AcDbVertex
100
AcDb2dVertex
10
717.794511052988
20
345.137972634915
30
0.0
0
VERTEX
5
ad8
100
AcDbEntity
8
0-0
6
CONTINUOUS
62
  7
100
AcDbVertex
100
AcDb2dVertex
10
717.794511052988
20
395.137972634915
30
0.0
0
SEQEND
5
ad9
100
AcDbEntity
8
0-0
0
LINE
5
ada
100
AcDbEntity
8
0-0
6
CONTINUOUS
62
7
100
AcDbLine
10
717.794511052988
20
347.137972634915
30
0.0
11
720.994511052988
21
347.137972634915
31
0.0
0
LINE
5
adb
100
AcDbEntity
8
0-1
6
CENTER
62
4
100
AcDbLine
10
700.600000000000
20
351.137972634915
30
0.0
11
695.400000000000
21
351.137972634915
31
0.0
0
LINE
5
adc
100
AcDbEntity
8
0-1
6
CENTER
62
4
100
AcDbLine
10
698.000000000000
20
348.537972634915
30
0.0
11
698.000000000000
21
353.737972634915
31
0.0
0
LINE
5
add
100
AcDbEntity
8
0-1
6
CENTER
62
4
100
AcDbLine
10
678.000000000000
20
353.737972634915
30
0.0
11
678.000000000000
21
348.537972634915
31
0.0
0
LINE
5
ade
100
AcDbEntity
8
0-1
6
CENTER
62
4
100
AcDbLine
10
680.600000000000
20
351.137972634915
30
0.0
11
675.400000000000
21
351.137972634915
31
0.0
0
LINE
5
adf
100
AcDbEntity
8
0-1
6
CENTER
62
4
100
AcDbLine
10
680.000000000000
20
363.137972634915
30
0.0
11
680.000000000000
21
381.137972634915
31
0.0
0
LINE
5
ae0
100
AcDbEntity
8
0-1
6
CENTER
62
4
100
AcDbLine
10
659.000000000000
20
387.537972634915
30
0.0
11
659.000000000000
21
392.737972634915
31
0.0
0
LINE
5
ae1
100
AcDbEntity
8
0-1
6
CENTER
62
4
100
AcDbLine
10
661.600000000000
20
390.137972634915
30
0.0
11
656.400000000000
21
390.137972634915
31
0.0
0
CIRCLE
5
ae2
100
AcDbEntity
8
0-0
6
CONTINUOUS
62
7
100
AcDbCircle
10
680.000000000000
20
372.137972634915
30
0.0
40
5.000000000000
0
CIRCLE
5
ae3
100
AcDbEntity
8
0-0
6
CONTINUOUS
62
7
100
AcDbCircle
10
659.000000000000
20
390.137972634915
30
0.0
40
2.750000000000
0
CIRCLE
5
ae4
100
AcDbEntity
8
0-0
6
CONTINUOUS
62
7
100
AcDbCircle
10
659.000000000000
20
370.137972634915
30
0.0
40
2.750000000000
0
CIRCLE
5
ae5
100
AcDbEntity
8
0-0
6
CONTINUOUS
62
7
100
AcDbCircle
10
678.000000000000
20
351.137972634915
30
0.0
40
2.750000000000
0
CIRCLE
5
ae6
100
AcDbEntity
8
0-0
6
CONTINUOUS
62
7
100
AcDbCircle
10
698.000000000000
20
351.137972634915
30
0.0
40
2.750000000000
0
CIRCLE
5
ae7
100
AcDbEntity
8
0-0
6
CONTINUOUS
62
7
100
AcDbCircle
10
680.000000000000
20
372.137972634915
30
0.0
40
8.000000000000
0
CIRCLE
5
ae8
100
AcDbEntity
8
0-0
6
CONTINUOUS
62
7
100
AcDbCircle
10
680.000000000000
20
372.137972634915
30
0.0
40
4.300000190735
0
LINE
5
ae9
100
AcDbEntity
8
0-8
6
CONTINUOUS
62
4
100
AcDbLine
10
675.000000000000
20
289.308641595495
30
0.0
11
685.000000000000
21
289.308641595495
31
0.0
0
LINE
5
aea
100
AcDbEntity
8
0-8
6
CONTINUOUS
62
4
100
AcDbLine
10
660.000000000000
20
200.808641595495
30
0.0
11
700.000000000000
21
200.808641595495
31
0.0
0
POLYLINE
5
aeb
100
AcDbEntity
8
0-8
6
CONTINUOUS
62
  7
100
AcDb2dPolyline
66
1
10
0.0
20
0.0
30
0.0
70
0
0
VERTEX
5
aec
100
AcDbEntity
8
0-8
6
CONTINUOUS
62
  7
100
AcDbVertex
100
AcDb2dVertex
10
685.000000000000
20
289.308641595495
30
0.0
0
VERTEX
5
aed
100
AcDbEntity
8
0-8
6
CONTINUOUS
62
  7
100
AcDbVertex
100
AcDb2dVertex
10
684.000000000000
20
290.308641595495
30
0.0
0
VERTEX
5
aee
100
AcDbEntity
8
0-8
6
CONTINUOUS
62
  7
100
AcDbVertex
100
AcDb2dVertex
10
676.000000000000
20
290.308641595495
30
0.0
0
VERTEX
5
aef
100
AcDbEntity
8
0-8
6
CONTINUOUS
62
  7
100
AcDbVertex
100
AcDb2dVertex
10
675.000000000000
20
289.308641595495
30
0.0
0
SEQEND
5
af0
100
AcDbEntity
8
0-8
0
POLYLINE
5
af1
100
AcDbEntity
8
0-8
6
CONTINUOUS
62
  7
100
AcDb2dPolyline
66
1
10
0.0
20
0.0
30
0.0
70
0
0
VERTEX
5
af2
100
AcDbEntity
8
0-8
6
CONTINUOUS
62
  7
100
AcDbVertex
100
AcDb2dVertex
10
684.907477288112
20
208.908641595496
30
0.0
0
VERTEX
5
af3
100
AcDbEntity
8
0-8
6
CONTINUOUS
62
  7
100
AcDbVertex
100
AcDb2dVertex
10
684.907477288112
20
204.585180788936
30
0.0
0
VERTEX
5
af4
100
AcDbEntity
8
0-8
6
CONTINUOUS
62
  7
100
AcDbVertex
100
AcDb2dVertex
10
685.526476608862
20
204.431605332038
30
0.0
0
VERTEX
5
af5
100
AcDbEntity
8
0-8
6
CONTINUOUS
62
  7
100
AcDbVertex
100
AcDb2dVertex
10
686.146924779289
20
204.316265436925
30
0.0
0
VERTEX
5
af6
100
AcDbEntity
8
0-8
6
CONTINUOUS
62
  7
100
AcDbVertex
100
AcDb2dVertex
10
686.766597003195
20
204.245273359789
30
0.0
0
VERTEX
5
af7
100
AcDbEntity
8
0-8
6
CONTINUOUS
62
  7
100
AcDbVertex
100
AcDb2dVertex
10
687.386230102953
20
204.222475312547
30
0.0
0
VERTEX
5
af8
100
AcDbEntity
8
0-8
6
CONTINUOUS
62
  7
100
AcDbVertex
100
AcDb2dVertex
10
687.997167088642
20
204.248540660466
30
0.0
0
VERTEX
5
af9
100
AcDbEntity
8
0-8
6
CONTINUOUS
62
  7
100
AcDbVertex
100
AcDb2dVertex
10
688.606305432966
20
204.320988196769
30
0.0
0
VERTEX
5
afa
100
AcDbEntity
8
0-8
6
CONTINUOUS
62
  7
100
AcDbVertex
100
AcDb2dVertex
10
689.211870433186
20
204.435098278286
30
0.0
0
VERTEX
5
afb
100
AcDbEntity
8
0-8
6
CONTINUOUS
62
  7
100
AcDbVertex
100
AcDb2dVertex
10
689.814954576224
20
204.585180788936
30
0.0
0
VERTEX
5
afc
100
AcDbEntity
8
0-8
6
CONTINUOUS
62
  7
100
AcDbVertex
100
AcDb2dVertex
10
688.450000000000
20
204.208641595495
30
0.0
0
SEQEND
5
afd
100
AcDbEntity
8
0-8
0
POLYLINE
5
afe
100
AcDbEntity
8
0-8
6
CONTINUOUS
62
  7
100
AcDb2dPolyline
66
1
10
0.0
20
0.0
30
0.0
70
0
0
VERTEX
5
aff
100
AcDbEntity
8
0-8
6
CONTINUOUS
62
  7
100
AcDbVertex
100
AcDb2dVertex
10
689.814954576224
20
204.585180788936
30
0.0
0
VERTEX
5
b00
100
AcDbEntity
8
0-8
6
CONTINUOUS
62
  7
100
AcDbVertex
100
AcDb2dVertex
10
689.814954576224
20
208.908641595496
30
0.0
0
VERTEX
5
b01
100
AcDbEntity
8
0-8
6
CONTINUOUS
62
  7
100
AcDbVertex
100
AcDb2dVertex
10
670.185045423776
20
208.908641595496
30
0.0
0
VERTEX
5
b02
100
AcDbEntity
8
0-8
6
CONTINUOUS
62
  7
100
AcDbVertex
100
AcDb2dVertex
10
670.185045423776
20
204.585180788936
30
0.0
0
VERTEX
5
b03
100
AcDbEntity
8
0-8
6
CONTINUOUS
62
  7
100
AcDbVertex
100
AcDb2dVertex
10
670.804044744526
20
204.431605332038
30
0.0
0
VERTEX
5
b04
100
AcDbEntity
8
0-8
6
CONTINUOUS
62
  7
100
AcDbVertex
100
AcDb2dVertex
10
671.424492914953
20
204.316265436925
30
0.0
0
VERTEX
5
b05
100
AcDbEntity
8
0-8
6
CONTINUOUS
62
  7
100
AcDbVertex
100
AcDb2dVertex
10
672.044165138859
20
204.245273359789
30
0.0
0
VERTEX
5
b06
100
AcDbEntity
8
0-8
6
CONTINUOUS
62
  7
100
AcDbVertex
100
AcDb2dVertex
10
672.663798238618
20
204.222475312547
30
0.0
0
VERTEX
5
b07
100
AcDbEntity
8
0-8
6
CONTINUOUS
62
  7
100
AcDbVertex
100
AcDb2dVertex
10
673.274735224307
20
204.248540660466
30
0.0
0
VERTEX
5
b08
100
AcDbEntity
8
0-8
6
CONTINUOUS
62
  7
100
AcDbVertex
100
AcDb2dVertex
10
673.883873568631
20
204.320988196769
30
0.0
0
VERTEX
5
b09
100
AcDbEntity
8
0-8
6
CONTINUOUS
62
  7
100
AcDbVertex
100
AcDb2dVertex
10
674.489438568850
20
204.435098278286
30
0.0
0
VERTEX
5
b0a
100
AcDbEntity
8
0-8
6
CONTINUOUS
62
  7
100
AcDbVertex
100
AcDb2dVertex
10
675.092522711888
20
204.585180788936
30
0.0
0
VERTEX
5
b0b
100
AcDbEntity
8
0-8
6
CONTINUOUS
62
  7
100
AcDbVertex
100
AcDb2dVertex
10
676.170187529333
20
204.449456377748
30
0.0
0
VERTEX
5
b0c
100
AcDbEntity
8
0-8
6
CONTINUOUS
62
  7
100
AcDbVertex
100
AcDb2dVertex
10
677.250259112299
20
204.342077301973
30
0.0
0
VERTEX
5
b0d
100
AcDbEntity
8
0-8
6
CONTINUOUS
62
  7
100
AcDbVertex
100
AcDb2dVertex
10
678.330019369026
20
204.267261155554
30
0.0
0
VERTEX
5
b0e
100
AcDbEntity
8
0-8
6
CONTINUOUS
62
  7
100
AcDbVertex
100
AcDb2dVertex
10
679.410459569109
20
204.228067817662
30
0.0
0
VERTEX
5
b0f
100
AcDbEntity
8
0-8
6
CONTINUOUS
62
  7
100
AcDbVertex
100
AcDb2dVertex
10
680.479297787964
20
204.226159551675
30
0.0
0
VERTEX
5
b10
100
AcDbEntity
8
0-8
6
CONTINUOUS
62
  7
100
AcDbVertex
100
AcDb2dVertex
10
681.546325500329
20
204.260920048756
30
0.0
0
VERTEX
5
b11
100
AcDbEntity
8
0-8
6
CONTINUOUS
62
  7
100
AcDbVertex
100
AcDb2dVertex
10
682.608464951460
20
204.330362054340
30
0.0
0
VERTEX
5
b12
100
AcDbEntity
8
0-8
6
CONTINUOUS
62
  7
100
AcDbVertex
100
AcDb2dVertex
10
683.667156929779
20
204.431351549833
30
0.0
0
VERTEX
5
b13
100
AcDbEntity
8
0-8
6
CONTINUOUS
62
  7
100
AcDbVertex
100
AcDb2dVertex
10
684.907477288112
20
204.585180788936
30
0.0
0
SEQEND
5
b14
100
AcDbEntity
8
0-8
0
LINE
5
b15
100
AcDbEntity
8
0-8
6
CONTINUOUS
62
7
100
AcDbLine
10
675.092522711888
20
208.908641595496
30
0.0
11
675.092522711888
21
204.585180788936
31
0.0
0
LINE
5
b16
100
AcDbEntity
8
0-8
6
CONTINUOUS
62
7
100
AcDbLine
10
671.550000000000
20
204.208641595495
30
0.0
11
670.185045423776
21
204.585180788936
31
0.0
0
LINE
5
b17
100
AcDbEntity
8
0-8
6
CONTINUOUS
62
7
100
AcDbLine
10
668.000000000000
20
204.208641595495
30
0.0
11
668.000000000000
21
203.808641595495
31
0.0
0
POLYLINE
5
b18
100
AcDbEntity
8
0-8
6
CONTINUOUS
62
  7
100
AcDb2dPolyline
66
1
10
0.0
20
0.0
30
0.0
70
0
0
VERTEX
5
b19
100
AcDbEntity
8
0-8
6
CONTINUOUS
62
  7
100
AcDbVertex
100
AcDb2dVertex
10
668.000000000000
20
204.208641595495
30
0.0
0
VERTEX
5
b1a
100
AcDbEntity
8
0-8
6
CONTINUOUS
62
  7
100
AcDbVertex
100
AcDb2dVertex
10
692.000000000000
20
204.208641595495
30
0.0
0
VERTEX
5
b1b
100
AcDbEntity
8
0-8
6
CONTINUOUS
62
  7
100
AcDbVertex
100
AcDb2dVertex
10
692.000000000000
20
203.808641595495
30
0.0
0
SEQEND
5
b1c
100
AcDbEntity
8
0-8
0
LINE
5
b1d
100
AcDbEntity
8
0-8
6
CONTINUOUS
62
7
100
AcDbLine
10
697.000000000000
20
203.808641595495
30
0.0
11
663.000000000250
21
203.808641595495
31
0.0
0
LINE
5
b1e
100
AcDbEntity
8
0-8
6
CONTINUOUS
62
7
100
AcDbLine
10
700.000000000000
20
195.808641595496
30
0.0
11
660.000000000000
21
195.808641595496
31
0.0
0
ARC
5
b1f
100
AcDbEntity
8
0-8
6
CONTINUOUS
62
7
100
AcDbCircle
10
663.000000000000
20
200.808641595495
30
0.0
40
3.000000000000
100
AcDbArc
50
89.999999999999
51
180.000000000000
0
ARC
5
b20
100
AcDbEntity
8
0-8
6
CONTINUOUS
62
7
100
AcDbCircle
10
697.000000000000
20
200.808641595495
30
0.0
40
3.000000000000
100
AcDbArc
50
360.000000000000
51
450.000000000001
0
LINE
5
b21
100
AcDbEntity
8
0-8
6
CONTINUOUS
62
7
100
AcDbLine
10
660.000000000000
20
193.308641595496
30
0.0
11
660.000000000000
21
200.808641595495
31
0.0
0
LINE
5
b22
100
AcDbEntity
8
0-8
6
CONTINUOUS
62
7
100
AcDbLine
10
660.000000000000
20
193.308641595496
30
0.0
11
700.000000000000
21
193.308641595496
31
0.0
0
LINE
5
b23
100
AcDbEntity
8
0-8
6
CONTINUOUS
62
7
100
AcDbLine
10
700.000000000000
20
200.808641595495
30
0.0
11
700.000000000000
21
193.308641595496
31
0.0
0
LINE
5
b24
100
AcDbEntity
8
0-8
6
CONTINUOUS
62
7
100
AcDbLine
10
698.000000000000
20
193.308641595496
30
0.0
11
698.000000000000
21
190.308641595495
31
0.0
0
LINE
5
b25
100
AcDbEntity
8
0-8
6
CONTINUOUS
62
7
100
AcDbLine
10
662.000000000000
20
193.308641595496
30
0.0
11
662.000000000000
21
190.308641595495
31
0.0
0
LINE
5
b26
100
AcDbEntity
8
0-8
6
CONTINUOUS
62
7
100
AcDbLine
10
698.000000000000
20
190.308641595495
30
0.0
11
662.000000000000
21
190.308641595495
31
0.0
0
LINE
5
b27
100
AcDbEntity
8
0-8
6
CONTINUOUS
62
4
100
AcDbLine
10
675.699999809300
20
237.508641595495
30
0.0
11
675.699999809300
21
208.908641595496
31
0.0
0
LINE
5
b28
100
AcDbEntity
8
0-8
6
CONTINUOUS
62
4
100
AcDbLine
10
684.300000190700
20
208.908641595496
30
0.0
11
684.300000190700
21
237.508641595495
31
0.0
0
LINE
5
b29
100
AcDbEntity
8
0-8
6
CONTINUOUS
62
7
100
AcDbLine
10
670.185045423776
20
238.267830974050
30
0.0
11
670.185045423776
21
244.549452216941
31
0.0
0
LINE
5
b2a
100
AcDbEntity
8
0-8
6
CONTINUOUS
62
7
100
AcDbLine
10
672.638784067776
20
245.308641595495
30
0.0
11
687.361215932224
21
245.308641595495
31
0.0
0
LINE
5
b2b
100
AcDbEntity
8
0-8
6
CONTINUOUS
62
7
100
AcDbLine
10
684.907477288112
20
244.549452216941
30
0.0
11
684.907477288112
21
238.267830974050
31
0.0
0
LINE
5
b2c
100
AcDbEntity
8
0-8
6
CONTINUOUS
62
7
100
AcDbLine
10
685.000000000000
20
237.508641595495
30
0.0
11
685.000000000000
21
208.908641595496
31
0.0
0
LINE
5
b2d
100
AcDbEntity
8
0-8
6
CONTINUOUS
62
7
100
AcDbLine
10
687.361215932224
20
237.508641595495
30
0.0
11
672.638784067776
21
237.508641595495
31
0.0
0
LINE
5
b2e
100
AcDbEntity
8
0-8
6
CONTINUOUS
62
7
100
AcDbLine
10
675.000000000000
20
237.508641595495
30
0.0
11
675.000000000000
21
208.908641595496
31
0.0
0
LINE
5
b2f
100
AcDbEntity
8
0-8
6
CONTINUOUS
62
7
100
AcDbLine
10
689.814954576224
20
244.549452216941
30
0.0
11
689.814954576224
21
238.267830974050
31
0.0
0
LINE
5
b30
100
AcDbEntity
8
0-8
6
CONTINUOUS
62
7
100
AcDbLine
10
675.092522711888
20
238.267830974050
30
0.0
11
675.092522711888
21
244.549452216941
31
0.0
0
POLYLINE
5
b31
100
AcDbEntity
8
0-8
6
CONTINUOUS
62
  7
100
AcDb2dPolyline
66
1
10
0.0
20
0.0
30
0.0
70
0
0
VERTEX
5
b32
100
AcDbEntity
8
0-8
6
CONTINUOUS
62
  7
100
AcDbVertex
100
AcDb2dVertex
10
675.092522711888
20
238.267830974050
30
0.0
0
VERTEX
5
b33
100
AcDbEntity
8
0-8
6
CONTINUOUS
62
  7
100
AcDbVertex
100
AcDb2dVertex
10
675.167781132882
20
238.135993373000
30
0.0
0
VERTEX
5
b34
100
AcDbEntity
8
0-8
6
CONTINUOUS
62
  7
100
AcDbVertex
100
AcDb2dVertex
10
675.391269706823
20
238.008161590744
30
0.0
0
VERTEX
5
b35
100
AcDbEntity
8
0-8
6
CONTINUOUS
62
  7
100
AcDbVertex
100
AcDb2dVertex
10
675.756197846483
20
237.888219731302
30
0.0
0
VERTEX
5
b36
100
AcDbEntity
8
0-8
6
CONTINUOUS
62
  7
100
AcDbVertex
100
AcDb2dVertex
10
676.251477395001
20
237.779812167377
30
0.0
0
VERTEX
5
b37
100
AcDbEntity
8
0-8
6
CONTINUOUS
62
  7
100
AcDbVertex
100
AcDb2dVertex
10
676.862059533920
20
237.686232807944
30
0.0
0
VERTEX
5
b38
100
AcDbEntity
8
0-8
6
CONTINUOUS
62
  7
100
AcDbVertex
100
AcDb2dVertex
10
677.569392033916
20
237.610325014485
30
0.0
0
VERTEX
5
b39
100
AcDbEntity
8
0-8
6
CONTINUOUS
62
  7
100
AcDbVertex
100
AcDb2dVertex
10
678.351982954906
20
237.554395206894
30
0.0
0
VERTEX
5
b3a
100
AcDbEntity
8
0-8
6
CONTINUOUS
62
  7
100
AcDbVertex
100
AcDb2dVertex
10
679.186053667766
20
237.520142784071
30
0.0
0
VERTEX
5
b3b
100
AcDbEntity
8
0-8
6
CONTINUOUS
62
  7
100
AcDbVertex
100
AcDb2dVertex
10
680.000000000000
20
237.508641595495
30
0.0
0
SEQEND
5
b3c
100
AcDbEntity
8
0-8
0
POLYLINE
5
b3d
100
AcDbEntity
8
0-8
6
CONTINUOUS
62
  7
100
AcDb2dPolyline
66
1
10
0.0
20
0.0
30
0.0
70
0
0
VERTEX
5
b3e
100
AcDbEntity
8
0-8
6
CONTINUOUS
62
  7
100
AcDbVertex
100
AcDb2dVertex
10
670.185045423776
20
238.267830974050
30
0.0
0
VERTEX
5
b3f
100
AcDbEntity
8
0-8
6
CONTINUOUS
62
  7
100
AcDbVertex
100
AcDb2dVertex
10
670.222323227300
20
238.135999121960
30
0.0
0
VERTEX
5
b40
100
AcDbEntity
8
0-8
6
CONTINUOUS
62
  7
100
AcDbVertex
100
AcDb2dVertex
10
670.333023970675
20
238.008172913986
30
0.0
0
VERTEX
5
b41
100
AcDbEntity
8
0-8
6
CONTINUOUS
62
  7
100
AcDbVertex
100
AcDb2dVertex
10
670.513784067832
20
237.888236284773
30
0.0
0
VERTEX
5
b42
100
AcDbEntity
8
0-8
6
CONTINUOUS
62
  7
100
AcDbVertex
100
AcDb2dVertex
10
670.759111214687
20
237.779833448110
30
0.0
0
VERTEX
5
b43
100
AcDbEntity
8
0-8
6
CONTINUOUS
62
  7
100
AcDbVertex
100
AcDb2dVertex
10
671.061551270024
20
237.686258169333
30
0.0
0
VERTEX
5
b44
100
AcDbEntity
8
0-8
6
CONTINUOUS
62
  7
100
AcDbVertex
100
AcDb2dVertex
10
671.411914745804
20
237.610353685938
30
0.0
0
VERTEX
5
b45
100
AcDbEntity
8
0-8
6
CONTINUOUS
62
  7
100
AcDbVertex
100
AcDb2dVertex
10
671.799556025108
20
237.554426317243
30
0.0
0
VERTEX
5
b46
100
AcDbEntity
8
0-8
6
CONTINUOUS
62
  7
100
AcDbVertex
100
AcDb2dVertex
10
672.212696823821
20
237.520175388045
30
0.0
0
VERTEX
5
b47
100
AcDbEntity
8
0-8
6
CONTINUOUS
62
  7
100
AcDbVertex
100
AcDb2dVertex
10
672.638784067832
20
237.508641595495
30
0.0
0
VERTEX
5
b48
100
AcDbEntity
8
0-8
6
CONTINUOUS
62
  7
100
AcDbVertex
100
AcDb2dVertex
10
673.064871311843
20
237.520175388045
30
0.0
0
VERTEX
5
b49
100
AcDbEntity
8
0-8
6
CONTINUOUS
62
  7
100
AcDbVertex
100
AcDb2dVertex
10
673.478012110555
20
237.554426317243
30
0.0
0
VERTEX
5
b4a
100
AcDbEntity
8
0-8
6
CONTINUOUS
62
  7
100
AcDbVertex
100
AcDb2dVertex
10
673.865653389860
20
237.610353685938
30
0.0
0
VERTEX
5
b4b
100
AcDbEntity
8
0-8
6
CONTINUOUS
62
  7
100
AcDbVertex
100
AcDb2dVertex
10
674.216016865640
20
237.686258169333
30
0.0
0
VERTEX
5
b4c
100
AcDbEntity
8
0-8
6
CONTINUOUS
62
  7
100
AcDbVertex
100
AcDb2dVertex
10
674.518456920977
20
237.779833448110
30
0.0
0
VERTEX
5
b4d
100
AcDbEntity
8
0-8
6
CONTINUOUS
62
  7
100
AcDbVertex
100
AcDb2dVertex
10
674.763784067832
20
237.888236284773
30
0.0
0
VERTEX
5
b4e
100
AcDbEntity
8
0-8
6
CONTINUOUS
62
  7
100
AcDbVertex
100
AcDb2dVertex
10
674.944544164988
20
238.008172913986
30
0.0
0
VERTEX
5
b4f
100
AcDbEntity
8
0-8
6
CONTINUOUS
62
  7
100
AcDbVertex
100
AcDb2dVertex
10
675.055244908364
20
238.135999121960
30
0.0
0
VERTEX
5
b50
100
AcDbEntity
8
0-8
6
CONTINUOUS
62
  7
100
AcDbVertex
100
AcDb2dVertex
10
675.092522711888
20
238.267830974050
30
0.0
0
SEQEND
5
b51
100
AcDbEntity
8
0-8
0
POLYLINE
5
b52
100
AcDbEntity
8
0-8
6
CONTINUOUS
62
  7
100
AcDb2dPolyline
66
1
10
0.0
20
0.0
30
0.0
70
0
0
VERTEX
5
b53
100
AcDbEntity
8
0-8
6
CONTINUOUS
62
  7
100
AcDbVertex
100
AcDb2dVertex
10
680.000000000000
20
237.508641595495
30
0.0
0
VERTEX
5
b54
100
AcDbEntity
8
0-8
6
CONTINUOUS
62
  7
100
AcDbVertex
100
AcDb2dVertex
10
680.859467363691
20
237.521406576573
30
0.0
0
VERTEX
5
b55
100
AcDbEntity
8
0-8
6
CONTINUOUS
62
  7
100
AcDbVertex
100
AcDb2dVertex
10
681.691414618558
20
237.556851285259
30
0.0
0
VERTEX
5
b56
100
AcDbEntity
8
0-8
6
CONTINUOUS
62
  7
100
AcDbVertex
100
AcDb2dVertex
10
682.470563468246
20
237.613898752015
30
0.0
0
VERTEX
5
b57
100
AcDbEntity
8
0-8
6
CONTINUOUS
62
  7
100
AcDbVertex
100
AcDb2dVertex
10
683.173239869226
20
237.690815618433
30
0.0
0
VERTEX
5
b58
100
AcDbEntity
8
0-8
6
CONTINUOUS
62
  7
100
AcDbVertex
100
AcDb2dVertex
10
683.778093354625
20
237.785264804447
30
0.0
0
VERTEX
5
b59
100
AcDbEntity
8
0-8
6
CONTINUOUS
62
  7
100
AcDbVertex
100
AcDb2dVertex
10
684.266745757360
20
237.894376519334
30
0.0
0
VERTEX
5
b5a
100
AcDbEntity
8
0-8
6
CONTINUOUS
62
  7
100
AcDbVertex
100
AcDb2dVertex
10
684.624349621444
20
238.014835458851
30
0.0
0
VERTEX
5
b5b
100
AcDbEntity
8
0-8
6
CONTINUOUS
62
  7
100
AcDbVertex
100
AcDb2dVertex
10
684.840039334424
20
238.142981539075
30
0.0
0
VERTEX
5
b5c
100
AcDbEntity
8
0-8
6
CONTINUOUS
62
  7
100
AcDbVertex
100
AcDb2dVertex
10
684.907477288112
20
238.267830974050
30
0.0
0
SEQEND
5
b5d
100
AcDbEntity
8
0-8
0
POLYLINE
5
b5e
100
AcDbEntity
8
0-8
6
CONTINUOUS
62
  7
100
AcDb2dPolyline
66
1
10
0.0
20
0.0
30
0.0
70
0
0
VERTEX
5
b5f
100
AcDbEntity
8
0-8
6
CONTINUOUS
62
  7
100
AcDbVertex
100
AcDb2dVertex
10
684.907477288112
20
238.267830974050
30
0.0
0
VERTEX
5
b60
100
AcDbEntity
8
0-8
6
CONTINUOUS
62
  7
100
AcDbVertex
100
AcDb2dVertex
10
684.944755091636
20
238.135999121960
30
0.0
0
VERTEX
5
b61
100
AcDbEntity
8
0-8
6
CONTINUOUS
62
  7
100
AcDbVertex
100
AcDb2dVertex
10
685.055455835011
20
238.008172913986
30
0.0
0
VERTEX
5
b62
100
AcDbEntity
8
0-8
6
CONTINUOUS
62
  7
100
AcDbVertex
100
AcDb2dVertex
10
685.236215932168
20
237.888236284773
30
0.0
0
VERTEX
5
b63
100
AcDbEntity
8
0-8
6
CONTINUOUS
62
  7
100
AcDbVertex
100
AcDb2dVertex
10
685.481543079023
20
237.779833448110
30
0.0
0
VERTEX
5
b64
100
AcDbEntity
8
0-8
6
CONTINUOUS
62
  7
100
AcDbVertex
100
AcDb2dVertex
10
685.783983134360
20
237.686258169333
30
0.0
0
VERTEX
5
b65
100
AcDbEntity
8
0-8
6
CONTINUOUS
62
  7
100
AcDbVertex
100
AcDb2dVertex
10
686.134346610140
20
237.610353685938
30
0.0
0
VERTEX
5
b66
100
AcDbEntity
8
0-8
6
CONTINUOUS
62
  7
100
AcDbVertex
100
AcDb2dVertex
10
686.521987889444
20
237.554426317243
30
0.0
0
VERTEX
5
b67
100
AcDbEntity
8
0-8
6
CONTINUOUS
62
  7
100
AcDbVertex
100
AcDb2dVertex
10
686.935128688157
20
237.520175388045
30
0.0
0
VERTEX
5
b68
100
AcDbEntity
8
0-8
6
CONTINUOUS
62
  7
100
AcDbVertex
100
AcDb2dVertex
10
687.361215932168
20
237.508641595495
30
0.0
0
VERTEX
5
b69
100
AcDbEntity
8
0-8
6
CONTINUOUS
62
  7
100
AcDbVertex
100
AcDb2dVertex
10
687.787303176179
20
237.520175388045
30
0.0
0
VERTEX
5
b6a
100
AcDbEntity
8
0-8
6
CONTINUOUS
62
  7
100
AcDbVertex
100
AcDb2dVertex
10
688.200443974892
20
237.554426317243
30
0.0
0
VERTEX
5
b6b
100
AcDbEntity
8
0-8
6
CONTINUOUS
62
  7
100
AcDbVertex
100
AcDb2dVertex
10
688.588085254196
20
237.610353685938
30
0.0
0
VERTEX
5
b6c
100
AcDbEntity
8
0-8
6
CONTINUOUS
62
  7
100
AcDbVertex
100
AcDb2dVertex
10
688.938448729976
20
237.686258169333
30
0.0
0
VERTEX
5
b6d
100
AcDbEntity
8
0-8
6
CONTINUOUS
62
  7
100
AcDbVertex
100
AcDb2dVertex
10
689.240888785313
20
237.779833448110
30
0.0
0
VERTEX
5
b6e
100
AcDbEntity
8
0-8
6
CONTINUOUS
62
  7
100
AcDbVertex
100
AcDb2dVertex
10
689.486215932168
20
237.888236284773
30
0.0
0
VERTEX
5
b6f
100
AcDbEntity
8
0-8
6
CONTINUOUS
62
  7
100
AcDbVertex
100
AcDb2dVertex
10
689.666976029325
20
238.008172913986
30
0.0
0
VERTEX
5
b70
100
AcDbEntity
8
0-8
6
CONTINUOUS
62
  7
100
AcDbVertex
100
AcDb2dVertex
10
689.777676772700
20
238.135999121960
30
0.0
0
VERTEX
5
b71
100
AcDbEntity
8
0-8
6
CONTINUOUS
62
  7
100
AcDbVertex
100
AcDb2dVertex
10
689.814954576224
20
238.267830974050
30
0.0
0
SEQEND
5
b72
100
AcDbEntity
8
0-8
0
POLYLINE
5
b73
100
AcDbEntity
8
0-8
6
CONTINUOUS
62
  7
100
AcDb2dPolyline
66
1
10
0.0
20
0.0
30
0.0
70
0
0
VERTEX
5
b74
100
AcDbEntity
8
0-8
6
CONTINUOUS
62
  7
100
AcDbVertex
100
AcDb2dVertex
10
675.092522711888
20
244.549452216941
30
0.0
0
VERTEX
5
b75
100
AcDbEntity
8
0-8
6
CONTINUOUS
62
  7
100
AcDbVertex
100
AcDb2dVertex
10
675.055244908364
20
244.681284069031
30
0.0
0
VERTEX
5
b76
100
AcDbEntity
8
0-8
6
CONTINUOUS
62
  7
100
AcDbVertex
100
AcDb2dVertex
10
674.944544164988
20
244.809110277005
30
0.0
0
VERTEX
5
b77
100
AcDbEntity
8
0-8
6
CONTINUOUS
62
  7
100
AcDbVertex
100
AcDb2dVertex
10
674.763784067832
20
244.929046906218
30
0.0
0
VERTEX
5
b78
100
AcDbEntity
8
0-8
6
CONTINUOUS
62
  7
100
AcDbVertex
100
AcDb2dVertex
10
674.518456920977
20
245.037449742881
30
0.0
0
VERTEX
5
b79
100
AcDbEntity
8
0-8
6
CONTINUOUS
62
  7
100
AcDbVertex
100
AcDb2dVertex
10
674.216016865640
20
245.131025021658
30
0.0
0
VERTEX
5
b7a
100
AcDbEntity
8
0-8
6
CONTINUOUS
62
  7
100
AcDbVertex
100
AcDb2dVertex
10
673.865653389860
20
245.206929505052
30
0.0
0
VERTEX
5
b7b
100
AcDbEntity
8
0-8
6
CONTINUOUS
62
  7
100
AcDbVertex
100
AcDb2dVertex
10
673.478012110555
20
245.262856873748
30
0.0
0
VERTEX
5
b7c
100
AcDbEntity
8
0-8
6
CONTINUOUS
62
  7
100
AcDbVertex
100
AcDb2dVertex
10
673.064871311843
20
245.297107802946
30
0.0
0
VERTEX
5
b7d
100
AcDbEntity
8
0-8
6
CONTINUOUS
62
  7
100
AcDbVertex
100
AcDb2dVertex
10
672.638784067832
20
245.308641595495
30
0.0
0
VERTEX
5
b7e
100
AcDbEntity
8
0-8
6
CONTINUOUS
62
  7
100
AcDbVertex
100
AcDb2dVertex
10
672.212696823821
20
245.297107802946
30
0.0
0
VERTEX
5
b7f
100
AcDbEntity
8
0-8
6
CONTINUOUS
62
  7
100
AcDbVertex
100
AcDb2dVertex
10
671.799556025108
20
245.262856873748
30
0.0
0
VERTEX
5
b80
100
AcDbEntity
8
0-8
6
CONTINUOUS
62
  7
100
AcDbVertex
100
AcDb2dVertex
10
671.411914745804
20
245.206929505052
30
0.0
0
VERTEX
5
b81
100
AcDbEntity
8
0-8
6
CONTINUOUS
62
  7
100
AcDbVertex
100
AcDb2dVertex
10
671.061551270024
20
245.131025021658
30
0.0
0
VERTEX
5
b82
100
AcDbEntity
8
0-8
6
CONTINUOUS
62
  7
100
AcDbVertex
100
AcDb2dVertex
10
670.759111214687
20
245.037449742881
30
0.0
0
VERTEX
5
b83
100
AcDbEntity
8
0-8
6
CONTINUOUS
62
  7
100
AcDbVertex
100
AcDb2dVertex
10
670.513784067832
20
244.929046906218
30
0.0
0
VERTEX
5
b84
100
AcDbEntity
8
0-8
6
CONTINUOUS
62
  7
100
AcDbVertex
100
AcDb2dVertex
10
670.333023970675
20
244.809110277005
30
0.0
0
VERTEX
5
b85
100
AcDbEntity
8
0-8
6
CONTINUOUS
62
  7
100
AcDbVertex
100
AcDb2dVertex
10
670.222323227300
20
244.681284069031
30
0.0
0
VERTEX
5
b86
100
AcDbEntity
8
0-8
6
CONTINUOUS
62
  7
100
AcDbVertex
100
AcDb2dVertex
10
670.185045423776
20
244.549452216941
30
0.0
0
SEQEND
5
b87
100
AcDbEntity
8
0-8
0
POLYLINE
5
b88
100
AcDbEntity
8
0-8
6
CONTINUOUS
62
  7
100
AcDb2dPolyline
66
1
10
0.0
20
0.0
30
0.0
70
0
0
VERTEX
5
b89
100
AcDbEntity
8
0-8
6
CONTINUOUS
62
  7
100
AcDbVertex
100
AcDb2dVertex
10
680.000000000000
20
245.308641595495
30
0.0
0
VERTEX
5
b8a
100
AcDbEntity
8
0-8
6
CONTINUOUS
62
  7
100
AcDbVertex
100
AcDb2dVertex
10
679.140532636308
20
245.295876614418
30
0.0
0
VERTEX
5
b8b
100
AcDbEntity
8
0-8
6
CONTINUOUS
62
  7
100
AcDbVertex
100
AcDb2dVertex
10
678.308585381442
20
245.260431905732
30
0.0
0
VERTEX
5
b8c
100
AcDbEntity
8
0-8
6
CONTINUOUS
62
  7
100
AcDbVertex
100
AcDb2dVertex
10
677.529436531754
20
245.203384438975
30
0.0
0
VERTEX
5
b8d
100
AcDbEntity
8
0-8
6
CONTINUOUS
62
  7
100
AcDbVertex
100
AcDb2dVertex
10
676.826760130774
20
245.126467572558
30
0.0
0
VERTEX
5
b8e
100
AcDbEntity
8
0-8
6
CONTINUOUS
62
  7
100
AcDbVertex
100
AcDb2dVertex
10
676.221906645375
20
245.032018386544
30
0.0
0
VERTEX
5
b8f
100
AcDbEntity
8
0-8
6
CONTINUOUS
62
  7
100
AcDbVertex
100
AcDb2dVertex
10
675.733254242640
20
244.922906671657
30
0.0
0
VERTEX
5
b90
100
AcDbEntity
8
0-8
6
CONTINUOUS
62
  7
100
AcDbVertex
100
AcDb2dVertex
10
675.375650378556
20
244.802447732140
30
0.0
0
VERTEX
5
b91
100
AcDbEntity
8
0-8
6
CONTINUOUS
62
  7
100
AcDbVertex
100
AcDb2dVertex
10
675.159960665576
20
244.674301651916
30
0.0
0
VERTEX
5
b92
100
AcDbEntity
8
0-8
6
CONTINUOUS
62
  7
100
AcDbVertex
100
AcDb2dVertex
10
675.092522711888
20
244.549452216941
30
0.0
0
SEQEND
5
b93
100
AcDbEntity
8
0-8
0
POLYLINE
5
b94
100
AcDbEntity
8
0-8
6
CONTINUOUS
62
  7
100
AcDb2dPolyline
66
1
10
0.0
20
0.0
30
0.0
70
0
0
VERTEX
5
b95
100
AcDbEntity
8
0-8
6
CONTINUOUS
62
  7
100
AcDbVertex
100
AcDb2dVertex
10
689.814954576224
20
244.549452216941
30
0.0
0
VERTEX
5
b96
100
AcDbEntity
8
0-8
6
CONTINUOUS
62
  7
100
AcDbVertex
100
AcDb2dVertex
10
689.777676772700
20
244.681284069031
30
0.0
0
VERTEX
5
b97
100
AcDbEntity
8
0-8
6
CONTINUOUS
62
  7
100
AcDbVertex
100
AcDb2dVertex
10
689.666976029325
20
244.809110277005
30
0.0
0
VERTEX
5
b98
100
AcDbEntity
8
0-8
6
CONTINUOUS
62
  7
100
AcDbVertex
100
AcDb2dVertex
10
689.486215932168
20
244.929046906218
30
0.0
0
VERTEX
5
b99
100
AcDbEntity
8
0-8
6
CONTINUOUS
62
  7
100
AcDbVertex
100
AcDb2dVertex
10
689.240888785313
20
245.037449742881
30
0.0
0
VERTEX
5
b9a
100
AcDbEntity
8
0-8
6
CONTINUOUS
62
  7
100
AcDbVertex
100
AcDb2dVertex
10
688.938448729976
20
245.131025021658
30
0.0
0
VERTEX
5
b9b
100
AcDbEntity
8
0-8
6
CONTINUOUS
62
  7
100
AcDbVertex
100
AcDb2dVertex
10
688.588085254196
20
245.206929505052
30
0.0
0
VERTEX
5
b9c
100
AcDbEntity
8
0-8
6
CONTINUOUS
62
  7
100
AcDbVertex
100
AcDb2dVertex
10
688.200443974892
20
245.262856873748
30
0.0
0
VERTEX
5
b9d
100
AcDbEntity
8
0-8
6
CONTINUOUS
62
  7
100
AcDbVertex
100
AcDb2dVertex
10
687.787303176179
20
245.297107802946
30
0.0
0
VERTEX
5
b9e
100
AcDbEntity
8
0-8
6
CONTINUOUS
62
  7
100
AcDbVertex
100
AcDb2dVertex
10
687.361215932168
20
245.308641595495
30
0.0
0
VERTEX
5
b9f
100
AcDbEntity
8
0-8
6
CONTINUOUS
62
  7
100
AcDbVertex
100
AcDb2dVertex
10
686.935128688157
20
245.297107802946
30
0.0
0
VERTEX
5
ba0
100
AcDbEntity
8
0-8
6
CONTINUOUS
62
  7
100
AcDbVertex
100
AcDb2dVertex
10
686.521987889444
20
245.262856873748
30
0.0
0
VERTEX
5
ba1
100
AcDbEntity
8
0-8
6
CONTINUOUS
62
  7
100
AcDbVertex
100
AcDb2dVertex
10
686.134346610140
20
245.206929505052
30
0.0
0
VERTEX
5
ba2
100
AcDbEntity
8
0-8
6
CONTINUOUS
62
  7
100
AcDbVertex
100
AcDb2dVertex
10
685.783983134360
20
245.131025021658
30
0.0
0
VERTEX
5
ba3
100
AcDbEntity
8
0-8
6
CONTINUOUS
62
  7
100
AcDbVertex
100
AcDb2dVertex
10
685.481543079023
20
245.037449742881
30
0.0
0
VERTEX
5
ba4
100
AcDbEntity
8
0-8
6
CONTINUOUS
62
  7
100
AcDbVertex
100
AcDb2dVertex
10
685.236215932168
20
244.929046906218
30
0.0
0
VERTEX
5
ba5
100
AcDbEntity
8
0-8
6
CONTINUOUS
62
  7
100
AcDbVertex
100
AcDb2dVertex
10
685.055455835011
20
244.809110277005
30
0.0
0
VERTEX
5
ba6
100
AcDbEntity
8
0-8
6
CONTINUOUS
62
  7
100
AcDbVertex
100
AcDb2dVertex
10
684.944755091636
20
244.681284069031
30
0.0
0
VERTEX
5
ba7
100
AcDbEntity
8
0-8
6
CONTINUOUS
62
  7
100
AcDbVertex
100
AcDb2dVertex
10
684.907477288112
20
244.549452216941
30
0.0
0
SEQEND
5
ba8
100
AcDbEntity
8
0-8
0
POLYLINE
5
ba9
100
AcDbEntity
8
0-8
6
CONTINUOUS
62
  7
100
AcDb2dPolyline
66
1
10
0.0
20
0.0
30
0.0
70
0
0
VERTEX
5
baa
100
AcDbEntity
8
0-8
6
CONTINUOUS
62
  7
100
AcDbVertex
100
AcDb2dVertex
10
684.907477288112
20
244.549452216941
30
0.0
0
VERTEX
5
bab
100
AcDbEntity
8
0-8
6
CONTINUOUS
62
  7
100
AcDbVertex
100
AcDb2dVertex
10
684.832218867118
20
244.681289817991
30
0.0
0
VERTEX
5
bac
100
AcDbEntity
8
0-8
6
CONTINUOUS
62
  7
100
AcDbVertex
100
AcDb2dVertex
10
684.608730293177
20
244.809121600247
30
0.0
0
VERTEX
5
bad
100
AcDbEntity
8
0-8
6
CONTINUOUS
62
  7
100
AcDbVertex
100
AcDb2dVertex
10
684.243802153517
20
244.929063459689
30
0.0
0
VERTEX
5
bae
100
AcDbEntity
8
0-8
6
CONTINUOUS
62
  7
100
AcDbVertex
100
AcDb2dVertex
10
683.748522604998
20
245.037471023614
30
0.0
0
VERTEX
5
baf
100
AcDbEntity
8
0-8
6
CONTINUOUS
62
  7
100
AcDbVertex
100
AcDb2dVertex
10
683.137940466080
20
245.131050383047
30
0.0
0
VERTEX
5
bb0
100
AcDbEntity
8
0-8
6
CONTINUOUS
62
  7
100
AcDbVertex
100
AcDb2dVertex
10
682.430607966083
20
245.206958176506
30
0.0
0
VERTEX
5
bb1
100
AcDbEntity
8
0-8
6
CONTINUOUS
62
  7
100
AcDbVertex
100
AcDb2dVertex
10
681.648017045093
20
245.262887984097
30
0.0
0
VERTEX
5
bb2
100
AcDbEntity
8
0-8
6
CONTINUOUS
62
  7
100
AcDbVertex
100
AcDb2dVertex
10
680.813946332234
20
245.297140406919
30
0.0
0
VERTEX
5
bb3
100
AcDbEntity
8
0-8
6
CONTINUOUS
62
  7
100
AcDbVertex
100
AcDb2dVertex
10
680.000000000000
20
245.308641595495
30
0.0
0
SEQEND
5
bb4
100
AcDbEntity
8
0-8
0
LINE
5
bb5
100
AcDbEntity
8
0-8
6
CONTINUOUS
62
4
100
AcDbLine
10
675.699999809300
20
270.408641595495
30
0.0
11
675.699999809300
21
290.008641404795
31
0.0
0
LINE
5
bb6
100
AcDbEntity
8
0-8
6
CONTINUOUS
62
4
100
AcDbLine
10
684.300000190700
20
290.008641404795
30
0.0
11
684.300000190700
21
270.408641595495
31
0.0
0
LINE
5
bb7
100
AcDbEntity
8
0-8
6
CONTINUOUS
62
7
100
AcDbLine
10
685.000000000000
20
270.408641595495
30
0.0
11
685.000000000000
21
289.308641595495
31
0.0
0
LINE
5
bb8
100
AcDbEntity
8
0-8
6
CONTINUOUS
62
7
100
AcDbLine
10
675.000000000000
20
289.308641595495
30
0.0
11
675.000000000000
21
270.408641595495
31
0.0
0
LINE
5
bb9
100
AcDbEntity
8
0-9
6
PHANTOM
62
4
100
AcDbLine
10
689.814954576224
20
232.585180788936
30
0.0
11
688.450000000000
21
232.208641595495
31
0.0
0
LINE
5
bba
100
AcDbEntity
8
0-9
6
PHANTOM
62
4
100
AcDbLine
10
689.814954576224
20
232.585180788936
30
0.0
11
689.814954576224
21
236.908641595496
31
0.0
0
LINE
5
bbb
100
AcDbEntity
8
0-9
6
PHANTOM
62
4
100
AcDbLine
10
670.185045423776
20
236.908641595496
30
0.0
11
670.185045423776
21
232.585180788936
31
0.0
0
LINE
5
bbc
100
AcDbEntity
8
0-9
6
PHANTOM
62
4
100
AcDbLine
10
671.550000000000
20
232.208641595495
30
0.0
11
670.185045423776
21
232.585180788936
31
0.0
0
LINE
5
bbd
100
AcDbEntity
8
0-9
6
PHANTOM
62
4
100
AcDbLine
10
667.999999999999
20
232.208641595495
30
0.0
11
667.999999999999
21
231.808641595495
31
0.0
0
LINE
5
bbe
100
AcDbEntity
8
0-9
6
PHANTOM
62
4
100
AcDbLine
10
692.000000000000
20
232.208641595495
30
0.0
11
692.000000000000
21
231.808641595495
31
0.0
0
LINE
5
bbf
100
AcDbEntity
8
0-9
6
PHANTOM
62
4
100
AcDbLine
10
700.000000000000
20
228.808641595495
30
0.0
11
700.000000000000
21
223.808641595495
31
0.0
0
LINE
5
bc0
100
AcDbEntity
8
0-9
6
PHANTOM
62
4
100
AcDbLine
10
660.000000000000
20
223.808641595495
30
0.0
11
660.000000000000
21
228.808641595495
31
0.0
0
LINE
5
bc1
100
AcDbEntity
8
0-9
6
PHANTOM
62
4
100
AcDbLine
10
660.599999999999
20
223.808641595495
30
0.0
11
660.599999999999
21
221.308641595495
31
0.0
0
LINE
5
bc2
100
AcDbEntity
8
0-9
6
PHANTOM
62
4
100
AcDbLine
10
699.400000000000
20
221.308641595495
30
0.0
11
699.400000000000
21
223.808641595495
31
0.0
0
ARC
5
bc3
100
AcDbEntity
8
0-9
6
PHANTOM
62
4
100
AcDbCircle
10
662.999999999999
20
228.808641595495
30
0.0
40
3.000000000000
100
AcDbArc
50
89.999999999999
51
180.000000000000
0
ARC
5
bc4
100
AcDbEntity
8
0-9
6
PHANTOM
62
4
100
AcDbCircle
10
697.000000000000
20
228.808641595495
30
0.0
40
3.000000000000
100
AcDbArc
50
360.000000000000
51
450.000000000001
0
LINE
5
bc5
100
AcDbEntity
8
0-9
6
PHANTOM
62
4
100
AcDbLine
10
667.999999999999
20
232.208641595495
30
0.0
11
671.550000000000
21
232.208641595495
31
0.0
0
LINE
5
bc6
100
AcDbEntity
8
0-9
6
PHANTOM
62
4
100
AcDbLine
10
688.450000000000
20
232.208641595495
30
0.0
11
692.000000000000
21
232.208641595495
31
0.0
0
LINE
5
bc7
100
AcDbEntity
8
0-9
6
PHANTOM
62
4
100
AcDbLine
10
697.000000000000
20
231.808641595495
30
0.0
11
692.000000000000
21
231.808641595495
31
0.0
0
LINE
5
bc8
100
AcDbEntity
8
0-9
6
PHANTOM
62
4
100
AcDbLine
10
667.999999999999
20
231.808641595495
30
0.0
11
663.000000000250
21
231.808641595495
31
0.0
0
LINE
5
bc9
100
AcDbEntity
8
0-9
6
PHANTOM
62
4
100
AcDbLine
10
700.000000000000
20
223.808641595495
30
0.0
11
699.400000000000
21
223.808641595495
31
0.0
0
LINE
5
bca
100
AcDbEntity
8
0-9
6
PHANTOM
62
4
100
AcDbLine
10
660.599999999999
20
223.808641595495
30
0.0
11
660.000000000000
21
223.808641595495
31
0.0
0
LINE
5
bcb
100
AcDbEntity
8
0-9
6
PHANTOM
62
4
100
AcDbLine
10
660.599999999999
20
221.308641595495
30
0.0
11
662.000000000000
21
221.308641595495
31
0.0
0
LINE
5
bcc
100
AcDbEntity
8
0-9
6
PHANTOM
62
4
100
AcDbLine
10
697.999999999999
20
221.308641595495
30
0.0
11
699.400000000000
21
221.308641595495
31
0.0
0
LINE
5
bcd
100
AcDbEntity
8
0-9
6
PHANTOM
62
4
100
AcDbLine
10
662.000000000000
20
221.308641595495
30
0.0
11
662.000000000000
21
218.308641595495
31
0.0
0
LINE
5
bce
100
AcDbEntity
8
0-9
6
PHANTOM
62
4
100
AcDbLine
10
697.999999999999
20
221.308641595495
30
0.0
11
697.999999999999
21
218.308641595495
31
0.0
0
LINE
5
bcf
100
AcDbEntity
8
0-9
6
PHANTOM
62
4
100
AcDbLine
10
662.000000000000
20
218.308641595495
30
0.0
11
697.999999999999
21
218.308641595495
31
0.0
0
LINE
5
bd0
100
AcDbEntity
8
0-9
6
PHANTOM
62
4
100
AcDbLine
10
662.000000000000
20
168.308641595495
30
0.0
11
662.000000000000
21
165.308641595495
31
0.0
0
LINE
5
bd1
100
AcDbEntity
8
0-9
6
PHANTOM
62
4
100
AcDbLine
10
697.999999999999
20
168.308641595495
30
0.0
11
697.999999999999
21
165.308641595495
31
0.0
0
LINE
5
bd2
100
AcDbEntity
8
0-9
6
PHANTOM
62
4
100
AcDbLine
10
662.000000000000
20
165.308641595495
30
0.0
11
697.999999999999
21
165.308641595495
31
0.0
0
LINE
5
bd3
100
AcDbEntity
8
0-2
6
PHANTOM
62
4
100
AcDbLine
10
710.500000000000
20
108.884732410218
30
0.0
11
710.500000000000
21
133.884732410218
31
0.0
0
POLYLINE
5
bd4
100
AcDbEntity
8
0-2
6
PHANTOM
62
  4
100
AcDb2dPolyline
66
1
10
0.0
20
0.0
30
0.0
70
0
0
VERTEX
5
bd5
100
AcDbEntity
8
0-2
6
PHANTOM
62
  4
100
AcDbVertex
100
AcDb2dVertex
10
646.500000000000
20
69.884732410218
30
0.0
0
VERTEX
5
bd6
100
AcDbEntity
8
0-2
6
PHANTOM
62
  4
100
AcDbVertex
100
AcDb2dVertex
10
671.500000000000
20
69.884732410218
30
0.0
0
VERTEX
5
bd7
100
AcDbEntity
8
0-2
6
PHANTOM
62
  4
100
AcDbVertex
100
AcDb2dVertex
10
671.500000000000
20
133.884732410218
30
0.0
0
SEQEND
5
bd8
100
AcDbEntity
8
0-2
0
LINE
5
bd9
100
AcDbEntity
8
0-2
6
PHANTOM
62
4
100
AcDbLine
10
710.500000000000
20
133.884732410218
30
0.0
11
646.500000000000
21
133.884732410218
31
0.0
0
LINE
5
bda
100
AcDbEntity
8
0-2
6
PHANTOM
62
4
100
AcDbLine
10
710.500000000000
20
108.884732410218
30
0.0
11
646.500000000000
21
108.884732410218
31
0.0
0
LINE
5
bdb
100
AcDbEntity
8
0-2
6
PHANTOM
62
4
100
AcDbLine
10
646.500000000000
20
69.884732410218
30
0.0
11
646.500000000000
21
133.884732410218
31
0.0
0
LINE
5
bdc
100
AcDbEntity
8
0-2
6
PHANTOM
62
4
100
AcDbLine
10
710.500000000000
20
338.637972634915
30
0.0
11
710.500000000000
21
363.637972634915
31
0.0
0
LINE
5
bdd
100
AcDbEntity
8
0-2
6
PHANTOM
62
4
100
AcDbLine
10
671.500000000000
20
402.637972634915
30
0.0
11
646.500000000000
21
402.637972634915
31
0.0
0
LINE
5
bde
100
AcDbEntity
8
0-2
6
PHANTOM
62
4
100
AcDbLine
10
710.500000000000
20
363.637972634915
30
0.0
11
646.500000000000
21
363.637972634915
31
0.0
0
LINE
5
bdf
100
AcDbEntity
8
0-2
6
PHANTOM
62
4
100
AcDbLine
10
646.500000000000
20
402.637972634915
30
0.0
11
646.500000000000
21
338.637972634915
31
0.0
0
LINE
5
be0
100
AcDbEntity
8
0-2
6
PHANTOM
62
4
100
AcDbLine
10
671.500000000000
20
402.637972634915
30
0.0
11
671.500000000000
21
338.637972634915
31
0.0
0
LINE
5
be1
100
AcDbEntity
8
0-2
6
PHANTOM
62
4
100
AcDbLine
10
710.500000000000
20
338.637972634915
30
0.0
11
646.500000000000
21
338.637972634915
31
0.0
0
LINE
5
be2
100
AcDbEntity
8
0-2
6
PHANTOM
62
4
100
AcDbLine
10
709.008741331040
20
290.308641595495
30
0.0
11
646.500000000000
21
290.308641595495
31
0.0
0
LINE
5
be3
100
AcDbEntity
8
0-2
6
PHANTOM
62
4
100
AcDbLine
10
646.500000000000
20
265.308641595495
30
0.0
11
719.082184987462
21
265.308641595495
31
0.0
0
LINE
5
be4
100
AcDbEntity
8
0-2
6
PHANTOM
62
4
100
AcDbLine
10
646.500000000000
20
322.299596046892
30
0.0
11
646.500000000000
21
265.308641595495
31
0.0
0
LINE
5
be5
100
AcDbEntity
8
0-2
6
PHANTOM
62
4
100
AcDbLine
10
671.500000000000
20
265.308641595495
30
0.0
11
671.500000000000
21
325.480683517341
31
0.0
0
TEXT
5
be6
100
AcDbEntity
8
0-0
62
7
370
-3
100
AcDbText
10
655.200
20
395.905
30
0.0
40
4.208
1
LP25-M10
41
0.544
50
0.000
100
AcDbText
0
LINE
5
be7
100
AcDbEntity
8
F-F_J_ADD
6
HIDDEN
62
253
100
AcDbLine
10
0.000000000000
20
40.384732410218
30
0.0
11
760.000000000000
21
40.384732410218
31
0.0
0
LINE
5
be8
100
AcDbEntity
8
F-F_J_ADD
6
HIDDEN
62
253
100
AcDbLine
10
500.000000000000
20
330.308641595495
30
0.0
11
760.000000000000
21
330.308641595495
31
0.0
0
LINE
5
be9
100
AcDbEntity
8
F-F_J_ADD
6
HIDDEN
62
253
100
AcDbLine
10
500.000000000000
20
410.308641595495
30
0.0
11
760.000000000000
21
410.308641595495
31
0.0
0
LINE
5
bea
100
AcDbEntity
8
F-F_J_ADD
6
HIDDEN
62
253
100
AcDbLine
10
760.000000000000
20
40.384732410218
30
0.0
11
760.000000000000
21
410.308641595495
31
0.0
0
TEXT
5
beb
100
AcDbEntity
8
0-0
62
7
370
-3
100
AcDbText
10
500.200
20
41.152
30
0.0
40
4.208
1
LS25B-M12
41
0.523
50
0.000
100
AcDbText
0
TEXT
5
bec
100
AcDbEntity
8
0-0
62
7
370
-3
100
AcDbText
10
630.200
20
41.152
30
0.0
40
4.208
1
LS25B-M10
41
0.541
50
0.000
100
AcDbText
0
LINE
5
bed
100
AcDbEntity
8
F-F_J_ADD
6
HIDDEN
62
253
100
AcDbLine
10
400.000000000000
20
590.384732410218
30
0.0
11
-0.000000000000
21
590.384732410218
31
0.0
0
ENDSEC
 0
SECTION
  2
OBJECTS
 0
DICTIONARY
  5
C
100
AcDbDictionary
  3
ACAD_GROUP
350
D
  3
ACAD_MLINESTYLE
350
E
 0
DICTIONARY
  5
D
102
{ACAD_REACTORS
102
}
100
AcDbDictionary
 0
DICTIONARY
  5
E
102
{ACAD_REACTORS
102
}
100
AcDbDictionary
  3
STANDARD
350
13
0
MLINESTYLE
  5
13
102
{ACAD_REACTORS
102
}
100
AcDbMlineStyle
  2
STANDARD
 70
    0
3

62
256
51
90.0
52
90.0
71
0
0
ACDBPLACEHOLDER
  5
14
102
{ACAD_REACTORS
102
}
0
ENDSEC
0
EOF
