0
SECTION
2
HEADER
9
$ACADVER
1
AC1015
9
$ACADMAINTVER
 70
6
9
$DWGCODEPAGE
3
ANSI_932
9
$EXTMIN
10
0.000
20
0.000
30
0.0
9
$EXTMAX
10
1189.000
20
841.000
30
0.0
9
$LIMMIN
10
0.000
20
0.000
9
$LIMMAX
10
1189.000
20
841.000
9
$DIMSCALE
40
1.000000
9
$LTSCALE
40
2.000
9
$PDMODE
70
0
9
$PDSIZE
40
40.0
9
$HANDSEED
5
62228
9
$UNITMODE
70
0
9
$VISRETAIN
70
0
9
$PLINEGEN
70
0
9
$PSLTSCALE
70
1
9
$TREEDEPTH
70
3020
9
$CMLSTYLE
2
STANDARD
9
$CMLJUST
70
0
9
$CMLSCALE
40
1.0
9
$PROXYGRAPHICS
70
1
9
$MEASUREMENT
70
0
9
$CELWEIGHT
370
-1
9
$ENDCAPS
280
0
9
$JOINSTYLE
280
0
9
$LWDISPLAY
290
0
9
$INSUNITS
70
0
9
$HYPERLINKBASE
1

9
$STYLESHEET
1

9
$XEDIT
290
1
9
$CEPSNTYPE
380
0
9
$PSTYLEMODE
290
1
9
$FINGERPRINTGUID
2
{5F082321-0195-11D3-BDFB-0060B0CD5109}
9
$VERSIONGUID
2
{12943756-294D-11D3-98C2-0060B087942D}
9
$EXTNAMES
290
1
9
$PSVPSCALE
40
0.0
9
$OLESTARTUP
290
0
0
ENDSEC
0
SECTION
  2
CLASSES
0
ENDSEC
0
SECTION
2
TABLES
0
TABLE
2
VPORT
5
190
100
AcDbSymbolTable
70
2
0
VPORT
5
191
100
AcDbSymbolTableRecord
100
AcDbViewportTableRecord
2
*ACTIVE
70
0
10
0.0
20
0.0
11
1.0
21
1.0
12
594.500
22
420.500
13
0.0
23
0.0
14
1.0
24
1.0
15
0.0
25
0.0
16
0.0
26
0.0
36
1.0
17
0.0
27
0.0
37
0.0
40
861.594
41
2.0
42
50.0
43
0.0
44
0.0
50
0.0
51
0.0
71
0
72
1000
73
1
74
1
75
0
76
0
77
0
78
0
0
ENDTAB
0
TABLE
2
LTYPE
5
1f4
100
AcDbSymbolTable
70
9
0
LTYPE
5
1f5
100
AcDbSymbolTableRecord
100
AcDbLinetypeTableRecord
2
BYBLOCK
70
 64
3

72
 65
73
  0
40
0.0
0
LTYPE
5
1f6
100
AcDbSymbolTableRecord
100
AcDbLinetypeTableRecord
2
BYLAYER
70
 64
3

72
 65
73
  0
40
0.0
0
LTYPE
5
1f7
100
AcDbSymbolTableRecord
100
AcDbLinetypeTableRecord
2
CONTINUOUS
70
64
3
SolidLine
72
65
73
0
40
0.0
0
LTYPE
5
1f8
100
AcDbSymbolTableRecord
100
AcDbLinetypeTableRecord
2
DOT
70
64
3
--  --  --  --  --  --  --  --     
72
65
73
2
40
3.000
49
1.000
74
0
49
-2.000
74
0
0
LTYPE
5
1f9
100
AcDbSymbolTableRecord
100
AcDbLinetypeTableRecord
2
DASHED
70
64
3
----    ----    ----    ----    
72
65
73
2
40
5.000
49
2.000
74
0
49
-3.000
74
0
0
LTYPE
5
1fa
100
AcDbSymbolTableRecord
100
AcDbLinetypeTableRecord
2
DASHED2
70
64
3
------  ------  ------  ------ 
72
65
73
2
40
10.000
49
4.000
74
0
49
-6.000
74
0
0
LTYPE
5
1fb
100
AcDbSymbolTableRecord
100
AcDbLinetypeTableRecord
2
CENTER
70
64
3
----- - ----- - ----- - ----- - 
72
65
73
4
40
10.000
49
6.000
74
0
49
-3.000
74
0
49
1.000
74
0
49
-3.000
74
0
0
LTYPE
5
1fc
100
AcDbSymbolTableRecord
100
AcDbLinetypeTableRecord
2
CENTER2
70
64
3
----------  --  ----------  -- 
72
65
73
4
40
17.000
49
12.000
74
0
49
-5.000
74
0
49
2.000
74
0
49
-5.000
74
0
0
LTYPE
5
1fd
100
AcDbSymbolTableRecord
100
AcDbLinetypeTableRecord
2
PHANTOM
70
64
3
--- - - --- - - --- - - --- - -
72
65
73
6
40
13.000
49
5.000
74
0
49
-3.000
74
0
49
1.000
74
0
49
-3.000
74
0
49
1.000
74
0
49
-3.000
74
0
0
LTYPE
5
1fe
100
AcDbSymbolTableRecord
100
AcDbLinetypeTableRecord
2
PHANTOM2
70
64
3
--------  -  -  --------  -  -
72
65
73
6
40
20.000
49
6.000
74
0
49
-5.000
74
0
49
2.000
74
0
49
-5.000
74
0
49
2.000
74
0
49
-5.000
74
0
0
LTYPE
5
1ff
100
AcDbSymbolTableRecord
100
AcDbLinetypeTableRecord
2
HIDDEN
70
64
3
-   -   -   -   -   -   -   -   
72
65
73
2
40
3.000
49
0.500
74
0
49
-2.500
74
0
0
ENDTAB
0
TABLE
2
STYLE
5
200
100
AcDbSymbolTable
70
1
0
STYLE
5
201
100
AcDbSymbolTableRecord
100
AcDbTextStyleTableRecord
2
STANDARD
70
0
40
0.0
41
1.0
50
0.0
71
0
42
0.0
3
txt.shx
4
extfont.shx
0
STYLE
5
202
100
AcDbSymbolTableRecord
100
AcDbTextStyleTableRecord
2
TATEGAKI
70
4
40
0.0
41
1.0
50
0.0
71
0
42
0.0
3
txt.shx
4
extfont.shx
0
STYLE
5
203
100
AcDbSymbolTableRecord
100
AcDbTextStyleTableRecord
2
DIM
70
0
40
0.0
41
0.75
50
0.0
71
0
42
0.0
3
txt.shx
4
extfont.shx
0
STYLE
5
204
100
AcDbSymbolTableRecord
100
AcDbTextStyleTableRecord
2
_Gothic_
70
0
40
1.0
41
1.0
50
0.0
71
0
42
10.0
3

4

1001
ACAD
1000
MS Gothic
1071
32817
0
STYLE
5
205
100
AcDbSymbolTableRecord
100
AcDbTextStyleTableRecord
2
_TateGothic_
70
4
40
0.0
41
1.0
50
0.0
71
0
42
0.0
3
@MS Gothic
4

0
ENDTAB
0
TABLE
2
VIEW
5
206
100
AcDbSymbolTable
70
0
0
ENDTAB
0
TABLE
2
UCS
5
207
100
AcDbSymbolTable
70
0
0
ENDTAB
0
TABLE
2
APPID
5
208
100
AcDbSymbolTable
70
1
0
APPID
5
209
100
AcDbSymbolTableRecord
100
AcDbRegAppTableRecord
2
ACAD
70
0
0
ENDTAB
0
TABLE
2
DIMSTYLE
5
403
330
0
100
AcDbSymbolTable
70
1
100
AcDbDimStyleTable
71
0
0
DIMSTYLE
105
404
330
402
100
AcDbSymbolTableRecord
100
AcDbDimStyleTableRecord
2
JAC_DIM
70
0
41
2.000
42
0.000
44
0.0
73
0
74
0
77
1
78
8
79
2
140
0.000
170
0
171
2
172
0
173
0
174
0
175
0
176
0
177
0
178
0
270
2
271
0
272
0
273
2
274
2
340
201
275
0
280
0
281
0
282
0
283
0
284
0
285
0
286
0
287
3
288
0
0
ENDTAB
0
TABLE
2
BLOCK_RECORD
5
405
100
AcDbSymbolTable
70
0
0
BLOCK_RECORD
5
406
100
AcDbSymbolTableRecord
100
AcDbBlockTableRecord
2
*MODEL_SPACE
0
BLOCK_RECORD
5
407
100
AcDbSymbolTableRecord
100
AcDbBlockTableRecord
2
*PAPER_SPACE
0
BLOCK_RECORD
5
408
100
AcDbSymbolTableRecord
100
AcDbBlockTableRecord
2
_JACCONVERT_
0
ENDTAB
0
TABLE
2
LAYER
5
409
100
AcDbSymbolTable
70
10
0
LAYER
5
40a
100
AcDbSymbolTableRecord
100
AcDbLayerTableRecord
2
0
70
0
62
7
6
CONTINUOUS
370
-3
390
14
0
LAYER
5
40b
100
AcDbSymbolTableRecord
100
AcDbLayerTableRecord
2
0-0
70
0
62
7
6
CONTINUOUS
370
-3
390
14
0
LAYER
5
40c
100
AcDbSymbolTableRecord
100
AcDbLayerTableRecord
2
0-1
70
0
62
7
6
CONTINUOUS
370
-3
390
14
0
LAYER
5
40d
100
AcDbSymbolTableRecord
100
AcDbLayerTableRecord
2
0-2
70
0
62
7
6
CONTINUOUS
370
-3
390
14
0
LAYER
5
40e
100
AcDbSymbolTableRecord
100
AcDbLayerTableRecord
2
0-8
70
0
62
7
6
CONTINUOUS
370
-3
390
14
0
LAYER
5
40f
100
AcDbSymbolTableRecord
100
AcDbLayerTableRecord
2
0-9
70
0
62
7
6
CONTINUOUS
370
-3
390
14
0
LAYER
5
410
100
AcDbSymbolTableRecord
100
AcDbLayerTableRecord
2
0-C
70
0
62
7
6
CONTINUOUS
370
-3
390
14
0
LAYER
5
411
100
AcDbSymbolTableRecord
100
AcDbLayerTableRecord
2
F-F_J_ADD
70
4
62
-7
6
CONTINUOUS
290
0
370
-3
390
14
0
ENDTAB
0
ENDSEC
0
SECTION
2
BLOCKS
0
BLOCK
5
412
100
AcDbEntity
67
1
8
0
100
AcDbBlockBegin
2
*MODEL_SPACE
70
0
10
0.0
20
0.0
30
0.0
3
*MODEL_SPACE
1

0
ENDBLK
5
413
100
AcDbEntity
8
0
100
AcDbBlockEnd
0
BLOCK
5
414
100
AcDbEntity
67
1
8
0
100
AcDbBlockBegin
2
*PAPER_SPACE
70
0
10
0.0
20
0.0
30
0.0
3
*PAPER_SPACE
1

0
ENDBLK
5
415
100
AcDbEntity
67
1
8
0
100
AcDbBlockEnd
0
BLOCK
5
416
100
AcDbEntity
8
0
100
AcDbBlockBegin
2
_JACCONVERT_
70
2
10
0.0
20
0.0
30
0.0
3
_JACCONVERT_
1
_JACCONVERT_
0
ATTDEF
5
417
100
AcDbEntity
8
0
62
0
100
AcDbText
10
0.0
20
0.0
30
0.0
40
1.0
1
User:UnSettingUp
100
AcDbAttributeDefinition
3

2
USER
70
8
0
ATTDEF
5
418
100
AcDbEntity
8
0
62
0
100
AcDbText
10
0.0
20
2.0
30
0.0
40
1.0
1
Date:23/07/14 16:41
100
AcDbAttributeDefinition
3

2
REVDATE
70
8
0
ATTDEF
5
419
100
AcDbEntity
8
0
62
0
100
AcDbText
10
0.0
20
4.0
30
0.0
40
1.0
1
File:107_LECO25_foot_levelingcaster.dxf
100
AcDbAttributeDefinition
3

2
FNAME
70
8
0
ATTDEF
5
41a
100
AcDbEntity
8
0
62
0
100
AcDbText
10
0.0
20
6.0
30
0.0
40
1.0
1
JacConvert Version3.11 copyright (c) 2001-2016 K.Nakahara
100
AcDbAttributeDefinition
3

2
VER
70
8
0
ENDBLK
5
41b
100
AcDbEntity
67
1
8
0
100
AcDbBlockEnd
0
ENDSEC
0
SECTION
2
ENTITIES
0
CIRCLE
5
41c
100
AcDbEntity
8
0-0
6
CONTINUOUS
62
7
100
AcDbCircle
10
232.648122068781
20
447.202093762216
30
0.0
40
3.125000000000
0
LINE
5
41d
100
AcDbEntity
8
0-1
6
CENTER
62
4
100
AcDbLine
10
238.166689179217
20
447.202093762216
30
0.0
11
227.832124077127
21
447.202093762216
31
0.0
0
LINE
5
41e
100
AcDbEntity
8
0-1
6
CENTER
62
4
100
AcDbLine
10
232.648122068781
20
442.204787610877
30
0.0
11
232.648122068781
21
451.814120074223
31
0.0
0
LINE
5
41f
100
AcDbEntity
8
0-0
6
CONTINUOUS
62
7
100
AcDbLine
10
361.148122068781
20
403.959453075097
30
0.0
11
361.148122068781
21
377.202093762216
31
0.0
0
LINE
5
420
100
AcDbEntity
8
0-0
6
CONTINUOUS
62
7
100
AcDbLine
10
251.390762755900
20
377.202093762216
30
0.0
11
361.148122068781
21
377.202093762216
31
0.0
0
ARC
5
421
100
AcDbEntity
8
0-0
6
CONTINUOUS
62
7
100
AcDbCircle
10
251.390762755900
20
380.202093762216
30
0.0
40
3.000000000000
100
AcDbArc
50
225.000000000000
51
270.000000000000
0
LINE
5
422
100
AcDbEntity
8
0-0
6
CONTINUOUS
62
7
100
AcDbLine
10
219.026801725221
20
408.323414105776
30
0.0
11
249.269442412341
21
378.080773418656
31
0.0
0
LINE
5
423
100
AcDbEntity
8
0-0
6
CONTINUOUS
62
7
100
AcDbLine
10
218.148122068781
20
410.444734449335
30
0.0
11
218.148122068781
21
520.202093762216
31
0.0
0
ARC
5
424
100
AcDbEntity
8
0-0
6
CONTINUOUS
62
7
100
AcDbCircle
10
221.148122068781
20
410.444734449335
30
0.0
40
3.000000000000
100
AcDbArc
50
180.000000000000
51
225.000000000000
0
LINE
5
425
100
AcDbEntity
8
0-0
6
CONTINUOUS
62
7
100
AcDbLine
10
244.905481381661
20
520.202093762216
30
0.0
11
218.148122068781
21
520.202093762216
31
0.0
0
ARC
5
426
100
AcDbEntity
8
0-0
6
CONTINUOUS
62
7
100
AcDbCircle
10
244.905481381661
20
517.202093762216
30
0.0
40
3.000000000000
100
AcDbArc
50
45.000000000000
51
90.000000000000
0
LINE
5
427
100
AcDbEntity
8
0-0
6
CONTINUOUS
62
7
100
AcDbLine
10
360.269442412341
20
406.080773418656
30
0.0
11
247.026801725221
21
519.323414105776
31
0.0
0
ARC
5
428
100
AcDbEntity
8
0-0
6
CONTINUOUS
62
7
100
AcDbCircle
10
358.148122068781
20
403.959453075097
30
0.0
40
3.000000000000
100
AcDbArc
50
360.000000000000
51
405.000000000000
0
ARC
5
429
100
AcDbEntity
8
0-0
6
CONTINUOUS
62
7
100
AcDbCircle
10
242.548122068781
20
467.202093762216
30
0.0
40
4.150000000000
100
AcDbArc
50
270.000000000000
51
450.000000000000
0
LINE
5
42a
100
AcDbEntity
8
0-0
6
CONTINUOUS
62
7
100
AcDbLine
10
237.748122068781
20
471.352093762216
30
0.0
11
242.548122068781
21
471.352093762216
31
0.0
0
ARC
5
42b
100
AcDbEntity
8
0-0
6
CONTINUOUS
62
7
100
AcDbCircle
10
237.748122068781
20
467.202093762216
30
0.0
40
4.150000000000
100
AcDbArc
50
90.000000000000
51
270.000000000000
0
LINE
5
42c
100
AcDbEntity
8
0-0
6
CONTINUOUS
62
7
100
AcDbLine
10
237.748122068781
20
463.052093762216
30
0.0
11
242.548122068781
21
463.052093762216
31
0.0
0
LINE
5
42d
100
AcDbEntity
8
0-1
6
CENTER
62
4
100
AcDbLine
10
237.748122068781
20
462.074539322703
30
0.0
11
237.748122068781
21
472.052483096891
31
0.0
0
LINE
5
42e
100
AcDbEntity
8
0-1
6
CENTER
62
4
100
AcDbLine
10
242.548122068781
20
462.074539322703
30
0.0
11
242.548122068781
21
472.052483096891
31
0.0
0
LINE
5
42f
100
AcDbEntity
8
0-1
6
CENTER
62
4
100
AcDbLine
10
240.148122068781
20
462.074539322703
30
0.0
11
240.148122068781
21
472.052483096891
31
0.0
0
LINE
5
430
100
AcDbEntity
8
0-1
6
CENTER
62
4
100
AcDbLine
10
232.463597333662
20
467.202093762216
30
0.0
11
247.588893054852
21
467.202093762216
31
0.0
0
ARC
5
431
100
AcDbEntity
8
0-0
6
CONTINUOUS
62
7
100
AcDbCircle
10
242.548122068781
20
497.202093762216
30
0.0
40
4.150000000000
100
AcDbArc
50
270.000000000000
51
450.000000000000
0
LINE
5
432
100
AcDbEntity
8
0-0
6
CONTINUOUS
62
7
100
AcDbLine
10
237.748122068781
20
501.352093762216
30
0.0
11
242.548122068781
21
501.352093762216
31
0.0
0
ARC
5
433
100
AcDbEntity
8
0-0
6
CONTINUOUS
62
7
100
AcDbCircle
10
237.748122068781
20
497.202093762216
30
0.0
40
4.150000000000
100
AcDbArc
50
90.000000000000
51
270.000000000000
0
LINE
5
434
100
AcDbEntity
8
0-0
6
CONTINUOUS
62
7
100
AcDbLine
10
237.748122068781
20
493.052093762216
30
0.0
11
242.548122068781
21
493.052093762216
31
0.0
0
LINE
5
435
100
AcDbEntity
8
0-1
6
CENTER
62
4
100
AcDbLine
10
237.748122068781
20
492.074539322703
30
0.0
11
237.748122068781
21
502.052483096891
31
0.0
0
LINE
5
436
100
AcDbEntity
8
0-1
6
CENTER
62
4
100
AcDbLine
10
242.548122068781
20
492.074539322703
30
0.0
11
242.548122068781
21
502.052483096891
31
0.0
0
LINE
5
437
100
AcDbEntity
8
0-1
6
CENTER
62
4
100
AcDbLine
10
240.148122068781
20
492.074539322703
30
0.0
11
240.148122068781
21
502.052483096891
31
0.0
0
LINE
5
438
100
AcDbEntity
8
0-1
6
CENTER
62
4
100
AcDbLine
10
232.463597333662
20
497.202093762216
30
0.0
11
247.588893054852
21
497.202093762216
31
0.0
0
CIRCLE
5
439
100
AcDbEntity
8
0-0
6
CONTINUOUS
62
7
100
AcDbCircle
10
232.648122068781
20
482.202093762216
30
0.0
40
3.125000000000
0
LINE
5
43a
100
AcDbEntity
8
0-1
6
CENTER
62
4
100
AcDbLine
10
238.166689179217
20
482.202093762216
30
0.0
11
227.832124077127
21
482.202093762216
31
0.0
0
LINE
5
43b
100
AcDbEntity
8
0-1
6
CENTER
62
4
100
AcDbLine
10
232.648122068781
20
477.204787610877
30
0.0
11
232.648122068781
21
486.814120074223
31
0.0
0
CIRCLE
5
43c
100
AcDbEntity
8
0-0
6
CONTINUOUS
62
7
100
AcDbCircle
10
288.148122068781
20
391.702093762216
30
0.0
40
3.125000000000
0
LINE
5
43d
100
AcDbEntity
8
0-1
6
CENTER
62
4
100
AcDbLine
10
288.148122068781
20
397.220660872652
30
0.0
11
288.148122068781
21
386.886095770563
31
0.0
0
LINE
5
43e
100
AcDbEntity
8
0-1
6
CENTER
62
4
100
AcDbLine
10
283.150815917442
20
391.702093762216
30
0.0
11
292.760148380788
21
391.702093762216
31
0.0
0
ARC
5
43f
100
AcDbEntity
8
0-0
6
CONTINUOUS
62
7
100
AcDbCircle
10
308.148122068781
20
401.602093762216
30
0.0
40
4.150000000000
100
AcDbArc
50
360.000000000000
51
540.000000000000
0
LINE
5
440
100
AcDbEntity
8
0-0
6
CONTINUOUS
62
7
100
AcDbLine
10
312.298122068781
20
396.802093762216
30
0.0
11
312.298122068781
21
401.602093762216
31
0.0
0
ARC
5
441
100
AcDbEntity
8
0-0
6
CONTINUOUS
62
7
100
AcDbCircle
10
308.148122068781
20
396.802093762216
30
0.0
40
4.150000000000
100
AcDbArc
50
180.000000000000
51
360.000000000000
0
LINE
5
442
100
AcDbEntity
8
0-0
6
CONTINUOUS
62
7
100
AcDbLine
10
303.998122068781
20
396.802093762216
30
0.0
11
303.998122068781
21
401.602093762216
31
0.0
0
LINE
5
443
100
AcDbEntity
8
0-1
6
CENTER
62
4
100
AcDbLine
10
303.020567629268
20
396.802093762216
30
0.0
11
312.998511403456
21
396.802093762216
31
0.0
0
LINE
5
444
100
AcDbEntity
8
0-1
6
CENTER
62
4
100
AcDbLine
10
303.020567629268
20
401.602093762216
30
0.0
11
312.998511403456
21
401.602093762216
31
0.0
0
LINE
5
445
100
AcDbEntity
8
0-1
6
CENTER
62
4
100
AcDbLine
10
303.020567629268
20
399.202093762216
30
0.0
11
312.998511403456
21
399.202093762216
31
0.0
0
LINE
5
446
100
AcDbEntity
8
0-1
6
CENTER
62
4
100
AcDbLine
10
308.148122068781
20
391.517569027097
30
0.0
11
308.148122068781
21
406.642864748286
31
0.0
0
ARC
5
447
100
AcDbEntity
8
0-0
6
CONTINUOUS
62
7
100
AcDbCircle
10
338.148122068781
20
401.602093762216
30
0.0
40
4.150000000000
100
AcDbArc
50
360.000000000000
51
540.000000000000
0
LINE
5
448
100
AcDbEntity
8
0-0
6
CONTINUOUS
62
7
100
AcDbLine
10
342.298122068781
20
396.802093762216
30
0.0
11
342.298122068781
21
401.602093762216
31
0.0
0
ARC
5
449
100
AcDbEntity
8
0-0
6
CONTINUOUS
62
7
100
AcDbCircle
10
338.148122068781
20
396.802093762216
30
0.0
40
4.150000000000
100
AcDbArc
50
180.000000000000
51
360.000000000000
0
LINE
5
44a
100
AcDbEntity
8
0-0
6
CONTINUOUS
62
7
100
AcDbLine
10
333.998122068781
20
396.802093762216
30
0.0
11
333.998122068781
21
401.602093762216
31
0.0
0
LINE
5
44b
100
AcDbEntity
8
0-1
6
CENTER
62
4
100
AcDbLine
10
333.020567629268
20
396.802093762216
30
0.0
11
342.998511403456
21
396.802093762216
31
0.0
0
LINE
5
44c
100
AcDbEntity
8
0-1
6
CENTER
62
4
100
AcDbLine
10
333.020567629268
20
401.602093762216
30
0.0
11
342.998511403456
21
401.602093762216
31
0.0
0
LINE
5
44d
100
AcDbEntity
8
0-1
6
CENTER
62
4
100
AcDbLine
10
333.020567629268
20
399.202093762216
30
0.0
11
342.998511403456
21
399.202093762216
31
0.0
0
LINE
5
44e
100
AcDbEntity
8
0-1
6
CENTER
62
4
100
AcDbLine
10
338.148122068781
20
391.517569027097
30
0.0
11
338.148122068781
21
406.642864748286
31
0.0
0
CIRCLE
5
44f
100
AcDbEntity
8
0-0
6
CONTINUOUS
62
7
100
AcDbCircle
10
323.148122068781
20
391.702093762216
30
0.0
40
3.125000000000
0
LINE
5
450
100
AcDbEntity
8
0-1
6
CENTER
62
4
100
AcDbLine
10
323.148122068781
20
397.220660872652
30
0.0
11
323.148122068781
21
386.886095770563
31
0.0
0
LINE
5
451
100
AcDbEntity
8
0-1
6
CENTER
62
4
100
AcDbLine
10
318.150815917442
20
391.702093762216
30
0.0
11
327.760148380788
21
391.702093762216
31
0.0
0
LINE
5
452
100
AcDbEntity
8
0-1
6
CENTER
62
4
100
AcDbLine
10
268.148122068781
20
388.427694998409
30
0.0
11
268.148122068781
21
466.736735869044
31
0.0
0
LINE
5
453
100
AcDbEntity
8
0-1
6
CENTER
62
4
100
AcDbLine
10
197.006307249380
20
427.202093762216
30
0.0
11
308.414065589903
21
427.202093762216
31
0.0
0
ARC
5
454
100
AcDbEntity
8
0-0
6
CONTINUOUS
62
7
100
AcDbCircle
10
216.648122068781
20
449.202093762216
30
0.0
40
1.000000000000
100
AcDbArc
50
90.000000000000
51
180.000000000000
0
LINE
5
455
100
AcDbEntity
8
0-0
6
CONTINUOUS
62
7
100
AcDbLine
10
215.648122068781
20
442.202093762216
30
0.0
11
215.648122068781
21
449.202093762216
31
0.0
0
ARC
5
456
100
AcDbEntity
8
0-0
6
CONTINUOUS
62
7
100
AcDbCircle
10
216.648122068781
20
442.202093762216
30
0.0
40
1.000000000000
100
AcDbArc
50
180.000000000000
51
270.000000000000
0
ARC
5
457
100
AcDbEntity
8
0-0
6
CONTINUOUS
62
7
100
AcDbCircle
10
216.648122068781
20
405.202093762216
30
0.0
40
1.000000000000
100
AcDbArc
50
180.000000000000
51
270.000000000000
0
LINE
5
458
100
AcDbEntity
8
0-0
6
CONTINUOUS
62
7
100
AcDbLine
10
215.648122068781
20
412.202093762216
30
0.0
11
215.648122068781
21
405.202093762216
31
0.0
0
ARC
5
459
100
AcDbEntity
8
0-0
6
CONTINUOUS
62
7
100
AcDbCircle
10
216.648122068781
20
412.202093762216
30
0.0
40
1.000000000000
100
AcDbArc
50
90.000000000000
51
180.000000000000
0
LINE
5
45a
100
AcDbEntity
8
0-0
6
CONTINUOUS
62
7
100
AcDbLine
10
216.648122068781
20
450.202093762216
30
0.0
11
218.148122068781
21
450.202093762216
31
0.0
0
LINE
5
45b
100
AcDbEntity
8
0-0
6
CONTINUOUS
62
7
100
AcDbLine
10
216.648122068781
20
441.202093762216
30
0.0
11
218.148122068781
21
441.202093762216
31
0.0
0
LINE
5
45c
100
AcDbEntity
8
0-0
6
CONTINUOUS
62
7
100
AcDbLine
10
216.648122068781
20
413.202093762216
30
0.0
11
218.148122068781
21
413.202093762216
31
0.0
0
LINE
5
45d
100
AcDbEntity
8
0-0
6
CONTINUOUS
62
7
100
AcDbLine
10
216.648122068781
20
404.202093762216
30
0.0
11
223.148122068781
21
404.202093762216
31
0.0
0
CIRCLE
5
45e
100
AcDbEntity
8
0-0
6
CONTINUOUS
62
7
100
AcDbCircle
10
268.148122068781
20
427.202093762216
30
0.0
40
25.000000000000
0
CIRCLE
5
45f
100
AcDbEntity
8
0-0
6
CONTINUOUS
62
7
100
AcDbCircle
10
268.148122068781
20
427.202093762216
30
0.0
40
23.000000000000
0
CIRCLE
5
460
100
AcDbEntity
8
0-0
6
CONTINUOUS
62
7
100
AcDbCircle
10
268.148122068781
20
427.202093762216
30
0.0
40
13.500000000000
0
LINE
5
461
100
AcDbEntity
8
0-0
6
CONTINUOUS
62
7
100
AcDbLine
10
271.584994712092
20
440.028677086196
30
0.0
11
258.758411388113
21
436.591804442885
31
0.0
0
LINE
5
462
100
AcDbEntity
8
0-0
6
CONTINUOUS
62
7
100
AcDbLine
10
280.974705392761
20
430.638966405527
30
0.0
11
271.584994712092
21
440.028677086196
31
0.0
0
LINE
5
463
100
AcDbEntity
8
0-0
6
CONTINUOUS
62
7
100
AcDbLine
10
277.537832749450
20
417.812383081547
30
0.0
11
280.974705392761
21
430.638966405527
31
0.0
0
LINE
5
464
100
AcDbEntity
8
0-0
6
CONTINUOUS
62
7
100
AcDbLine
10
264.711249425470
20
414.375510438236
30
0.0
11
277.537832749450
21
417.812383081547
31
0.0
0
LINE
5
465
100
AcDbEntity
8
0-0
6
CONTINUOUS
62
7
100
AcDbLine
10
255.321538744802
20
423.765221118905
30
0.0
11
264.711249425470
21
414.375510438236
31
0.0
0
LINE
5
466
100
AcDbEntity
8
0-0
6
CONTINUOUS
62
7
100
AcDbLine
10
258.758411388113
20
436.591804442885
30
0.0
11
255.321538744802
21
423.765221118905
31
0.0
0
LINE
5
467
100
AcDbEntity
8
0-0
6
CONTINUOUS
62
7
100
AcDbLine
10
268.751954767222
20
434.103933087519
30
0.0
11
262.472870229451
21
431.175947881353
31
0.0
0
LINE
5
468
100
AcDbEntity
8
0-0
6
CONTINUOUS
62
7
100
AcDbLine
10
274.427206606552
20
430.130078968381
30
0.0
11
268.751954767222
21
434.103933087519
31
0.0
0
LINE
5
469
100
AcDbEntity
8
0-0
6
CONTINUOUS
62
7
100
AcDbLine
10
273.823373908111
20
423.228239643079
30
0.0
11
274.427206606552
21
430.130078968381
31
0.0
0
LINE
5
46a
100
AcDbEntity
8
0-0
6
CONTINUOUS
62
7
100
AcDbLine
10
267.544289370340
20
420.300254436913
30
0.0
11
273.823373908111
21
423.228239643079
31
0.0
0
LINE
5
46b
100
AcDbEntity
8
0-0
6
CONTINUOUS
62
7
100
AcDbLine
10
267.544289370340
20
420.300254436913
30
0.0
11
261.869037531010
21
424.274108556051
31
0.0
0
LINE
5
46c
100
AcDbEntity
8
0-0
6
CONTINUOUS
62
7
100
AcDbLine
10
262.472870229451
20
431.175947881353
30
0.0
11
261.869037531010
21
424.274108556051
31
0.0
0
CIRCLE
5
46d
100
AcDbEntity
8
0-0
6
CONTINUOUS
62
7
100
AcDbCircle
10
268.148122068781
20
427.202093762216
30
0.0
40
9.000000000000
0
ARC
5
46e
100
AcDbEntity
8
0-0
6
CONTINUOUS
62
7
100
AcDbCircle
10
206.505214495192
20
415.652093762216
30
0.0
40
1.000000000000
100
AcDbArc
50
188.487954070792
51
270.000000000000
0
ARC
5
46f
100
AcDbEntity
8
0-0
6
CONTINUOUS
62
7
100
AcDbCircle
10
283.899372047146
20
427.202093762216
30
0.0
40
79.251249978365
100
AcDbArc
50
171.512045929208
51
188.487954070792
0
ARC
5
470
100
AcDbEntity
8
0-0
6
CONTINUOUS
62
7
100
AcDbCircle
10
206.505214495192
20
438.752093762216
30
0.0
40
1.000000000000
100
AcDbArc
50
90.000000000000
51
171.512045929208
0
LINE
5
471
100
AcDbEntity
8
0-0
6
CONTINUOUS
62
7
100
AcDbLine
10
206.505214495192
20
439.752093762216
30
0.0
11
218.148122068781
21
439.752093762216
31
0.0
0
LINE
5
472
100
AcDbEntity
8
0-0
6
CONTINUOUS
62
7
100
AcDbLine
10
206.505214495192
20
414.652093762216
30
0.0
11
218.148122068781
21
414.652093762216
31
0.0
0
LINE
5
473
100
AcDbEntity
8
0-0
6
CONTINUOUS
62
7
100
AcDbLine
10
353.758038623154
20
268.881098396737
30
0.0
11
218.148122068781
21
268.881098396737
31
0.0
0
LINE
5
474
100
AcDbEntity
8
0-0
6
CONTINUOUS
62
7
100
AcDbLine
10
294.148122068781
20
200.881098396737
30
0.0
11
294.681455402114
21
208.881098396737
31
0.0
0
POLYLINE
5
475
100
AcDbEntity
8
0-0
6
CONTINUOUS
62
  7
100
AcDb2dPolyline
66
1
10
0.0
20
0.0
30
0.0
70
0
0
VERTEX
5
476
100
AcDbEntity
8
0-0
6
CONTINUOUS
62
  7
100
AcDbVertex
100
AcDb2dVertex
10
294.148122068781
20
200.881098396737
30
0.0
0
VERTEX
5
477
100
AcDbEntity
8
0-0
6
CONTINUOUS
62
  7
100
AcDbVertex
100
AcDb2dVertex
10
243.899410762817
20
200.881098396737
30
0.0
0
VERTEX
5
478
100
AcDbEntity
8
0-0
6
CONTINUOUS
62
  7
100
AcDbVertex
100
AcDb2dVertex
10
243.899410762817
20
208.881098396737
30
0.0
0
SEQEND
5
479
100
AcDbEntity
8
0-0
0
LINE
5
47a
100
AcDbEntity
8
0-0
6
CONTINUOUS
62
7
100
AcDbLine
10
361.148122068781
20
265.081098396737
30
0.0
11
357.684020453643
21
263.081098396737
31
0.0
0
LINE
5
47b
100
AcDbEntity
8
0-0
6
CONTINUOUS
62
7
100
AcDbLine
10
354.624064026938
20
268.381098396737
30
0.0
11
357.684020453643
21
263.081098396737
31
0.0
0
ARC
5
47c
100
AcDbEntity
8
0-0
6
CONTINUOUS
62
7
100
AcDbCircle
10
353.758038623154
20
267.881098396737
30
0.0
40
1.000000000000
100
AcDbArc
50
30.000000000000
51
90.000000000000
0
LINE
5
47d
100
AcDbEntity
8
0-0
6
CONTINUOUS
62
7
100
AcDbLine
10
358.088165642076
20
270.381098396737
30
0.0
11
361.148122068781
21
265.081098396737
31
0.0
0
ARC
5
47e
100
AcDbEntity
8
0-0
6
CONTINUOUS
62
7
100
AcDbCircle
10
353.758038623154
20
267.881098396737
30
0.0
40
5.000000000000
100
AcDbArc
50
30.000000000000
51
90.000000000000
0
LINE
5
47f
100
AcDbEntity
8
0-0
6
CONTINUOUS
62
7
100
AcDbLine
10
353.758038623154
20
272.881098396737
30
0.0
11
218.148122068781
21
272.881098396737
31
0.0
0
LINE
5
480
100
AcDbEntity
8
0-0
6
CONTINUOUS
62
7
100
AcDbLine
10
218.148122068781
20
268.881098396737
30
0.0
11
218.148122068781
21
272.881098396737
31
0.0
0
LINE
5
481
100
AcDbEntity
8
0-1
6
PHANTOM
62
4
100
AcDbLine
10
294.148122068781
20
183.881098396737
30
0.0
11
296.148122068781
21
213.881098396737
31
0.0
0
LINE
5
482
100
AcDbEntity
8
0-1
6
PHANTOM
62
4
100
AcDbLine
10
294.148122068781
20
183.881098396737
30
0.0
11
243.899410762817
21
183.881098396737
31
0.0
0
LINE
5
483
100
AcDbEntity
8
0-0
6
CONTINUOUS
62
7
100
AcDbLine
10
265.711956292817
20
200.881098396737
30
0.0
11
265.711956292817
21
208.881098396737
31
0.0
0
LINE
5
484
100
AcDbEntity
8
0-0
6
CONTINUOUS
62
7
100
AcDbLine
10
266.648122068817
20
200.881098396737
30
0.0
11
266.648122068817
21
208.881098396737
31
0.0
0
LINE
5
485
100
AcDbEntity
8
0-0
6
CONTINUOUS
62
7
100
AcDbLine
10
270.584287844745
20
200.881098396737
30
0.0
11
270.584287844745
21
208.881098396737
31
0.0
0
LINE
5
486
100
AcDbEntity
8
0-0
6
CONTINUOUS
62
7
100
AcDbLine
10
269.648122068746
20
200.881098396737
30
0.0
11
269.648122068746
21
208.881098396737
31
0.0
0
POLYLINE
5
487
100
AcDbEntity
8
0-0
6
CONTINUOUS
62
  7
100
AcDb2dPolyline
66
1
10
0.0
20
0.0
30
0.0
70
0
0
VERTEX
5
488
100
AcDbEntity
8
0-0
6
CONTINUOUS
62
  7
100
AcDbVertex
100
AcDb2dVertex
10
297.148122068781
20
268.881098396737
30
0.0
0
VERTEX
5
489
100
AcDbEntity
8
0-0
6
CONTINUOUS
62
  7
100
AcDbVertex
100
AcDb2dVertex
10
294.148122068781
20
265.881098396737
30
0.0
0
VERTEX
5
48a
100
AcDbEntity
8
0-0
6
CONTINUOUS
62
  7
100
AcDbVertex
100
AcDb2dVertex
10
268.148122068781
20
265.881098396737
30
0.0
0
SEQEND
5
48b
100
AcDbEntity
8
0-0
0
POLYLINE
5
48c
100
AcDbEntity
8
0-0
6
CONTINUOUS
62
  7
100
AcDb2dPolyline
66
1
10
0.0
20
0.0
30
0.0
70
0
0
VERTEX
5
48d
100
AcDbEntity
8
0-0
6
CONTINUOUS
62
  7
100
AcDbVertex
100
AcDb2dVertex
10
239.148122068781
20
268.881098396737
30
0.0
0
VERTEX
5
48e
100
AcDbEntity
8
0-0
6
CONTINUOUS
62
  7
100
AcDbVertex
100
AcDb2dVertex
10
242.148122068781
20
265.881098396737
30
0.0
0
VERTEX
5
48f
100
AcDbEntity
8
0-0
6
CONTINUOUS
62
  7
100
AcDbVertex
100
AcDb2dVertex
10
268.148122068781
20
265.881098396737
30
0.0
0
SEQEND
5
490
100
AcDbEntity
8
0-0
0
LINE
5
491
100
AcDbEntity
8
0-0
6
CONTINUOUS
62
7
100
AcDbLine
10
239.591497741755
20
264.881098396737
30
0.0
11
268.148122068781
21
264.881098396737
31
0.0
0
LINE
5
492
100
AcDbEntity
8
0-0
6
CONTINUOUS
62
7
100
AcDbLine
10
238.148122068781
20
262.381098396737
30
0.0
11
239.591497741755
21
264.881098396737
31
0.0
0
LINE
5
493
100
AcDbEntity
8
0-0
6
CONTINUOUS
62
7
100
AcDbLine
10
298.148122068781
20
264.881098396737
30
0.0
11
268.148122068781
21
264.881098396737
31
0.0
0
LINE
5
494
100
AcDbEntity
8
0-0
6
CONTINUOUS
62
7
100
AcDbLine
10
298.148122068781
20
253.881098396737
30
0.0
11
298.148122068781
21
264.881098396737
31
0.0
0
ARC
5
495
100
AcDbEntity
8
0-0
6
CONTINUOUS
62
7
100
AcDbCircle
10
295.148122068781
20
253.881098396737
30
0.0
40
3.000000000000
100
AcDbArc
50
270.000000000000
51
360.000000000000
0
ARC
5
496
100
AcDbEntity
8
0-0
6
CONTINUOUS
62
7
100
AcDbCircle
10
300.648122068781
20
211.881098396737
30
0.0
40
3.000000000000
100
AcDbArc
50
270.000000000000
51
360.000000000000
0
LINE
5
497
100
AcDbEntity
8
0-0
6
CONTINUOUS
62
7
100
AcDbLine
10
303.648122068781
20
228.313448132856
30
0.0
11
303.648122068781
21
211.881098396737
31
0.0
0
ARC
5
498
100
AcDbEntity
8
0-0
6
CONTINUOUS
62
7
100
AcDbCircle
10
300.648122068781
20
228.313448132856
30
0.0
40
3.000000000000
100
AcDbArc
50
0.000000000000
51
81.119340849480
0
LINE
5
499
100
AcDbEntity
8
0-0
6
CONTINUOUS
62
7
100
AcDbLine
10
275.648122068781
20
250.881098396737
30
0.0
11
295.148122068781
21
250.881098396737
31
0.0
0
ARC
5
49a
100
AcDbEntity
8
0-0
6
CONTINUOUS
62
7
100
AcDbCircle
10
275.648122068781
20
246.881098396737
30
0.0
40
4.000000000000
100
AcDbArc
50
90.000000000000
51
180.000000000000
0
LINE
5
49b
100
AcDbEntity
8
0-0
6
CONTINUOUS
62
7
100
AcDbLine
10
271.648122068781
20
239.304632081913
30
0.0
11
271.648122068781
21
246.881098396737
31
0.0
0
LINE
5
49c
100
AcDbEntity
8
0-0
6
CONTINUOUS
62
7
100
AcDbLine
10
275.030614547686
20
235.352583946908
30
0.0
11
301.111252709602
21
231.277484234109
31
0.0
0
ARC
5
49d
100
AcDbEntity
8
0-0
6
CONTINUOUS
62
7
100
AcDbCircle
10
275.648122068781
20
239.304632081913
30
0.0
40
4.000000000000
100
AcDbArc
50
180.000000000000
51
261.119340849480
0
LINE
5
49e
100
AcDbEntity
8
0-0
6
CONTINUOUS
62
7
100
AcDbLine
10
244.323890264849
20
208.881098396737
30
0.0
11
300.648122068781
21
208.881098396737
31
0.0
0
ARC
5
49f
100
AcDbEntity
8
0-0
6
CONTINUOUS
62
7
100
AcDbCircle
10
244.323890264849
20
212.881098396737
30
0.0
40
4.000000000000
100
AcDbArc
50
180.000000000000
51
270.000000000000
0
LINE
5
4a0
100
AcDbEntity
8
0-0
6
CONTINUOUS
62
7
100
AcDbLine
10
291.717390926616
20
242.604238505592
30
0.0
11
288.553740531963
21
239.440588110938
31
0.0
0
LINE
5
4a1
100
AcDbEntity
8
0-0
6
CONTINUOUS
62
7
100
AcDbLine
10
291.717390926616
20
245.514796868708
30
0.0
11
291.717390926616
21
242.604238505592
31
0.0
0
LINE
5
4a2
100
AcDbEntity
8
0-0
6
CONTINUOUS
62
7
100
AcDbLine
10
271.648122068781
20
245.514796868708
30
0.0
11
291.717390926616
21
245.514796868708
31
0.0
0
LINE
5
4a3
100
AcDbEntity
8
0-0
6
CONTINUOUS
62
7
100
AcDbLine
10
288.553740531963
20
239.440588110938
30
0.0
11
271.648122068781
21
239.440588110938
31
0.0
0
LINE
5
4a4
100
AcDbEntity
8
0-0
6
CONTINUOUS
62
7
100
AcDbLine
10
287.148122068781
20
248.172263200249
30
0.0
11
287.148122068781
21
250.881098396737
31
0.0
0
LINE
5
4a5
100
AcDbEntity
8
0-0
6
CONTINUOUS
62
7
100
AcDbLine
10
287.148122068781
20
248.172263200249
30
0.0
11
271.862241266356
21
248.172263200249
31
0.0
0
LINE
5
4a6
100
AcDbEntity
8
0-0
6
CONTINUOUS
62
7
100
AcDbLine
10
276.148122068781
20
245.514796868708
30
0.0
11
276.148122068781
21
248.172263200249
31
0.0
0
LINE
5
4a7
100
AcDbEntity
8
0-0
6
CONTINUOUS
62
7
100
AcDbLine
10
274.359495761075
20
239.440588110938
30
0.0
11
274.359495761075
21
235.517886481917
31
0.0
0
LINE
5
4a8
100
AcDbEntity
8
0-0
6
CONTINUOUS
62
7
100
AcDbLine
10
238.148122068781
20
262.381098396737
30
0.0
11
298.148122068781
21
262.381098396737
31
0.0
0
LINE
5
4a9
100
AcDbEntity
8
0-1
6
PHANTOM
62
4
100
AcDbLine
10
321.993423261028
20
190.881098396737
30
0.0
11
200.940066682433
21
190.881098396737
31
0.0
0
ARC
5
4aa
100
AcDbEntity
8
0-0
6
CONTINUOUS
62
7
100
AcDbCircle
10
90.781370690782
20
255.638457709618
30
0.0
40
3.000000000000
100
AcDbArc
50
135.000000000000
51
180.000000000000
0
LINE
5
4ab
100
AcDbEntity
8
0-0
6
CONTINUOUS
62
7
100
AcDbLine
10
88.660050347222
20
257.759778053178
30
0.0
11
93.281370690782
21
262.381098396737
31
0.0
0
POLYLINE
5
4ac
100
AcDbEntity
8
0-0
6
CONTINUOUS
62
  7
100
AcDb2dPolyline
66
1
10
0.0
20
0.0
30
0.0
70
0
0
VERTEX
5
4ad
100
AcDbEntity
8
0-0
6
CONTINUOUS
62
  7
100
AcDbVertex
100
AcDb2dVertex
10
152.281370690782
20
268.881098396737
30
0.0
0
VERTEX
5
4ae
100
AcDbEntity
8
0-0
6
CONTINUOUS
62
  7
100
AcDbVertex
100
AcDb2dVertex
10
149.281370690782
20
265.881098396737
30
0.0
0
VERTEX
5
4af
100
AcDbEntity
8
0-0
6
CONTINUOUS
62
  7
100
AcDbVertex
100
AcDb2dVertex
10
123.281370690782
20
265.881098396737
30
0.0
0
SEQEND
5
4b0
100
AcDbEntity
8
0-0
0
POLYLINE
5
4b1
100
AcDbEntity
8
0-0
6
CONTINUOUS
62
  7
100
AcDb2dPolyline
66
1
10
0.0
20
0.0
30
0.0
70
0
0
VERTEX
5
4b2
100
AcDbEntity
8
0-0
6
CONTINUOUS
62
  7
100
AcDbVertex
100
AcDb2dVertex
10
94.281370690782
20
268.881098396737
30
0.0
0
VERTEX
5
4b3
100
AcDbEntity
8
0-0
6
CONTINUOUS
62
  7
100
AcDbVertex
100
AcDb2dVertex
10
97.281370690782
20
265.881098396737
30
0.0
0
VERTEX
5
4b4
100
AcDbEntity
8
0-0
6
CONTINUOUS
62
  7
100
AcDbVertex
100
AcDb2dVertex
10
123.281370690782
20
265.881098396737
30
0.0
0
SEQEND
5
4b5
100
AcDbEntity
8
0-0
0
LINE
5
4b6
100
AcDbEntity
8
0-0
6
CONTINUOUS
62
7
100
AcDbLine
10
94.724746363756
20
264.881098396737
30
0.0
11
123.281370690782
21
264.881098396737
31
0.0
0
LINE
5
4b7
100
AcDbEntity
8
0-0
6
CONTINUOUS
62
7
100
AcDbLine
10
93.281370690782
20
262.381098396737
30
0.0
11
94.724746363756
21
264.881098396737
31
0.0
0
LINE
5
4b8
100
AcDbEntity
8
0-0
6
CONTINUOUS
62
7
100
AcDbLine
10
87.781370690782
20
211.881098396737
30
0.0
11
87.781370690782
21
255.638457709618
31
0.0
0
ARC
5
4b9
100
AcDbEntity
8
0-0
6
CONTINUOUS
62
7
100
AcDbCircle
10
90.781370690782
20
211.881098396737
30
0.0
40
3.000000000000
100
AcDbArc
50
180.000000000000
51
270.000000000000
0
ARC
5
4ba
100
AcDbEntity
8
0-0
6
CONTINUOUS
62
7
100
AcDbCircle
10
155.781370690782
20
255.638457709618
30
0.0
40
3.000000000000
100
AcDbArc
50
0.000000000000
51
45.000000000000
0
LINE
5
4bb
100
AcDbEntity
8
0-0
6
CONTINUOUS
62
7
100
AcDbLine
10
157.902691034342
20
257.759778053178
30
0.0
11
153.281370690782
21
262.381098396737
31
0.0
0
LINE
5
4bc
100
AcDbEntity
8
0-0
6
CONTINUOUS
62
7
100
AcDbLine
10
158.781370690782
20
211.881098396737
30
0.0
11
158.781370690782
21
255.638457709618
31
0.0
0
ARC
5
4bd
100
AcDbEntity
8
0-0
6
CONTINUOUS
62
7
100
AcDbCircle
10
155.781370690782
20
211.881098396737
30
0.0
40
3.000000000000
100
AcDbArc
50
270.000000000000
51
360.000000000000
0
LINE
5
4be
100
AcDbEntity
8
0-0
6
CONTINUOUS
62
7
100
AcDbLine
10
151.837995017808
20
264.881098396737
30
0.0
11
123.281370690782
21
264.881098396737
31
0.0
0
LINE
5
4bf
100
AcDbEntity
8
0-0
6
CONTINUOUS
62
7
100
AcDbLine
10
153.281370690782
20
262.381098396737
30
0.0
11
151.837995017808
21
264.881098396737
31
0.0
0
ARC
5
4c0
100
AcDbEntity
8
0-0
6
CONTINUOUS
62
7
100
AcDbCircle
10
103.281370690782
20
204.381098396737
30
0.0
40
3.000000000000
100
AcDbArc
50
180.000000000000
51
270.000000000000
0
ARC
5
4c1
100
AcDbEntity
8
0-0
6
CONTINUOUS
62
7
100
AcDbCircle
10
143.281370690782
20
204.381098396737
30
0.0
40
3.000000000000
100
AcDbArc
50
270.000000000000
51
360.000000000000
0
LINE
5
4c2
100
AcDbEntity
8
0-0
6
CONTINUOUS
62
7
100
AcDbLine
10
149.281370690782
20
200.881098396737
30
0.0
11
149.814704024115
21
208.881098396737
31
0.0
0
LINE
5
4c3
100
AcDbEntity
8
0-0
6
CONTINUOUS
62
7
100
AcDbLine
10
97.281370690782
20
200.881098396737
30
0.0
11
96.748037357449
21
208.881098396737
31
0.0
0
LINE
5
4c4
100
AcDbEntity
8
0-0
6
CONTINUOUS
62
7
100
AcDbLine
10
97.281370690782
20
200.881098396737
30
0.0
11
110.731370690782
21
200.881098396737
31
0.0
0
LINE
5
4c5
100
AcDbEntity
8
0-0
6
CONTINUOUS
62
7
100
AcDbLine
10
135.831370690782
20
200.881098396737
30
0.0
11
149.281370690782
21
200.881098396737
31
0.0
0
LINE
5
4c6
100
AcDbEntity
8
0-0
6
CONTINUOUS
62
7
100
AcDbLine
10
155.781370690782
20
208.881098396737
30
0.0
11
146.281370690782
21
208.881098396737
31
0.0
0
LINE
5
4c7
100
AcDbEntity
8
0-0
6
CONTINUOUS
62
7
100
AcDbLine
10
100.281370690782
20
208.881098396737
30
0.0
11
90.781370690782
21
208.881098396737
31
0.0
0
ARC
5
4c8
100
AcDbEntity
8
0-0
6
CONTINUOUS
62
7
100
AcDbCircle
10
123.281370690782
20
301.195386123697
30
0.0
40
46.360499061198
100
AcDbArc
50
246.673315383399
51
293.142758516965
0
LINE
5
4c9
100
AcDbEntity
8
0-0
6
CONTINUOUS
62
7
100
AcDbLine
10
93.281370690782
20
262.381098396737
30
0.0
11
153.281370690782
21
262.381098396737
31
0.0
0
LINE
5
4ca
100
AcDbEntity
8
0-0
6
CONTINUOUS
62
7
100
AcDbLine
10
102.281370690782
20
220.947735423586
30
0.0
11
102.281370690782
21
259.967307348621
31
0.0
0
LINE
5
4cb
100
AcDbEntity
8
0-0
6
CONTINUOUS
62
7
100
AcDbLine
10
144.281370690782
20
220.947735423586
30
0.0
11
144.281370690782
21
259.967307348621
31
0.0
0
LINE
5
4cc
100
AcDbEntity
8
0-0
6
CONTINUOUS
62
7
100
AcDbLine
10
100.281370690782
20
228.381098396737
30
0.0
11
100.281370690782
21
204.381098396737
31
0.0
0
LINE
5
4cd
100
AcDbEntity
8
0-0
6
CONTINUOUS
62
7
100
AcDbLine
10
146.281370690782
20
228.381098396737
30
0.0
11
146.281370690782
21
204.381098396737
31
0.0
0
ARC
5
4ce
100
AcDbEntity
8
0-0
6
CONTINUOUS
62
7
100
AcDbCircle
10
103.281370690782
20
228.381098396737
30
0.0
40
3.000000000000
100
AcDbArc
50
109.471220634491
51
180.000000000000
0
ARC
5
4cf
100
AcDbEntity
8
0-0
6
CONTINUOUS
62
7
100
AcDbCircle
10
143.281370690782
20
228.381098396737
30
0.0
40
3.000000000000
100
AcDbArc
50
0.000000000000
51
70.528779365509
0
LINE
5
4d0
100
AcDbEntity
8
0-1
6
CENTER
62
4
100
AcDbLine
10
123.281370690782
20
180.173401079590
30
0.0
11
123.281370690782
21
276.616144737957
31
0.0
0
LINE
5
4d1
100
AcDbEntity
8
0-1
6
PHANTOM
62
4
100
AcDbLine
10
243.899410762817
20
184.381098396737
30
0.0
11
243.899410762817
21
200.294581126814
31
0.0
0
LINE
5
4d2
100
AcDbEntity
8
0-0
6
CONTINUOUS
62
7
100
AcDbLine
10
224.415157064539
20
246.649971863901
30
0.0
11
216.360161183301
21
221.447735423586
31
0.0
0
ARC
5
4d3
100
AcDbEntity
8
0-0
6
CONTINUOUS
62
7
100
AcDbCircle
10
242.136101709593
20
240.986104037312
30
0.0
40
18.604066164958
100
AcDbArc
50
92.878584898104
51
162.275375374045
0
ARC
5
4d4
100
AcDbEntity
8
0-0
6
CONTINUOUS
62
7
100
AcDbCircle
10
230.648122068781
20
216.881098396737
30
0.0
40
13.000000000000
100
AcDbArc
50
41.901860400799
51
329.344203644595
0
ARC
5
4d5
100
AcDbEntity
8
0-0
6
CONTINUOUS
62
7
100
AcDbCircle
10
230.648122068781
20
216.881098396737
30
0.0
40
15.000000000000
100
AcDbArc
50
49.830484642209
51
330.237432530304
0
LINE
5
4d6
100
AcDbEntity
8
0-0
6
CONTINUOUS
62
2
100
AcDbLine
10
233.748121973414
20
216.261098391969
30
0.0
11
233.748121973414
21
217.501098401506
31
0.0
0
LINE
5
4d7
100
AcDbEntity
8
0-0
6
CONTINUOUS
62
2
100
AcDbLine
10
230.028122064013
20
219.981098301370
30
0.0
11
231.268122073549
21
219.981098301370
31
0.0
0
LINE
5
4d8
100
AcDbEntity
8
0-0
6
CONTINUOUS
62
2
100
AcDbLine
10
227.548122164148
20
216.261098391969
30
0.0
11
227.548122164148
21
217.501098401506
31
0.0
0
LINE
5
4d9
100
AcDbEntity
8
0-0
6
CONTINUOUS
62
2
100
AcDbLine
10
230.028122064013
20
213.781098492105
30
0.0
11
231.268122073549
21
213.781098492105
31
0.0
0
LINE
5
4da
100
AcDbEntity
8
0-0
6
CONTINUOUS
62
2
100
AcDbLine
10
231.268122073549
20
218.741098411042
30
0.0
11
231.268122073549
21
219.981098301370
31
0.0
0
LINE
5
4db
100
AcDbEntity
8
0-0
6
CONTINUOUS
62
2
100
AcDbLine
10
232.508122083086
20
217.501098401506
30
0.0
11
233.748121973414
21
217.501098401506
31
0.0
0
LINE
5
4dc
100
AcDbEntity
8
0-0
6
CONTINUOUS
62
2
100
AcDbLine
10
232.508122083086
20
216.261098391969
30
0.0
11
233.748121973414
21
216.261098391969
31
0.0
0
LINE
5
4dd
100
AcDbEntity
8
0-0
6
CONTINUOUS
62
2
100
AcDbLine
10
231.268122073549
20
215.021098382432
30
0.0
11
231.268122073549
21
213.781098492105
31
0.0
0
LINE
5
4de
100
AcDbEntity
8
0-0
6
CONTINUOUS
62
2
100
AcDbLine
10
230.028122064013
20
215.021098382432
30
0.0
11
230.028122064013
21
213.781098492105
31
0.0
0
LINE
5
4df
100
AcDbEntity
8
0-0
6
CONTINUOUS
62
2
100
AcDbLine
10
228.788122054476
20
216.261098391969
30
0.0
11
227.548122164148
21
216.261098391969
31
0.0
0
LINE
5
4e0
100
AcDbEntity
8
0-0
6
CONTINUOUS
62
2
100
AcDbLine
10
228.788122054476
20
217.501098401506
30
0.0
11
227.548122164148
21
217.501098401506
31
0.0
0
LINE
5
4e1
100
AcDbEntity
8
0-0
6
CONTINUOUS
62
2
100
AcDbLine
10
230.028122064013
20
218.741098411042
30
0.0
11
230.028122064013
21
219.981098301370
31
0.0
0
CIRCLE
5
4e2
100
AcDbEntity
8
0-0
6
CONTINUOUS
62
2
100
AcDbCircle
10
230.648122068781
20
216.881098396737
30
0.0
40
5.250000000000
0
ARC
5
4e3
100
AcDbEntity
8
0-0
6
CONTINUOUS
62
2
100
AcDbCircle
10
232.508122083086
20
218.741098411042
30
0.0
40
1.240000009537
100
AcDbArc
50
180.000000000000
51
270.000000000000
0
ARC
5
4e4
100
AcDbEntity
8
0-0
6
CONTINUOUS
62
2
100
AcDbCircle
10
232.508122083086
20
215.021098382432
30
0.0
40
1.240000009537
100
AcDbArc
50
90.000000000000
51
180.000000000000
0
ARC
5
4e5
100
AcDbEntity
8
0-0
6
CONTINUOUS
62
2
100
AcDbCircle
10
228.788122054476
20
215.021098382432
30
0.0
40
1.240000009537
100
AcDbArc
50
0.000000000000
51
90.000000000000
0
ARC
5
4e6
100
AcDbEntity
8
0-0
6
CONTINUOUS
62
2
100
AcDbCircle
10
228.788122054476
20
218.741098411042
30
0.0
40
1.240000009537
100
AcDbArc
50
270.000000000000
51
360.000000000000
0
CIRCLE
5
4e7
100
AcDbEntity
8
0-0
6
CONTINUOUS
62
7
100
AcDbCircle
10
230.648122068781
20
216.881098396737
30
0.0
40
6.350000000000
0
ARC
5
4e8
100
AcDbEntity
8
0-0
6
CONTINUOUS
62
7
100
AcDbCircle
10
230.648122068781
20
216.881098396737
30
0.0
40
18.000000000000
100
AcDbArc
50
128.718065612124
51
317.407247847038
0
LINE
5
4e9
100
AcDbEntity
8
0-1
6
CENTER
62
4
100
AcDbLine
10
199.823221623343
20
216.881098396737
30
0.0
11
260.404873422796
21
216.881098396737
31
0.0
0
LINE
5
4ea
100
AcDbEntity
8
0-1
6
CENTER
62
4
100
AcDbLine
10
230.648122068781
20
186.902615392610
30
0.0
11
230.648122068781
21
248.845122413820
31
0.0
0
ARC
5
4eb
100
AcDbEntity
8
0-0
6
CONTINUOUS
62
2
100
AcDbCircle
10
110.031370691251
20
216.381098396737
30
0.0
40
14.000000000000
100
AcDbArc
50
164.637512207031
51
195.362472534180
0
ARC
5
4ec
100
AcDbEntity
8
0-0
6
CONTINUOUS
62
2
100
AcDbCircle
10
98.363714508009
20
213.175508148629
30
0.0
40
1.899999976158
100
AcDbArc
50
195.362472534180
51
257.128578067321
0
LINE
5
4ed
100
AcDbEntity
8
0-0
6
CONTINUOUS
62
2
100
AcDbLine
10
98.781370690782
20
211.131098396737
30
0.0
11
97.940463111797
21
211.323250562599
31
0.0
0
ARC
5
4ee
100
AcDbEntity
8
0-0
6
CONTINUOUS
62
2
100
AcDbCircle
10
98.363714508009
20
219.586688644845
30
0.0
40
1.899999976158
100
AcDbArc
50
102.871421932678
51
164.637527465820
0
LINE
5
4ef
100
AcDbEntity
8
0-0
6
CONTINUOUS
62
2
100
AcDbLine
10
98.781370690782
20
221.631098396737
30
0.0
11
97.940463111797
21
221.438946230875
31
0.0
0
POLYLINE
5
4f0
100
AcDbEntity
8
0-0
6
CONTINUOUS
62
  2
100
AcDb2dPolyline
66
1
10
0.0
20
0.0
30
0.0
70
0
0
VERTEX
5
4f1
100
AcDbEntity
8
0-0
6
CONTINUOUS
62
  2
100
AcDbVertex
100
AcDb2dVertex
10
98.781370690782
20
222.731098396737
30
0.0
0
VERTEX
5
4f2
100
AcDbEntity
8
0-0
6
CONTINUOUS
62
  2
100
AcDbVertex
100
AcDb2dVertex
10
98.781370690782
20
210.031098396737
30
0.0
0
VERTEX
5
4f3
100
AcDbEntity
8
0-0
6
CONTINUOUS
62
  2
100
AcDbVertex
100
AcDb2dVertex
10
100.281370690782
20
210.031098396737
30
0.0
0
SEQEND
5
4f4
100
AcDbEntity
8
0-0
0
LINE
5
4f5
100
AcDbEntity
8
0-0
6
CONTINUOUS
62
2
100
AcDbLine
10
100.281370690782
20
222.731098396737
30
0.0
11
98.781370690782
21
222.731098396737
31
0.0
0
ARC
5
4f6
100
AcDbEntity
8
0-0
6
CONTINUOUS
62
2
100
AcDbCircle
10
136.531370690312
20
216.381098396737
30
0.0
40
14.000000000000
100
AcDbArc
50
344.637527465820
51
375.362487792969
0
ARC
5
4f7
100
AcDbEntity
8
0-0
6
CONTINUOUS
62
2
100
AcDbCircle
10
148.199026873555
20
213.175508148629
30
0.0
40
1.899999976158
100
AcDbArc
50
282.871421932679
51
344.637527465820
0
LINE
5
4f8
100
AcDbEntity
8
0-0
6
CONTINUOUS
62
2
100
AcDbLine
10
147.781370690782
20
211.131098396737
30
0.0
11
148.622278269766
21
211.323250562599
31
0.0
0
ARC
5
4f9
100
AcDbEntity
8
0-0
6
CONTINUOUS
62
2
100
AcDbCircle
10
148.199026873555
20
219.586688644845
30
0.0
40
1.899999976158
100
AcDbArc
50
15.362472534180
51
77.128578067321
0
LINE
5
4fa
100
AcDbEntity
8
0-0
6
CONTINUOUS
62
2
100
AcDbLine
10
147.781370690782
20
221.631098396737
30
0.0
11
148.622278269766
21
221.438946230875
31
0.0
0
POLYLINE
5
4fb
100
AcDbEntity
8
0-0
6
CONTINUOUS
62
  2
100
AcDb2dPolyline
66
1
10
0.0
20
0.0
30
0.0
70
0
0
VERTEX
5
4fc
100
AcDbEntity
8
0-0
6
CONTINUOUS
62
  2
100
AcDbVertex
100
AcDb2dVertex
10
147.781370690782
20
222.731098396737
30
0.0
0
VERTEX
5
4fd
100
AcDbEntity
8
0-0
6
CONTINUOUS
62
  2
100
AcDbVertex
100
AcDb2dVertex
10
147.781370690782
20
210.031098396737
30
0.0
0
VERTEX
5
4fe
100
AcDbEntity
8
0-0
6
CONTINUOUS
62
  2
100
AcDbVertex
100
AcDb2dVertex
10
146.281370690782
20
210.031098396737
30
0.0
0
SEQEND
5
4ff
100
AcDbEntity
8
0-0
0
LINE
5
500
100
AcDbEntity
8
0-0
6
CONTINUOUS
62
2
100
AcDbLine
10
146.281370690782
20
222.731098396737
30
0.0
11
147.781370690782
21
222.731098396737
31
0.0
0
LINE
5
501
100
AcDbEntity
8
0-1
6
CENTER
62
4
100
AcDbLine
10
97.506573889776
20
216.881098396737
30
0.0
11
149.971731604923
21
216.881098396737
31
0.0
0
ARC
5
502
100
AcDbEntity
8
0-0
6
CONTINUOUS
62
7
100
AcDbCircle
10
134.831370690781
20
241.024005970326
30
0.0
40
1.000000000000
100
AcDbArc
50
0.000000000000
51
81.512045929208
0
ARC
5
503
100
AcDbEntity
8
0-0
6
CONTINUOUS
62
7
100
AcDbCircle
10
123.281370690782
20
163.629848418372
30
0.0
40
79.251249978365
100
AcDbArc
50
81.512045929208
51
98.487954070792
0
ARC
5
504
100
AcDbEntity
8
0-0
6
CONTINUOUS
62
7
100
AcDbCircle
10
111.731370690782
20
241.024005970326
30
0.0
40
1.000000000000
100
AcDbArc
50
98.487954070792
51
180.000000000000
0
LINE
5
505
100
AcDbEntity
8
0-0
6
CONTINUOUS
62
7
100
AcDbLine
10
137.281370690782
20
243.881098396737
30
0.0
11
109.281370690782
21
243.881098396737
31
0.0
0
ARC
5
506
100
AcDbEntity
8
0-0
6
CONTINUOUS
62
7
100
AcDbCircle
10
111.731370690782
20
192.738190823149
30
0.0
40
1.000000000000
100
AcDbArc
50
180.000000000000
51
261.512045929208
0
ARC
5
507
100
AcDbEntity
8
0-0
6
CONTINUOUS
62
7
100
AcDbCircle
10
123.281370690782
20
270.132348375102
30
0.0
40
79.251249978365
100
AcDbArc
50
261.512045929208
51
278.487954070792
0
ARC
5
508
100
AcDbEntity
8
0-0
6
CONTINUOUS
62
7
100
AcDbCircle
10
134.831370690781
20
192.738190823149
30
0.0
40
1.000000000000
100
AcDbArc
50
278.487954070792
51
360.000000000000
0
LINE
5
509
100
AcDbEntity
8
0-0
6
CONTINUOUS
62
7
100
AcDbLine
10
110.731370690782
20
241.024005970326
30
0.0
11
110.731370690782
21
192.738190823149
31
0.0
0
LINE
5
50a
100
AcDbEntity
8
0-0
6
CONTINUOUS
62
7
100
AcDbLine
10
135.831370690782
20
241.024005970326
30
0.0
11
135.831370690782
21
192.738190823149
31
0.0
0
LINE
5
50b
100
AcDbEntity
8
0-0
6
CONTINUOUS
62
7
100
AcDbLine
10
137.281370690782
20
201.381098396737
30
0.0
11
137.281370690782
21
243.881098396737
31
0.0
0
LINE
5
50c
100
AcDbEntity
8
0-0
6
CONTINUOUS
62
7
100
AcDbLine
10
143.281370690782
20
201.381098396737
30
0.0
11
137.281370690782
21
201.381098396737
31
0.0
0
LINE
5
50d
100
AcDbEntity
8
0-0
6
CONTINUOUS
62
7
100
AcDbLine
10
109.281370690782
20
201.381098396737
30
0.0
11
109.281370690782
21
243.881098396737
31
0.0
0
LINE
5
50e
100
AcDbEntity
8
0-0
6
CONTINUOUS
62
7
100
AcDbLine
10
103.281370690782
20
201.381098396737
30
0.0
11
109.281370690782
21
201.381098396737
31
0.0
0
LINE
5
50f
100
AcDbEntity
8
0-0
6
CONTINUOUS
62
7
100
AcDbLine
10
240.323890264849
20
212.881098396737
30
0.0
11
240.323890264849
21
257.430302042888
31
0.0
0
ARC
5
510
100
AcDbEntity
8
0-0
6
CONTINUOUS
62
7
100
AcDbCircle
10
243.323890264849
20
257.430302042888
30
0.0
40
3.000000000000
100
AcDbArc
50
135.000000000000
51
180.000000000000
0
LINE
5
511
100
AcDbEntity
8
0-0
6
CONTINUOUS
62
7
100
AcDbLine
10
232.906087901757
20
257.139064229713
30
0.0
11
238.148122068781
21
262.381098396737
31
0.0
0
ARC
5
512
100
AcDbEntity
8
0-0
6
CONTINUOUS
62
7
100
AcDbCircle
10
230.648122068781
20
216.881098396737
30
0.0
40
26.000000000000
100
AcDbArc
50
108.307254446516
51
322.020127555148
0
LINE
5
513
100
AcDbEntity
8
0-0
6
CONTINUOUS
62
7
100
AcDbLine
10
37.671454136409
20
268.881098396737
30
0.0
11
173.281370690782
21
268.881098396737
31
0.0
0
LINE
5
514
100
AcDbEntity
8
0-0
6
CONTINUOUS
62
7
100
AcDbLine
10
30.281370690782
20
265.081098396737
30
0.0
11
33.745472305919
21
263.081098396737
31
0.0
0
LINE
5
515
100
AcDbEntity
8
0-0
6
CONTINUOUS
62
7
100
AcDbLine
10
36.805428732624
20
268.381098396737
30
0.0
11
33.745472305919
21
263.081098396737
31
0.0
0
ARC
5
516
100
AcDbEntity
8
0-0
6
CONTINUOUS
62
7
100
AcDbCircle
10
37.671454136409
20
267.881098396737
30
0.0
40
1.000000000000
100
AcDbArc
50
90.000000000000
51
150.000000000000
0
LINE
5
517
100
AcDbEntity
8
0-0
6
CONTINUOUS
62
7
100
AcDbLine
10
33.341327117487
20
270.381098396737
30
0.0
11
30.281370690782
21
265.081098396737
31
0.0
0
ARC
5
518
100
AcDbEntity
8
0-0
6
CONTINUOUS
62
7
100
AcDbCircle
10
37.671454136409
20
267.881098396737
30
0.0
40
5.000000000000
100
AcDbArc
50
90.000000000000
51
150.000000000000
0
LINE
5
519
100
AcDbEntity
8
0-0
6
CONTINUOUS
62
7
100
AcDbLine
10
37.671454136409
20
272.881098396737
30
0.0
11
173.281370690782
21
272.881098396737
31
0.0
0
LINE
5
51a
100
AcDbEntity
8
0-0
6
CONTINUOUS
62
7
100
AcDbLine
10
173.281370690782
20
268.881098396737
30
0.0
11
173.281370690782
21
272.881098396737
31
0.0
0
ARC
5
51b
100
AcDbEntity
8
0-0
6
CONTINUOUS
62
7
100
AcDbCircle
10
148.105602494714
20
257.430302042888
30
0.0
40
3.000000000000
100
AcDbArc
50
0.000000000000
51
45.000000000000
0
LINE
5
51c
100
AcDbEntity
8
0-1
6
CENTER
62
4
100
AcDbLine
10
268.148122068781
20
182.155833449008
30
0.0
11
268.148122068781
21
285.385044545313
31
0.0
0
LINE
5
51d
100
AcDbEntity
8
0-1
6
CENTER
62
4
100
AcDbLine
10
288.148122068781
20
282.669440026622
30
0.0
11
288.148122068781
21
256.331762220417
31
0.0
0
LINE
5
51e
100
AcDbEntity
8
0-1
6
CENTER
62
4
100
AcDbLine
10
323.148122068781
20
282.669440026622
30
0.0
11
323.148122068781
21
256.331762220417
31
0.0
0
LINE
5
51f
100
AcDbEntity
8
0-C
6
PHANTOM
62
6
100
AcDbLine
10
244.068122068781
20
272.881098396737
30
0.0
11
236.468122068781
21
272.881098396737
31
0.0
0
LINE
5
520
100
AcDbEntity
8
0-C
6
PHANTOM
62
6
100
AcDbLine
10
236.168122068781
20
273.181098396737
30
0.0
11
236.168122068781
21
274.381098396737
31
0.0
0
LINE
5
521
100
AcDbEntity
8
0-C
6
PHANTOM
62
6
100
AcDbLine
10
236.468122068781
20
274.681098396737
30
0.0
11
238.268122068781
21
274.681098396737
31
0.0
0
LINE
5
522
100
AcDbEntity
8
0-C
6
PHANTOM
62
6
100
AcDbLine
10
238.568122068781
20
274.981098396737
30
0.0
11
238.568122068781
21
277.756834328025
31
0.0
0
LINE
5
523
100
AcDbEntity
8
0-C
6
PHANTOM
62
6
100
AcDbLine
10
238.480254103137
20
277.968966362381
30
0.0
11
237.455990034425
21
278.993230431093
31
0.0
0
LINE
5
524
100
AcDbEntity
8
0-C
6
PHANTOM
62
6
100
AcDbLine
10
237.243858000069
20
279.081098396737
30
0.0
11
227.892386137493
21
279.081098396737
31
0.0
0
LINE
5
525
100
AcDbEntity
8
0-C
6
PHANTOM
62
6
100
AcDbLine
10
227.680254103137
20
278.993230431093
30
0.0
11
226.655990034425
21
277.968966362381
31
0.0
0
LINE
5
526
100
AcDbEntity
8
0-C
6
PHANTOM
62
6
100
AcDbLine
10
226.568122068781
20
277.756834328025
30
0.0
11
226.568122068781
21
274.981098396737
31
0.0
0
LINE
5
527
100
AcDbEntity
8
0-C
6
PHANTOM
62
6
100
AcDbLine
10
226.868122068781
20
274.681098396737
30
0.0
11
228.668122068781
21
274.681098396737
31
0.0
0
LINE
5
528
100
AcDbEntity
8
0-C
6
PHANTOM
62
6
100
AcDbLine
10
228.968122068781
20
274.381098396737
30
0.0
11
228.968122068781
21
273.181098396737
31
0.0
0
LINE
5
529
100
AcDbEntity
8
0-C
6
PHANTOM
62
6
100
AcDbLine
10
228.668122068781
20
272.881098396737
30
0.0
11
221.068122068781
21
272.881098396737
31
0.0
0
LINE
5
52a
100
AcDbEntity
8
0-C
6
PHANTOM
62
6
100
AcDbLine
10
220.068122068781
20
273.881098396737
30
0.0
11
220.068122068781
21
281.481098396737
31
0.0
0
LINE
5
52b
100
AcDbEntity
8
0-C
6
PHANTOM
62
6
100
AcDbLine
10
220.368122068781
20
281.781098396737
30
0.0
11
221.568122068781
21
281.781098396737
31
0.0
0
LINE
5
52c
100
AcDbEntity
8
0-C
6
PHANTOM
62
6
100
AcDbLine
10
221.868122068781
20
281.481098396737
30
0.0
11
221.868122068781
21
279.681098396737
31
0.0
0
LINE
5
52d
100
AcDbEntity
8
0-C
6
PHANTOM
62
6
100
AcDbLine
10
222.168122068781
20
279.381098396737
30
0.0
11
224.943858000069
21
279.381098396737
31
0.0
0
LINE
5
52e
100
AcDbEntity
8
0-C
6
PHANTOM
62
6
100
AcDbLine
10
225.155990034425
20
279.468966362381
30
0.0
11
226.180254103137
21
280.493230431093
31
0.0
0
POLYLINE
5
52f
100
AcDbEntity
8
0-C
6
PHANTOM
62
  6
100
AcDb2dPolyline
66
1
10
0.0
20
0.0
30
0.0
70
0
0
VERTEX
5
530
100
AcDbEntity
8
0-C
6
PHANTOM
62
  6
100
AcDbVertex
100
AcDb2dVertex
10
226.268122068781
20
280.705362465449
30
0.0
0
VERTEX
5
531
100
AcDbEntity
8
0-C
6
PHANTOM
62
  6
100
AcDbVertex
100
AcDb2dVertex
10
226.268122068781
20
285.181098396737
30
0.0
0
VERTEX
5
532
100
AcDbEntity
8
0-C
6
PHANTOM
62
  6
100
AcDbVertex
100
AcDb2dVertex
10
226.468122068781
20
285.381098396737
30
0.0
0
VERTEX
5
533
100
AcDbEntity
8
0-C
6
PHANTOM
62
  6
100
AcDbVertex
100
AcDb2dVertex
10
226.268122068781
20
285.581098396737
30
0.0
0
VERTEX
5
534
100
AcDbEntity
8
0-C
6
PHANTOM
62
  6
100
AcDbVertex
100
AcDb2dVertex
10
226.268122068781
20
290.056834328025
30
0.0
0
SEQEND
5
535
100
AcDbEntity
8
0-C
0
LINE
5
536
100
AcDbEntity
8
0-C
6
PHANTOM
62
6
100
AcDbLine
10
226.180254103137
20
290.268966362381
30
0.0
11
225.155990034425
21
291.293230431093
31
0.0
0
LINE
5
537
100
AcDbEntity
8
0-C
6
PHANTOM
62
6
100
AcDbLine
10
224.943858000069
20
291.381098396737
30
0.0
11
222.168122068781
21
291.381098396737
31
0.0
0
LINE
5
538
100
AcDbEntity
8
0-C
6
PHANTOM
62
6
100
AcDbLine
10
221.868122068781
20
291.081098396737
30
0.0
11
221.868122068781
21
289.281098396737
31
0.0
0
LINE
5
539
100
AcDbEntity
8
0-C
6
PHANTOM
62
6
100
AcDbLine
10
221.568122068781
20
288.981098396737
30
0.0
11
220.368122068781
21
288.981098396737
31
0.0
0
LINE
5
53a
100
AcDbEntity
8
0-C
6
PHANTOM
62
6
100
AcDbLine
10
220.068122068781
20
289.281098396737
30
0.0
11
220.068122068781
21
296.881098396737
31
0.0
0
LINE
5
53b
100
AcDbEntity
8
0-C
6
PHANTOM
62
6
100
AcDbLine
10
221.068122068781
20
297.881098396737
30
0.0
11
228.668122068781
21
297.881098396737
31
0.0
0
LINE
5
53c
100
AcDbEntity
8
0-C
6
PHANTOM
62
6
100
AcDbLine
10
228.968122068781
20
297.581098396737
30
0.0
11
228.968122068781
21
296.381098396737
31
0.0
0
LINE
5
53d
100
AcDbEntity
8
0-C
6
PHANTOM
62
6
100
AcDbLine
10
228.668122068781
20
296.081098396737
30
0.0
11
226.868122068781
21
296.081098396737
31
0.0
0
LINE
5
53e
100
AcDbEntity
8
0-C
6
PHANTOM
62
6
100
AcDbLine
10
226.568122068781
20
295.781098396737
30
0.0
11
226.568122068781
21
293.005362465449
31
0.0
0
LINE
5
53f
100
AcDbEntity
8
0-C
6
PHANTOM
62
6
100
AcDbLine
10
226.655990034425
20
292.793230431093
30
0.0
11
227.680254103137
21
291.768966362381
31
0.0
0
LINE
5
540
100
AcDbEntity
8
0-C
6
PHANTOM
62
6
100
AcDbLine
10
227.892386137493
20
291.681098396737
30
0.0
11
237.243858000069
21
291.681098396737
31
0.0
0
LINE
5
541
100
AcDbEntity
8
0-C
6
PHANTOM
62
6
100
AcDbLine
10
237.455990034425
20
291.768966362381
30
0.0
11
238.480254103137
21
292.793230431093
31
0.0
0
LINE
5
542
100
AcDbEntity
8
0-C
6
PHANTOM
62
6
100
AcDbLine
10
238.568122068781
20
293.005362465449
30
0.0
11
238.568122068781
21
295.781098396737
31
0.0
0
LINE
5
543
100
AcDbEntity
8
0-C
6
PHANTOM
62
6
100
AcDbLine
10
238.268122068781
20
296.081098396737
30
0.0
11
236.468122068781
21
296.081098396737
31
0.0
0
LINE
5
544
100
AcDbEntity
8
0-C
6
PHANTOM
62
6
100
AcDbLine
10
236.168122068781
20
296.381098396737
30
0.0
11
236.168122068781
21
297.581098396737
31
0.0
0
LINE
5
545
100
AcDbEntity
8
0-C
6
PHANTOM
62
6
100
AcDbLine
10
236.468122068781
20
297.881098396737
30
0.0
11
244.068122068781
21
297.881098396737
31
0.0
0
LINE
5
546
100
AcDbEntity
8
0-C
6
PHANTOM
62
6
100
AcDbLine
10
245.068122068781
20
296.881098396737
30
0.0
11
245.068122068781
21
289.281098396737
31
0.0
0
LINE
5
547
100
AcDbEntity
8
0-C
6
PHANTOM
62
6
100
AcDbLine
10
244.768122068781
20
288.981098396737
30
0.0
11
243.568122068781
21
288.981098396737
31
0.0
0
LINE
5
548
100
AcDbEntity
8
0-C
6
PHANTOM
62
6
100
AcDbLine
10
243.268122068781
20
289.281098396737
30
0.0
11
243.268122068781
21
291.081098396737
31
0.0
0
LINE
5
549
100
AcDbEntity
8
0-C
6
PHANTOM
62
6
100
AcDbLine
10
242.968122068781
20
291.381098396737
30
0.0
11
240.192386137493
21
291.381098396737
31
0.0
0
LINE
5
54a
100
AcDbEntity
8
0-C
6
PHANTOM
62
6
100
AcDbLine
10
239.980254103137
20
291.293230431093
30
0.0
11
238.955990034425
21
290.268966362381
31
0.0
0
POLYLINE
5
54b
100
AcDbEntity
8
0-C
6
PHANTOM
62
  6
100
AcDb2dPolyline
66
1
10
0.0
20
0.0
30
0.0
70
0
0
VERTEX
5
54c
100
AcDbEntity
8
0-C
6
PHANTOM
62
  6
100
AcDbVertex
100
AcDb2dVertex
10
238.868122068781
20
290.056834328025
30
0.0
0
VERTEX
5
54d
100
AcDbEntity
8
0-C
6
PHANTOM
62
  6
100
AcDbVertex
100
AcDb2dVertex
10
238.868122068781
20
285.581098396737
30
0.0
0
VERTEX
5
54e
100
AcDbEntity
8
0-C
6
PHANTOM
62
  6
100
AcDbVertex
100
AcDb2dVertex
10
238.668122068781
20
285.381098396737
30
0.0
0
VERTEX
5
54f
100
AcDbEntity
8
0-C
6
PHANTOM
62
  6
100
AcDbVertex
100
AcDb2dVertex
10
238.868122068781
20
285.181098396737
30
0.0
0
VERTEX
5
550
100
AcDbEntity
8
0-C
6
PHANTOM
62
  6
100
AcDbVertex
100
AcDb2dVertex
10
238.868122068781
20
280.705362465449
30
0.0
0
SEQEND
5
551
100
AcDbEntity
8
0-C
0
LINE
5
552
100
AcDbEntity
8
0-C
6
PHANTOM
62
6
100
AcDbLine
10
238.955990034425
20
280.493230431093
30
0.0
11
239.980254103137
21
279.468966362381
31
0.0
0
LINE
5
553
100
AcDbEntity
8
0-C
6
PHANTOM
62
6
100
AcDbLine
10
240.192386137493
20
279.381098396737
30
0.0
11
242.968122068781
21
279.381098396737
31
0.0
0
LINE
5
554
100
AcDbEntity
8
0-C
6
PHANTOM
62
6
100
AcDbLine
10
243.268122068781
20
279.681098396737
30
0.0
11
243.268122068781
21
281.481098396737
31
0.0
0
LINE
5
555
100
AcDbEntity
8
0-C
6
PHANTOM
62
6
100
AcDbLine
10
243.568122068781
20
281.781098396737
30
0.0
11
244.768122068781
21
281.781098396737
31
0.0
0
LINE
5
556
100
AcDbEntity
8
0-C
6
PHANTOM
62
6
100
AcDbLine
10
245.068122068781
20
281.481098396737
30
0.0
11
245.068122068781
21
273.881098396737
31
0.0
0
LINE
5
557
100
AcDbEntity
8
0-C
6
PHANTOM
62
6
100
AcDbLine
10
227.990476355250
20
288.223442533890
30
0.0
11
229.045767782312
21
287.940678048230
31
0.0
0
LINE
5
558
100
AcDbEntity
8
0-C
6
PHANTOM
62
6
100
AcDbLine
10
229.268122068781
20
287.650900300343
30
0.0
11
229.268122068781
21
283.111296493131
31
0.0
0
LINE
5
559
100
AcDbEntity
8
0-C
6
PHANTOM
62
6
100
AcDbLine
10
229.045767782312
20
282.821518745244
30
0.0
11
227.990476355250
21
282.538754259583
31
0.0
0
LINE
5
55a
100
AcDbEntity
8
0-C
6
PHANTOM
62
6
100
AcDbLine
10
227.768122068781
20
282.248976511696
30
0.0
11
227.768122068781
21
280.781098396737
31
0.0
0
LINE
5
55b
100
AcDbEntity
8
0-C
6
PHANTOM
62
6
100
AcDbLine
10
228.068122068781
20
280.481098396737
30
0.0
11
237.068122068781
21
280.481098396737
31
0.0
0
LINE
5
55c
100
AcDbEntity
8
0-C
6
PHANTOM
62
6
100
AcDbLine
10
237.368122068781
20
280.781098396737
30
0.0
11
237.368122068781
21
282.248976511696
31
0.0
0
LINE
5
55d
100
AcDbEntity
8
0-C
6
PHANTOM
62
6
100
AcDbLine
10
237.145767782312
20
282.538754259583
30
0.0
11
236.090476355250
21
282.821518745244
31
0.0
0
LINE
5
55e
100
AcDbEntity
8
0-C
6
PHANTOM
62
6
100
AcDbLine
10
235.868122068781
20
283.111296493131
30
0.0
11
235.868122068781
21
287.650900300343
31
0.0
0
LINE
5
55f
100
AcDbEntity
8
0-C
6
PHANTOM
62
6
100
AcDbLine
10
236.090476355250
20
287.940678048230
30
0.0
11
237.145767782312
21
288.223442533890
31
0.0
0
LINE
5
560
100
AcDbEntity
8
0-C
6
PHANTOM
62
6
100
AcDbLine
10
237.368122068781
20
288.513220281777
30
0.0
11
237.368122068781
21
289.981098396737
31
0.0
0
LINE
5
561
100
AcDbEntity
8
0-C
6
PHANTOM
62
6
100
AcDbLine
10
237.068122068781
20
290.281098396737
30
0.0
11
228.068122068781
21
290.281098396737
31
0.0
0
LINE
5
562
100
AcDbEntity
8
0-C
6
PHANTOM
62
6
100
AcDbLine
10
227.768122068781
20
289.981098396737
30
0.0
11
227.768122068781
21
288.513220281777
31
0.0
0
ARC
5
563
100
AcDbEntity
8
0-C
6
PHANTOM
62
6
100
AcDbCircle
10
221.068122068781
20
273.881098396737
30
0.0
40
1.000000000000
100
AcDbArc
50
180.000000000000
51
270.000000000000
0
ARC
5
564
100
AcDbEntity
8
0-C
6
PHANTOM
62
6
100
AcDbCircle
10
221.068122068781
20
296.881098396737
30
0.0
40
1.000000000000
100
AcDbArc
50
90.000000000000
51
180.000000000000
0
ARC
5
565
100
AcDbEntity
8
0-C
6
PHANTOM
62
6
100
AcDbCircle
10
244.068122068781
20
296.881098396737
30
0.0
40
1.000000000000
100
AcDbArc
50
0.000000000000
51
90.000000000000
0
ARC
5
566
100
AcDbEntity
8
0-C
6
PHANTOM
62
6
100
AcDbCircle
10
244.068122068781
20
273.881098396737
30
0.0
40
1.000000000000
100
AcDbArc
50
270.000000000000
51
360.000000000000
0
ARC
5
567
100
AcDbEntity
8
0-C
6
PHANTOM
62
6
100
AcDbCircle
10
220.368122068781
20
281.481098396737
30
0.0
40
0.300000000000
100
AcDbArc
50
90.000000000000
51
180.000000000000
0
ARC
5
568
100
AcDbEntity
8
0-C
6
PHANTOM
62
6
100
AcDbCircle
10
220.368122068781
20
289.281098396737
30
0.0
40
0.300000000000
100
AcDbArc
50
180.000000000000
51
270.000000000000
0
ARC
5
569
100
AcDbEntity
8
0-C
6
PHANTOM
62
6
100
AcDbCircle
10
228.668122068781
20
273.181098396737
30
0.0
40
0.300000000000
100
AcDbArc
50
270.000000000000
51
360.000000000000
0
ARC
5
56a
100
AcDbEntity
8
0-C
6
PHANTOM
62
6
100
AcDbCircle
10
236.468122068781
20
273.181098396737
30
0.0
40
0.300000000000
100
AcDbArc
50
180.000000000000
51
270.000000000000
0
ARC
5
56b
100
AcDbEntity
8
0-C
6
PHANTOM
62
6
100
AcDbCircle
10
228.668122068781
20
297.581098396737
30
0.0
40
0.300000000000
100
AcDbArc
50
0.000000000000
51
90.000000000000
0
ARC
5
56c
100
AcDbEntity
8
0-C
6
PHANTOM
62
6
100
AcDbCircle
10
236.468122068781
20
297.581098396737
30
0.0
40
0.300000000000
100
AcDbArc
50
90.000000000000
51
180.000000000000
0
ARC
5
56d
100
AcDbEntity
8
0-C
6
PHANTOM
62
6
100
AcDbCircle
10
244.768122068781
20
289.281098396737
30
0.0
40
0.300000000000
100
AcDbArc
50
270.000000000000
51
360.000000000000
0
ARC
5
56e
100
AcDbEntity
8
0-C
6
PHANTOM
62
6
100
AcDbCircle
10
244.768122068781
20
281.481098396737
30
0.0
40
0.300000000000
100
AcDbArc
50
0.000000000000
51
90.000000000000
0
ARC
5
56f
100
AcDbEntity
8
0-C
6
PHANTOM
62
6
100
AcDbCircle
10
228.068122068781
20
280.781098396737
30
0.0
40
0.300000000000
100
AcDbArc
50
180.000000000000
51
270.000000000000
0
ARC
5
570
100
AcDbEntity
8
0-C
6
PHANTOM
62
6
100
AcDbCircle
10
228.068122068781
20
282.248976511696
30
0.0
40
0.300000000000
100
AcDbArc
50
105.000000000000
51
180.000000000000
0
ARC
5
571
100
AcDbEntity
8
0-C
6
PHANTOM
62
6
100
AcDbCircle
10
228.968122068781
20
283.111296493131
30
0.0
40
0.300000000000
100
AcDbArc
50
285.000000000000
51
360.000000000000
0
ARC
5
572
100
AcDbEntity
8
0-C
6
PHANTOM
62
6
100
AcDbCircle
10
228.968122068781
20
287.650900300343
30
0.0
40
0.300000000000
100
AcDbArc
50
0.000000000000
51
75.000000000000
0
ARC
5
573
100
AcDbEntity
8
0-C
6
PHANTOM
62
6
100
AcDbCircle
10
228.068122068781
20
288.513220281777
30
0.0
40
0.300000000000
100
AcDbArc
50
180.000000000000
51
255.000000000000
0
ARC
5
574
100
AcDbEntity
8
0-C
6
PHANTOM
62
6
100
AcDbCircle
10
228.068122068781
20
289.981098396737
30
0.0
40
0.300000000000
100
AcDbArc
50
90.000000000000
51
180.000000000000
0
ARC
5
575
100
AcDbEntity
8
0-C
6
PHANTOM
62
6
100
AcDbCircle
10
237.068122068781
20
289.981098396737
30
0.0
40
0.300000000000
100
AcDbArc
50
0.000000000000
51
90.000000000000
0
ARC
5
576
100
AcDbEntity
8
0-C
6
PHANTOM
62
6
100
AcDbCircle
10
237.068122068781
20
288.513220281777
30
0.0
40
0.300000000000
100
AcDbArc
50
285.000000000000
51
360.000000000000
0
ARC
5
577
100
AcDbEntity
8
0-C
6
PHANTOM
62
6
100
AcDbCircle
10
236.168122068781
20
287.650900300343
30
0.0
40
0.300000000000
100
AcDbArc
50
105.000000000000
51
180.000000000000
0
ARC
5
578
100
AcDbEntity
8
0-C
6
PHANTOM
62
6
100
AcDbCircle
10
236.168122068781
20
283.111296493131
30
0.0
40
0.300000000000
100
AcDbArc
50
180.000000000000
51
255.000000000000
0
ARC
5
579
100
AcDbEntity
8
0-C
6
PHANTOM
62
6
100
AcDbCircle
10
237.068122068781
20
282.248976511696
30
0.0
40
0.300000000000
100
AcDbArc
50
0.000000000000
51
75.000000000000
0
ARC
5
57a
100
AcDbEntity
8
0-C
6
PHANTOM
62
6
100
AcDbCircle
10
237.068122068781
20
280.781098396737
30
0.0
40
0.300000000000
100
AcDbArc
50
270.000000000000
51
360.000000000000
0
ARC
5
57b
100
AcDbEntity
8
0-C
6
PHANTOM
62
6
100
AcDbCircle
10
243.568122068781
20
289.281098396737
30
0.0
40
0.300000000000
100
AcDbArc
50
180.000000000000
51
270.000000000000
0
ARC
5
57c
100
AcDbEntity
8
0-C
6
PHANTOM
62
6
100
AcDbCircle
10
242.968122068781
20
291.081098396737
30
0.0
40
0.300000000000
100
AcDbArc
50
0.000000000000
51
90.000000000000
0
ARC
5
57d
100
AcDbEntity
8
0-C
6
PHANTOM
62
6
100
AcDbCircle
10
240.192386137493
20
291.081098396737
30
0.0
40
0.300000000000
100
AcDbArc
50
90.000000000000
51
135.000000000000
0
ARC
5
57e
100
AcDbEntity
8
0-C
6
PHANTOM
62
6
100
AcDbCircle
10
239.168122068781
20
290.056834328025
30
0.0
40
0.300000000000
100
AcDbArc
50
135.000000000000
51
180.000000000000
0
ARC
5
57f
100
AcDbEntity
8
0-C
6
PHANTOM
62
6
100
AcDbCircle
10
240.192386137493
20
279.681098396737
30
0.0
40
0.300000000000
100
AcDbArc
50
225.000000000000
51
270.000000000000
0
ARC
5
580
100
AcDbEntity
8
0-C
6
PHANTOM
62
6
100
AcDbCircle
10
242.968122068781
20
279.681098396737
30
0.0
40
0.300000000000
100
AcDbArc
50
270.000000000000
51
360.000000000000
0
ARC
5
581
100
AcDbEntity
8
0-C
6
PHANTOM
62
6
100
AcDbCircle
10
243.568122068781
20
281.481098396737
30
0.0
40
0.300000000000
100
AcDbArc
50
90.000000000000
51
180.000000000000
0
ARC
5
582
100
AcDbEntity
8
0-C
6
PHANTOM
62
6
100
AcDbCircle
10
239.168122068781
20
280.705362465449
30
0.0
40
0.300000000000
100
AcDbArc
50
180.000000000000
51
225.000000000000
0
ARC
5
583
100
AcDbEntity
8
0-C
6
PHANTOM
62
6
100
AcDbCircle
10
228.668122068781
20
296.381098396737
30
0.0
40
0.300000000000
100
AcDbArc
50
270.000000000000
51
360.000000000000
0
ARC
5
584
100
AcDbEntity
8
0-C
6
PHANTOM
62
6
100
AcDbCircle
10
226.868122068781
20
295.781098396737
30
0.0
40
0.300000000000
100
AcDbArc
50
90.000000000000
51
180.000000000000
0
ARC
5
585
100
AcDbEntity
8
0-C
6
PHANTOM
62
6
100
AcDbCircle
10
226.868122068781
20
293.005362465449
30
0.0
40
0.300000000000
100
AcDbArc
50
180.000000000000
51
225.000000000000
0
ARC
5
586
100
AcDbEntity
8
0-C
6
PHANTOM
62
6
100
AcDbCircle
10
227.892386137493
20
291.981098396737
30
0.0
40
0.300000000000
100
AcDbArc
50
225.000000000000
51
270.000000000000
0
ARC
5
587
100
AcDbEntity
8
0-C
6
PHANTOM
62
6
100
AcDbCircle
10
238.268122068781
20
293.005362465449
30
0.0
40
0.300000000000
100
AcDbArc
50
315.000000000000
51
360.000000000000
0
ARC
5
588
100
AcDbEntity
8
0-C
6
PHANTOM
62
6
100
AcDbCircle
10
238.268122068781
20
295.781098396737
30
0.0
40
0.300000000000
100
AcDbArc
50
0.000000000000
51
90.000000000000
0
ARC
5
589
100
AcDbEntity
8
0-C
6
PHANTOM
62
6
100
AcDbCircle
10
236.468122068781
20
296.381098396737
30
0.0
40
0.300000000000
100
AcDbArc
50
180.000000000000
51
270.000000000000
0
ARC
5
58a
100
AcDbEntity
8
0-C
6
PHANTOM
62
6
100
AcDbCircle
10
237.243858000069
20
291.981098396737
30
0.0
40
0.300000000000
100
AcDbArc
50
270.000000000000
51
315.000000000000
0
ARC
5
58b
100
AcDbEntity
8
0-C
6
PHANTOM
62
6
100
AcDbCircle
10
221.568122068781
20
281.481098396737
30
0.0
40
0.300000000000
100
AcDbArc
50
0.000000000000
51
90.000000000000
0
ARC
5
58c
100
AcDbEntity
8
0-C
6
PHANTOM
62
6
100
AcDbCircle
10
222.168122068781
20
279.681098396737
30
0.0
40
0.300000000000
100
AcDbArc
50
180.000000000000
51
270.000000000000
0
ARC
5
58d
100
AcDbEntity
8
0-C
6
PHANTOM
62
6
100
AcDbCircle
10
224.943858000069
20
279.681098396737
30
0.0
40
0.300000000000
100
AcDbArc
50
270.000000000000
51
315.000000000000
0
ARC
5
58e
100
AcDbEntity
8
0-C
6
PHANTOM
62
6
100
AcDbCircle
10
225.968122068781
20
280.705362465449
30
0.0
40
0.300000000000
100
AcDbArc
50
315.000000000000
51
360.000000000000
0
ARC
5
58f
100
AcDbEntity
8
0-C
6
PHANTOM
62
6
100
AcDbCircle
10
224.943858000069
20
291.081098396737
30
0.0
40
0.300000000000
100
AcDbArc
50
45.000000000000
51
90.000000000000
0
ARC
5
590
100
AcDbEntity
8
0-C
6
PHANTOM
62
6
100
AcDbCircle
10
222.168122068781
20
291.081098396737
30
0.0
40
0.300000000000
100
AcDbArc
50
90.000000000000
51
180.000000000000
0
ARC
5
591
100
AcDbEntity
8
0-C
6
PHANTOM
62
6
100
AcDbCircle
10
221.568122068781
20
289.281098396737
30
0.0
40
0.300000000000
100
AcDbArc
50
270.000000000000
51
360.000000000000
0
ARC
5
592
100
AcDbEntity
8
0-C
6
PHANTOM
62
6
100
AcDbCircle
10
225.968122068781
20
290.056834328025
30
0.0
40
0.300000000000
100
AcDbArc
50
0.000000000000
51
45.000000000000
0
ARC
5
593
100
AcDbEntity
8
0-C
6
PHANTOM
62
6
100
AcDbCircle
10
236.468122068781
20
274.381098396737
30
0.0
40
0.300000000000
100
AcDbArc
50
90.000000000000
51
180.000000000000
0
ARC
5
594
100
AcDbEntity
8
0-C
6
PHANTOM
62
6
100
AcDbCircle
10
238.268122068781
20
274.981098396737
30
0.0
40
0.300000000000
100
AcDbArc
50
270.000000000000
51
360.000000000000
0
ARC
5
595
100
AcDbEntity
8
0-C
6
PHANTOM
62
6
100
AcDbCircle
10
238.268122068781
20
277.756834328025
30
0.0
40
0.300000000000
100
AcDbArc
50
0.000000000000
51
45.000000000000
0
ARC
5
596
100
AcDbEntity
8
0-C
6
PHANTOM
62
6
100
AcDbCircle
10
237.243858000069
20
278.781098396737
30
0.0
40
0.300000000000
100
AcDbArc
50
45.000000000000
51
90.000000000000
0
ARC
5
597
100
AcDbEntity
8
0-C
6
PHANTOM
62
6
100
AcDbCircle
10
226.868122068781
20
277.756834328025
30
0.0
40
0.300000000000
100
AcDbArc
50
135.000000000000
51
180.000000000000
0
ARC
5
598
100
AcDbEntity
8
0-C
6
PHANTOM
62
6
100
AcDbCircle
10
226.868122068781
20
274.981098396737
30
0.0
40
0.300000000000
100
AcDbArc
50
180.000000000000
51
270.000000000000
0
ARC
5
599
100
AcDbEntity
8
0-C
6
PHANTOM
62
6
100
AcDbCircle
10
228.668122068781
20
274.381098396737
30
0.0
40
0.300000000000
100
AcDbArc
50
0.000000000000
51
90.000000000000
0
ARC
5
59a
100
AcDbEntity
8
0-C
6
PHANTOM
62
6
100
AcDbCircle
10
227.892386137493
20
278.781098396737
30
0.0
40
0.300000000000
100
AcDbArc
50
90.000000000000
51
135.000000000000
0
CIRCLE
5
59b
100
AcDbEntity
8
0-C
6
PHANTOM
62
6
100
AcDbCircle
10
223.318122068781
20
276.131098396737
30
0.0
40
2.100000000000
0
CIRCLE
5
59c
100
AcDbEntity
8
0-C
6
PHANTOM
62
6
100
AcDbCircle
10
223.318122068781
20
294.631098396737
30
0.0
40
2.100000000000
0
CIRCLE
5
59d
100
AcDbEntity
8
0-C
6
PHANTOM
62
6
100
AcDbCircle
10
241.818122068781
20
294.631098396737
30
0.0
40
2.100000000000
0
CIRCLE
5
59e
100
AcDbEntity
8
0-C
6
PHANTOM
62
6
100
AcDbCircle
10
241.818122068781
20
276.131098396737
30
0.0
40
2.100000000000
0
LINE
5
59f
100
AcDbEntity
8
0-C
6
PHANTOM
62
6
100
AcDbLine
10
170.361370690782
20
272.881098396737
30
0.0
11
162.761370690782
21
272.881098396737
31
0.0
0
LINE
5
5a0
100
AcDbEntity
8
0-C
6
PHANTOM
62
6
100
AcDbLine
10
162.461370690782
20
273.181098396737
30
0.0
11
162.461370690782
21
274.381098396737
31
0.0
0
LINE
5
5a1
100
AcDbEntity
8
0-C
6
PHANTOM
62
6
100
AcDbLine
10
162.761370690782
20
274.681098396737
30
0.0
11
164.561370690782
21
274.681098396737
31
0.0
0
LINE
5
5a2
100
AcDbEntity
8
0-C
6
PHANTOM
62
6
100
AcDbLine
10
164.861370690782
20
274.981098396737
30
0.0
11
164.861370690782
21
277.756834328025
31
0.0
0
LINE
5
5a3
100
AcDbEntity
8
0-C
6
PHANTOM
62
6
100
AcDbLine
10
164.773502725138
20
277.968966362381
30
0.0
11
163.749238656426
21
278.993230431093
31
0.0
0
LINE
5
5a4
100
AcDbEntity
8
0-C
6
PHANTOM
62
6
100
AcDbLine
10
163.537106622070
20
279.081098396737
30
0.0
11
154.185634759494
21
279.081098396737
31
0.0
0
LINE
5
5a5
100
AcDbEntity
8
0-C
6
PHANTOM
62
6
100
AcDbLine
10
153.973502725138
20
278.993230431093
30
0.0
11
152.949238656426
21
277.968966362381
31
0.0
0
LINE
5
5a6
100
AcDbEntity
8
0-C
6
PHANTOM
62
6
100
AcDbLine
10
152.861370690782
20
277.756834328025
30
0.0
11
152.861370690782
21
274.981098396737
31
0.0
0
LINE
5
5a7
100
AcDbEntity
8
0-C
6
PHANTOM
62
6
100
AcDbLine
10
153.161370690782
20
274.681098396737
30
0.0
11
154.961370690782
21
274.681098396737
31
0.0
0
LINE
5
5a8
100
AcDbEntity
8
0-C
6
PHANTOM
62
6
100
AcDbLine
10
155.261370690782
20
274.381098396737
30
0.0
11
155.261370690782
21
273.181098396737
31
0.0
0
LINE
5
5a9
100
AcDbEntity
8
0-C
6
PHANTOM
62
6
100
AcDbLine
10
154.961370690782
20
272.881098396737
30
0.0
11
147.361370690782
21
272.881098396737
31
0.0
0
LINE
5
5aa
100
AcDbEntity
8
0-C
6
PHANTOM
62
6
100
AcDbLine
10
146.361370690782
20
273.881098396737
30
0.0
11
146.361370690782
21
281.481098396737
31
0.0
0
LINE
5
5ab
100
AcDbEntity
8
0-C
6
PHANTOM
62
6
100
AcDbLine
10
146.661370690782
20
281.781098396737
30
0.0
11
147.861370690782
21
281.781098396737
31
0.0
0
LINE
5
5ac
100
AcDbEntity
8
0-C
6
PHANTOM
62
6
100
AcDbLine
10
148.161370690782
20
281.481098396737
30
0.0
11
148.161370690782
21
279.681098396737
31
0.0
0
LINE
5
5ad
100
AcDbEntity
8
0-C
6
PHANTOM
62
6
100
AcDbLine
10
148.461370690782
20
279.381098396737
30
0.0
11
151.237106622070
21
279.381098396737
31
0.0
0
LINE
5
5ae
100
AcDbEntity
8
0-C
6
PHANTOM
62
6
100
AcDbLine
10
151.449238656426
20
279.468966362381
30
0.0
11
152.473502725138
21
280.493230431093
31
0.0
0
POLYLINE
5
5af
100
AcDbEntity
8
0-C
6
PHANTOM
62
  6
100
AcDb2dPolyline
66
1
10
0.0
20
0.0
30
0.0
70
0
0
VERTEX
5
5b0
100
AcDbEntity
8
0-C
6
PHANTOM
62
  6
100
AcDbVertex
100
AcDb2dVertex
10
152.561370690782
20
280.705362465449
30
0.0
0
VERTEX
5
5b1
100
AcDbEntity
8
0-C
6
PHANTOM
62
  6
100
AcDbVertex
100
AcDb2dVertex
10
152.561370690782
20
285.181098396737
30
0.0
0
VERTEX
5
5b2
100
AcDbEntity
8
0-C
6
PHANTOM
62
  6
100
AcDbVertex
100
AcDb2dVertex
10
152.761370690781
20
285.381098396737
30
0.0
0
VERTEX
5
5b3
100
AcDbEntity
8
0-C
6
PHANTOM
62
  6
100
AcDbVertex
100
AcDb2dVertex
10
152.561370690782
20
285.581098396737
30
0.0
0
VERTEX
5
5b4
100
AcDbEntity
8
0-C
6
PHANTOM
62
  6
100
AcDbVertex
100
AcDb2dVertex
10
152.561370690782
20
290.056834328025
30
0.0
0
SEQEND
5
5b5
100
AcDbEntity
8
0-C
0
LINE
5
5b6
100
AcDbEntity
8
0-C
6
PHANTOM
62
6
100
AcDbLine
10
152.473502725138
20
290.268966362381
30
0.0
11
151.449238656426
21
291.293230431093
31
0.0
0
LINE
5
5b7
100
AcDbEntity
8
0-C
6
PHANTOM
62
6
100
AcDbLine
10
151.237106622070
20
291.381098396737
30
0.0
11
148.461370690782
21
291.381098396737
31
0.0
0
LINE
5
5b8
100
AcDbEntity
8
0-C
6
PHANTOM
62
6
100
AcDbLine
10
148.161370690782
20
291.081098396737
30
0.0
11
148.161370690782
21
289.281098396737
31
0.0
0
LINE
5
5b9
100
AcDbEntity
8
0-C
6
PHANTOM
62
6
100
AcDbLine
10
147.861370690782
20
288.981098396737
30
0.0
11
146.661370690782
21
288.981098396737
31
0.0
0
LINE
5
5ba
100
AcDbEntity
8
0-C
6
PHANTOM
62
6
100
AcDbLine
10
146.361370690782
20
289.281098396737
30
0.0
11
146.361370690782
21
296.881098396737
31
0.0
0
LINE
5
5bb
100
AcDbEntity
8
0-C
6
PHANTOM
62
6
100
AcDbLine
10
147.361370690782
20
297.881098396737
30
0.0
11
154.961370690782
21
297.881098396737
31
0.0
0
LINE
5
5bc
100
AcDbEntity
8
0-C
6
PHANTOM
62
6
100
AcDbLine
10
155.261370690782
20
297.581098396737
30
0.0
11
155.261370690782
21
296.381098396737
31
0.0
0
LINE
5
5bd
100
AcDbEntity
8
0-C
6
PHANTOM
62
6
100
AcDbLine
10
154.961370690782
20
296.081098396737
30
0.0
11
153.161370690782
21
296.081098396737
31
0.0
0
LINE
5
5be
100
AcDbEntity
8
0-C
6
PHANTOM
62
6
100
AcDbLine
10
152.861370690782
20
295.781098396737
30
0.0
11
152.861370690782
21
293.005362465449
31
0.0
0
LINE
5
5bf
100
AcDbEntity
8
0-C
6
PHANTOM
62
6
100
AcDbLine
10
152.949238656426
20
292.793230431093
30
0.0
11
153.973502725138
21
291.768966362381
31
0.0
0
LINE
5
5c0
100
AcDbEntity
8
0-C
6
PHANTOM
62
6
100
AcDbLine
10
154.185634759494
20
291.681098396737
30
0.0
11
163.537106622070
21
291.681098396737
31
0.0
0
LINE
5
5c1
100
AcDbEntity
8
0-C
6
PHANTOM
62
6
100
AcDbLine
10
163.749238656426
20
291.768966362381
30
0.0
11
164.773502725138
21
292.793230431093
31
0.0
0
LINE
5
5c2
100
AcDbEntity
8
0-C
6
PHANTOM
62
6
100
AcDbLine
10
164.861370690782
20
293.005362465449
30
0.0
11
164.861370690782
21
295.781098396737
31
0.0
0
LINE
5
5c3
100
AcDbEntity
8
0-C
6
PHANTOM
62
6
100
AcDbLine
10
164.561370690782
20
296.081098396737
30
0.0
11
162.761370690782
21
296.081098396737
31
0.0
0
LINE
5
5c4
100
AcDbEntity
8
0-C
6
PHANTOM
62
6
100
AcDbLine
10
162.461370690782
20
296.381098396737
30
0.0
11
162.461370690782
21
297.581098396737
31
0.0
0
LINE
5
5c5
100
AcDbEntity
8
0-C
6
PHANTOM
62
6
100
AcDbLine
10
162.761370690782
20
297.881098396737
30
0.0
11
170.361370690782
21
297.881098396737
31
0.0
0
LINE
5
5c6
100
AcDbEntity
8
0-C
6
PHANTOM
62
6
100
AcDbLine
10
171.361370690782
20
296.881098396737
30
0.0
11
171.361370690782
21
289.281098396737
31
0.0
0
LINE
5
5c7
100
AcDbEntity
8
0-C
6
PHANTOM
62
6
100
AcDbLine
10
171.061370690782
20
288.981098396737
30
0.0
11
169.861370690782
21
288.981098396737
31
0.0
0
LINE
5
5c8
100
AcDbEntity
8
0-C
6
PHANTOM
62
6
100
AcDbLine
10
169.561370690782
20
289.281098396737
30
0.0
11
169.561370690782
21
291.081098396737
31
0.0
0
LINE
5
5c9
100
AcDbEntity
8
0-C
6
PHANTOM
62
6
100
AcDbLine
10
169.261370690782
20
291.381098396737
30
0.0
11
166.485634759494
21
291.381098396737
31
0.0
0
LINE
5
5ca
100
AcDbEntity
8
0-C
6
PHANTOM
62
6
100
AcDbLine
10
166.273502725138
20
291.293230431093
30
0.0
11
165.249238656426
21
290.268966362381
31
0.0
0
POLYLINE
5
5cb
100
AcDbEntity
8
0-C
6
PHANTOM
62
  6
100
AcDb2dPolyline
66
1
10
0.0
20
0.0
30
0.0
70
0
0
VERTEX
5
5cc
100
AcDbEntity
8
0-C
6
PHANTOM
62
  6
100
AcDbVertex
100
AcDb2dVertex
10
165.161370690782
20
290.056834328025
30
0.0
0
VERTEX
5
5cd
100
AcDbEntity
8
0-C
6
PHANTOM
62
  6
100
AcDbVertex
100
AcDb2dVertex
10
165.161370690782
20
285.581098396737
30
0.0
0
VERTEX
5
5ce
100
AcDbEntity
8
0-C
6
PHANTOM
62
  6
100
AcDbVertex
100
AcDb2dVertex
10
164.961370690782
20
285.381098396737
30
0.0
0
VERTEX
5
5cf
100
AcDbEntity
8
0-C
6
PHANTOM
62
  6
100
AcDbVertex
100
AcDb2dVertex
10
165.161370690782
20
285.181098396737
30
0.0
0
VERTEX
5
5d0
100
AcDbEntity
8
0-C
6
PHANTOM
62
  6
100
AcDbVertex
100
AcDb2dVertex
10
165.161370690782
20
280.705362465449
30
0.0
0
SEQEND
5
5d1
100
AcDbEntity
8
0-C
0
LINE
5
5d2
100
AcDbEntity
8
0-C
6
PHANTOM
62
6
100
AcDbLine
10
165.249238656426
20
280.493230431093
30
0.0
11
166.273502725138
21
279.468966362381
31
0.0
0
LINE
5
5d3
100
AcDbEntity
8
0-C
6
PHANTOM
62
6
100
AcDbLine
10
166.485634759494
20
279.381098396737
30
0.0
11
169.261370690782
21
279.381098396737
31
0.0
0
LINE
5
5d4
100
AcDbEntity
8
0-C
6
PHANTOM
62
6
100
AcDbLine
10
169.561370690782
20
279.681098396737
30
0.0
11
169.561370690782
21
281.481098396737
31
0.0
0
LINE
5
5d5
100
AcDbEntity
8
0-C
6
PHANTOM
62
6
100
AcDbLine
10
169.861370690782
20
281.781098396737
30
0.0
11
171.061370690782
21
281.781098396737
31
0.0
0
LINE
5
5d6
100
AcDbEntity
8
0-C
6
PHANTOM
62
6
100
AcDbLine
10
171.361370690782
20
281.481098396737
30
0.0
11
171.361370690782
21
273.881098396737
31
0.0
0
LINE
5
5d7
100
AcDbEntity
8
0-C
6
PHANTOM
62
6
100
AcDbLine
10
154.283724977251
20
288.223442533890
30
0.0
11
155.339016404313
21
287.940678048230
31
0.0
0
LINE
5
5d8
100
AcDbEntity
8
0-C
6
PHANTOM
62
6
100
AcDbLine
10
155.561370690782
20
287.650900300343
30
0.0
11
155.561370690782
21
283.111296493131
31
0.0
0
LINE
5
5d9
100
AcDbEntity
8
0-C
6
PHANTOM
62
6
100
AcDbLine
10
155.339016404313
20
282.821518745244
30
0.0
11
154.283724977251
21
282.538754259583
31
0.0
0
LINE
5
5da
100
AcDbEntity
8
0-C
6
PHANTOM
62
6
100
AcDbLine
10
154.061370690782
20
282.248976511696
30
0.0
11
154.061370690782
21
280.781098396737
31
0.0
0
LINE
5
5db
100
AcDbEntity
8
0-C
6
PHANTOM
62
6
100
AcDbLine
10
154.361370690782
20
280.481098396737
30
0.0
11
163.361370690782
21
280.481098396737
31
0.0
0
LINE
5
5dc
100
AcDbEntity
8
0-C
6
PHANTOM
62
6
100
AcDbLine
10
163.661370690782
20
280.781098396737
30
0.0
11
163.661370690782
21
282.248976511696
31
0.0
0
LINE
5
5dd
100
AcDbEntity
8
0-C
6
PHANTOM
62
6
100
AcDbLine
10
163.439016404312
20
282.538754259583
30
0.0
11
162.383724977251
21
282.821518745244
31
0.0
0
LINE
5
5de
100
AcDbEntity
8
0-C
6
PHANTOM
62
6
100
AcDbLine
10
162.161370690782
20
283.111296493131
30
0.0
11
162.161370690782
21
287.650900300343
31
0.0
0
LINE
5
5df
100
AcDbEntity
8
0-C
6
PHANTOM
62
6
100
AcDbLine
10
162.383724977251
20
287.940678048230
30
0.0
11
163.439016404312
21
288.223442533890
31
0.0
0
LINE
5
5e0
100
AcDbEntity
8
0-C
6
PHANTOM
62
6
100
AcDbLine
10
163.661370690782
20
288.513220281777
30
0.0
11
163.661370690782
21
289.981098396737
31
0.0
0
LINE
5
5e1
100
AcDbEntity
8
0-C
6
PHANTOM
62
6
100
AcDbLine
10
163.361370690782
20
290.281098396737
30
0.0
11
154.361370690782
21
290.281098396737
31
0.0
0
LINE
5
5e2
100
AcDbEntity
8
0-C
6
PHANTOM
62
6
100
AcDbLine
10
154.061370690782
20
289.981098396737
30
0.0
11
154.061370690782
21
288.513220281777
31
0.0
0
ARC
5
5e3
100
AcDbEntity
8
0-C
6
PHANTOM
62
6
100
AcDbCircle
10
147.361370690782
20
273.881098396737
30
0.0
40
1.000000000000
100
AcDbArc
50
180.000000000000
51
270.000000000000
0
ARC
5
5e4
100
AcDbEntity
8
0-C
6
PHANTOM
62
6
100
AcDbCircle
10
147.361370690782
20
296.881098396737
30
0.0
40
1.000000000000
100
AcDbArc
50
90.000000000000
51
180.000000000000
0
ARC
5
5e5
100
AcDbEntity
8
0-C
6
PHANTOM
62
6
100
AcDbCircle
10
170.361370690782
20
296.881098396737
30
0.0
40
1.000000000000
100
AcDbArc
50
0.000000000000
51
90.000000000000
0
ARC
5
5e6
100
AcDbEntity
8
0-C
6
PHANTOM
62
6
100
AcDbCircle
10
170.361370690782
20
273.881098396737
30
0.0
40
1.000000000000
100
AcDbArc
50
270.000000000000
51
360.000000000000
0
ARC
5
5e7
100
AcDbEntity
8
0-C
6
PHANTOM
62
6
100
AcDbCircle
10
146.661370690782
20
281.481098396737
30
0.0
40
0.300000000000
100
AcDbArc
50
90.000000000000
51
180.000000000000
0
ARC
5
5e8
100
AcDbEntity
8
0-C
6
PHANTOM
62
6
100
AcDbCircle
10
146.661370690782
20
289.281098396737
30
0.0
40
0.300000000000
100
AcDbArc
50
180.000000000000
51
270.000000000000
0
ARC
5
5e9
100
AcDbEntity
8
0-C
6
PHANTOM
62
6
100
AcDbCircle
10
154.961370690782
20
273.181098396737
30
0.0
40
0.300000000000
100
AcDbArc
50
270.000000000000
51
360.000000000000
0
ARC
5
5ea
100
AcDbEntity
8
0-C
6
PHANTOM
62
6
100
AcDbCircle
10
162.761370690782
20
273.181098396737
30
0.0
40
0.300000000000
100
AcDbArc
50
180.000000000000
51
270.000000000000
0
ARC
5
5eb
100
AcDbEntity
8
0-C
6
PHANTOM
62
6
100
AcDbCircle
10
154.961370690782
20
297.581098396737
30
0.0
40
0.300000000000
100
AcDbArc
50
0.000000000000
51
90.000000000000
0
ARC
5
5ec
100
AcDbEntity
8
0-C
6
PHANTOM
62
6
100
AcDbCircle
10
162.761370690782
20
297.581098396737
30
0.0
40
0.300000000000
100
AcDbArc
50
90.000000000000
51
180.000000000000
0
ARC
5
5ed
100
AcDbEntity
8
0-C
6
PHANTOM
62
6
100
AcDbCircle
10
171.061370690782
20
289.281098396737
30
0.0
40
0.300000000000
100
AcDbArc
50
270.000000000000
51
360.000000000000
0
ARC
5
5ee
100
AcDbEntity
8
0-C
6
PHANTOM
62
6
100
AcDbCircle
10
171.061370690782
20
281.481098396737
30
0.0
40
0.300000000000
100
AcDbArc
50
0.000000000000
51
90.000000000000
0
ARC
5
5ef
100
AcDbEntity
8
0-C
6
PHANTOM
62
6
100
AcDbCircle
10
154.361370690782
20
280.781098396737
30
0.0
40
0.300000000000
100
AcDbArc
50
180.000000000000
51
270.000000000000
0
ARC
5
5f0
100
AcDbEntity
8
0-C
6
PHANTOM
62
6
100
AcDbCircle
10
154.361370690782
20
282.248976511696
30
0.0
40
0.300000000000
100
AcDbArc
50
105.000000000000
51
180.000000000000
0
ARC
5
5f1
100
AcDbEntity
8
0-C
6
PHANTOM
62
6
100
AcDbCircle
10
155.261370690782
20
283.111296493131
30
0.0
40
0.300000000000
100
AcDbArc
50
285.000000000000
51
360.000000000000
0
ARC
5
5f2
100
AcDbEntity
8
0-C
6
PHANTOM
62
6
100
AcDbCircle
10
155.261370690782
20
287.650900300343
30
0.0
40
0.300000000000
100
AcDbArc
50
0.000000000000
51
75.000000000000
0
ARC
5
5f3
100
AcDbEntity
8
0-C
6
PHANTOM
62
6
100
AcDbCircle
10
154.361370690782
20
288.513220281777
30
0.0
40
0.300000000000
100
AcDbArc
50
180.000000000000
51
255.000000000000
0
ARC
5
5f4
100
AcDbEntity
8
0-C
6
PHANTOM
62
6
100
AcDbCircle
10
154.361370690782
20
289.981098396737
30
0.0
40
0.300000000000
100
AcDbArc
50
90.000000000000
51
180.000000000000
0
ARC
5
5f5
100
AcDbEntity
8
0-C
6
PHANTOM
62
6
100
AcDbCircle
10
163.361370690782
20
289.981098396737
30
0.0
40
0.300000000000
100
AcDbArc
50
0.000000000000
51
90.000000000000
0
ARC
5
5f6
100
AcDbEntity
8
0-C
6
PHANTOM
62
6
100
AcDbCircle
10
163.361370690782
20
288.513220281777
30
0.0
40
0.300000000000
100
AcDbArc
50
285.000000000000
51
360.000000000000
0
ARC
5
5f7
100
AcDbEntity
8
0-C
6
PHANTOM
62
6
100
AcDbCircle
10
162.461370690782
20
287.650900300343
30
0.0
40
0.300000000000
100
AcDbArc
50
105.000000000000
51
180.000000000000
0
ARC
5
5f8
100
AcDbEntity
8
0-C
6
PHANTOM
62
6
100
AcDbCircle
10
162.461370690782
20
283.111296493131
30
0.0
40
0.300000000000
100
AcDbArc
50
180.000000000000
51
255.000000000000
0
ARC
5
5f9
100
AcDbEntity
8
0-C
6
PHANTOM
62
6
100
AcDbCircle
10
163.361370690782
20
282.248976511696
30
0.0
40
0.300000000000
100
AcDbArc
50
0.000000000000
51
75.000000000000
0
ARC
5
5fa
100
AcDbEntity
8
0-C
6
PHANTOM
62
6
100
AcDbCircle
10
163.361370690782
20
280.781098396737
30
0.0
40
0.300000000000
100
AcDbArc
50
270.000000000000
51
360.000000000000
0
ARC
5
5fb
100
AcDbEntity
8
0-C
6
PHANTOM
62
6
100
AcDbCircle
10
169.861370690782
20
289.281098396737
30
0.0
40
0.300000000000
100
AcDbArc
50
180.000000000000
51
270.000000000000
0
ARC
5
5fc
100
AcDbEntity
8
0-C
6
PHANTOM
62
6
100
AcDbCircle
10
169.261370690782
20
291.081098396737
30
0.0
40
0.300000000000
100
AcDbArc
50
0.000000000000
51
90.000000000000
0
ARC
5
5fd
100
AcDbEntity
8
0-C
6
PHANTOM
62
6
100
AcDbCircle
10
166.485634759494
20
291.081098396737
30
0.0
40
0.300000000000
100
AcDbArc
50
90.000000000000
51
135.000000000000
0
ARC
5
5fe
100
AcDbEntity
8
0-C
6
PHANTOM
62
6
100
AcDbCircle
10
165.461370690782
20
290.056834328025
30
0.0
40
0.300000000000
100
AcDbArc
50
135.000000000000
51
180.000000000000
0
ARC
5
5ff
100
AcDbEntity
8
0-C
6
PHANTOM
62
6
100
AcDbCircle
10
166.485634759494
20
279.681098396737
30
0.0
40
0.300000000000
100
AcDbArc
50
225.000000000000
51
270.000000000000
0
ARC
5
600
100
AcDbEntity
8
0-C
6
PHANTOM
62
6
100
AcDbCircle
10
169.261370690782
20
279.681098396737
30
0.0
40
0.300000000000
100
AcDbArc
50
270.000000000000
51
360.000000000000
0
ARC
5
601
100
AcDbEntity
8
0-C
6
PHANTOM
62
6
100
AcDbCircle
10
169.861370690782
20
281.481098396737
30
0.0
40
0.300000000000
100
AcDbArc
50
90.000000000000
51
180.000000000000
0
ARC
5
602
100
AcDbEntity
8
0-C
6
PHANTOM
62
6
100
AcDbCircle
10
165.461370690782
20
280.705362465449
30
0.0
40
0.300000000000
100
AcDbArc
50
180.000000000000
51
225.000000000000
0
ARC
5
603
100
AcDbEntity
8
0-C
6
PHANTOM
62
6
100
AcDbCircle
10
154.961370690782
20
296.381098396737
30
0.0
40
0.300000000000
100
AcDbArc
50
270.000000000000
51
360.000000000000
0
ARC
5
604
100
AcDbEntity
8
0-C
6
PHANTOM
62
6
100
AcDbCircle
10
153.161370690782
20
295.781098396737
30
0.0
40
0.300000000000
100
AcDbArc
50
90.000000000000
51
180.000000000000
0
ARC
5
605
100
AcDbEntity
8
0-C
6
PHANTOM
62
6
100
AcDbCircle
10
153.161370690782
20
293.005362465449
30
0.0
40
0.300000000000
100
AcDbArc
50
180.000000000000
51
225.000000000000
0
ARC
5
606
100
AcDbEntity
8
0-C
6
PHANTOM
62
6
100
AcDbCircle
10
154.185634759494
20
291.981098396737
30
0.0
40
0.300000000000
100
AcDbArc
50
225.000000000000
51
270.000000000000
0
ARC
5
607
100
AcDbEntity
8
0-C
6
PHANTOM
62
6
100
AcDbCircle
10
164.561370690782
20
293.005362465449
30
0.0
40
0.300000000000
100
AcDbArc
50
315.000000000000
51
360.000000000000
0
ARC
5
608
100
AcDbEntity
8
0-C
6
PHANTOM
62
6
100
AcDbCircle
10
164.561370690782
20
295.781098396737
30
0.0
40
0.300000000000
100
AcDbArc
50
0.000000000000
51
90.000000000000
0
ARC
5
609
100
AcDbEntity
8
0-C
6
PHANTOM
62
6
100
AcDbCircle
10
162.761370690782
20
296.381098396737
30
0.0
40
0.300000000000
100
AcDbArc
50
180.000000000000
51
270.000000000000
0
ARC
5
60a
100
AcDbEntity
8
0-C
6
PHANTOM
62
6
100
AcDbCircle
10
163.537106622070
20
291.981098396737
30
0.0
40
0.300000000000
100
AcDbArc
50
270.000000000000
51
315.000000000000
0
ARC
5
60b
100
AcDbEntity
8
0-C
6
PHANTOM
62
6
100
AcDbCircle
10
147.861370690782
20
281.481098396737
30
0.0
40
0.300000000000
100
AcDbArc
50
0.000000000000
51
90.000000000000
0
ARC
5
60c
100
AcDbEntity
8
0-C
6
PHANTOM
62
6
100
AcDbCircle
10
148.461370690782
20
279.681098396737
30
0.0
40
0.300000000000
100
AcDbArc
50
180.000000000000
51
270.000000000000
0
ARC
5
60d
100
AcDbEntity
8
0-C
6
PHANTOM
62
6
100
AcDbCircle
10
151.237106622070
20
279.681098396737
30
0.0
40
0.300000000000
100
AcDbArc
50
270.000000000000
51
315.000000000000
0
ARC
5
60e
100
AcDbEntity
8
0-C
6
PHANTOM
62
6
100
AcDbCircle
10
152.261370690781
20
280.705362465449
30
0.0
40
0.300000000000
100
AcDbArc
50
315.000000000000
51
360.000000000000
0
ARC
5
60f
100
AcDbEntity
8
0-C
6
PHANTOM
62
6
100
AcDbCircle
10
151.237106622070
20
291.081098396737
30
0.0
40
0.300000000000
100
AcDbArc
50
45.000000000000
51
90.000000000000
0
ARC
5
610
100
AcDbEntity
8
0-C
6
PHANTOM
62
6
100
AcDbCircle
10
148.461370690782
20
291.081098396737
30
0.0
40
0.300000000000
100
AcDbArc
50
90.000000000000
51
180.000000000000
0
ARC
5
611
100
AcDbEntity
8
0-C
6
PHANTOM
62
6
100
AcDbCircle
10
147.861370690782
20
289.281098396737
30
0.0
40
0.300000000000
100
AcDbArc
50
270.000000000000
51
360.000000000000
0
ARC
5
612
100
AcDbEntity
8
0-C
6
PHANTOM
62
6
100
AcDbCircle
10
152.261370690781
20
290.056834328025
30
0.0
40
0.300000000000
100
AcDbArc
50
0.000000000000
51
45.000000000000
0
ARC
5
613
100
AcDbEntity
8
0-C
6
PHANTOM
62
6
100
AcDbCircle
10
162.761370690782
20
274.381098396737
30
0.0
40
0.300000000000
100
AcDbArc
50
90.000000000000
51
180.000000000000
0
ARC
5
614
100
AcDbEntity
8
0-C
6
PHANTOM
62
6
100
AcDbCircle
10
164.561370690782
20
274.981098396737
30
0.0
40
0.300000000000
100
AcDbArc
50
270.000000000000
51
360.000000000000
0
ARC
5
615
100
AcDbEntity
8
0-C
6
PHANTOM
62
6
100
AcDbCircle
10
164.561370690782
20
277.756834328025
30
0.0
40
0.300000000000
100
AcDbArc
50
0.000000000000
51
45.000000000000
0
ARC
5
616
100
AcDbEntity
8
0-C
6
PHANTOM
62
6
100
AcDbCircle
10
163.537106622070
20
278.781098396737
30
0.0
40
0.300000000000
100
AcDbArc
50
45.000000000000
51
90.000000000000
0
ARC
5
617
100
AcDbEntity
8
0-C
6
PHANTOM
62
6
100
AcDbCircle
10
153.161370690782
20
277.756834328025
30
0.0
40
0.300000000000
100
AcDbArc
50
135.000000000000
51
180.000000000000
0
ARC
5
618
100
AcDbEntity
8
0-C
6
PHANTOM
62
6
100
AcDbCircle
10
153.161370690782
20
274.981098396737
30
0.0
40
0.300000000000
100
AcDbArc
50
180.000000000000
51
270.000000000000
0
ARC
5
619
100
AcDbEntity
8
0-C
6
PHANTOM
62
6
100
AcDbCircle
10
154.961370690782
20
274.381098396737
30
0.0
40
0.300000000000
100
AcDbArc
50
0.000000000000
51
90.000000000000
0
ARC
5
61a
100
AcDbEntity
8
0-C
6
PHANTOM
62
6
100
AcDbCircle
10
154.185634759494
20
278.781098396737
30
0.0
40
0.300000000000
100
AcDbArc
50
90.000000000000
51
135.000000000000
0
CIRCLE
5
61b
100
AcDbEntity
8
0-C
6
PHANTOM
62
6
100
AcDbCircle
10
149.611370690782
20
276.131098396737
30
0.0
40
2.100000000000
0
CIRCLE
5
61c
100
AcDbEntity
8
0-C
6
PHANTOM
62
6
100
AcDbCircle
10
149.611370690782
20
294.631098396737
30
0.0
40
2.100000000000
0
CIRCLE
5
61d
100
AcDbEntity
8
0-C
6
PHANTOM
62
6
100
AcDbCircle
10
168.111370690782
20
294.631098396737
30
0.0
40
2.100000000000
0
CIRCLE
5
61e
100
AcDbEntity
8
0-C
6
PHANTOM
62
6
100
AcDbCircle
10
168.111370690782
20
276.131098396737
30
0.0
40
2.100000000000
0
LINE
5
61f
100
AcDbEntity
8
0-1
6
CENTER
62
4
100
AcDbLine
10
232.648122068781
20
282.669440026622
30
0.0
11
232.648122068781
21
256.331762220417
31
0.0
0
LINE
5
620
100
AcDbEntity
8
0-1
6
CENTER
62
4
100
AcDbLine
10
158.941370688781
20
282.669440026622
30
0.0
11
158.941370688781
21
256.331762220417
31
0.0
0
LINE
5
621
100
AcDbEntity
8
0-1
6
CENTER
62
4
100
AcDbLine
10
103.441370688782
20
282.669440026622
30
0.0
11
103.441370688782
21
256.331762220417
31
0.0
0
LINE
5
622
100
AcDbEntity
8
0-1
6
CENTER
62
4
100
AcDbLine
10
68.441370688782
20
282.669440026622
30
0.0
11
68.441370688782
21
256.331762220417
31
0.0
0
LINE
5
623
100
AcDbEntity
8
0-1
6
CENTER
62
4
100
AcDbLine
10
230.648122068781
20
131.821633419650
30
0.0
11
230.648122068781
21
72.946099574437
31
0.0
0
LINE
5
624
100
AcDbEntity
8
0-1
6
CENTER
62
4
100
AcDbLine
10
197.006307249380
20
102.506695620675
30
0.0
11
308.414065589903
21
102.506695620675
31
0.0
0
LINE
5
625
100
AcDbEntity
8
0-1
6
CENTER
62
4
100
AcDbLine
10
268.148122068781
20
141.281094384481
30
0.0
11
268.148122068781
21
62.972053513847
31
0.0
0
LINE
5
626
100
AcDbEntity
8
0-1
6
CENTER
62
4
100
AcDbLine
10
318.150815917442
20
138.006695620675
30
0.0
11
327.760148380788
21
138.006695620675
31
0.0
0
LINE
5
627
100
AcDbEntity
8
0-1
6
CENTER
62
4
100
AcDbLine
10
323.148122068781
20
132.488128510239
30
0.0
11
323.148122068781
21
142.822693612328
31
0.0
0
LINE
5
628
100
AcDbEntity
8
0-1
6
CENTER
62
4
100
AcDbLine
10
338.148122068781
20
138.191220355794
30
0.0
11
338.148122068781
21
123.065924634604
31
0.0
0
LINE
5
629
100
AcDbEntity
8
0-1
6
CENTER
62
4
100
AcDbLine
10
333.020567629268
20
130.506695620675
30
0.0
11
342.998511403456
21
130.506695620675
31
0.0
0
LINE
5
62a
100
AcDbEntity
8
0-1
6
CENTER
62
4
100
AcDbLine
10
333.020567629268
20
128.106695620675
30
0.0
11
342.998511403456
21
128.106695620675
31
0.0
0
LINE
5
62b
100
AcDbEntity
8
0-1
6
CENTER
62
4
100
AcDbLine
10
333.020567629268
20
132.906695620675
30
0.0
11
342.998511403456
21
132.906695620675
31
0.0
0
LINE
5
62c
100
AcDbEntity
8
0-1
6
CENTER
62
4
100
AcDbLine
10
308.148122068781
20
138.191220355794
30
0.0
11
308.148122068781
21
123.065924634604
31
0.0
0
LINE
5
62d
100
AcDbEntity
8
0-1
6
CENTER
62
4
100
AcDbLine
10
303.020567629268
20
130.506695620675
30
0.0
11
312.998511403456
21
130.506695620675
31
0.0
0
LINE
5
62e
100
AcDbEntity
8
0-1
6
CENTER
62
4
100
AcDbLine
10
303.020567629268
20
128.106695620675
30
0.0
11
312.998511403456
21
128.106695620675
31
0.0
0
LINE
5
62f
100
AcDbEntity
8
0-1
6
CENTER
62
4
100
AcDbLine
10
303.020567629268
20
132.906695620675
30
0.0
11
312.998511403456
21
132.906695620675
31
0.0
0
LINE
5
630
100
AcDbEntity
8
0-1
6
CENTER
62
4
100
AcDbLine
10
283.150815917442
20
138.006695620675
30
0.0
11
292.760148380788
21
138.006695620675
31
0.0
0
LINE
5
631
100
AcDbEntity
8
0-1
6
CENTER
62
4
100
AcDbLine
10
288.148122068781
20
132.488128510239
30
0.0
11
288.148122068781
21
142.822693612328
31
0.0
0
LINE
5
632
100
AcDbEntity
8
0-1
6
CENTER
62
4
100
AcDbLine
10
232.648122068781
20
52.504001772014
30
0.0
11
232.648122068781
21
42.894669308668
31
0.0
0
LINE
5
633
100
AcDbEntity
8
0-1
6
CENTER
62
4
100
AcDbLine
10
238.166689179217
20
47.506695620675
30
0.0
11
227.832124077128
21
47.506695620675
31
0.0
0
LINE
5
634
100
AcDbEntity
8
0-1
6
CENTER
62
4
100
AcDbLine
10
232.463597333662
20
32.506695620675
30
0.0
11
247.588893054852
21
32.506695620675
31
0.0
0
LINE
5
635
100
AcDbEntity
8
0-1
6
CENTER
62
4
100
AcDbLine
10
240.148122068781
20
37.634250060188
30
0.0
11
240.148122068781
21
27.656306286000
31
0.0
0
LINE
5
636
100
AcDbEntity
8
0-1
6
CENTER
62
4
100
AcDbLine
10
242.548122068781
20
37.634250060188
30
0.0
11
242.548122068781
21
27.656306286000
31
0.0
0
LINE
5
637
100
AcDbEntity
8
0-1
6
CENTER
62
4
100
AcDbLine
10
237.748122068781
20
37.634250060188
30
0.0
11
237.748122068781
21
27.656306286000
31
0.0
0
LINE
5
638
100
AcDbEntity
8
0-1
6
CENTER
62
4
100
AcDbLine
10
232.463597333662
20
62.506695620675
30
0.0
11
247.588893054852
21
62.506695620675
31
0.0
0
LINE
5
639
100
AcDbEntity
8
0-1
6
CENTER
62
4
100
AcDbLine
10
240.148122068781
20
67.634250060188
30
0.0
11
240.148122068781
21
57.656306286000
31
0.0
0
LINE
5
63a
100
AcDbEntity
8
0-1
6
CENTER
62
4
100
AcDbLine
10
242.548122068781
20
67.634250060188
30
0.0
11
242.548122068781
21
57.656306286000
31
0.0
0
LINE
5
63b
100
AcDbEntity
8
0-1
6
CENTER
62
4
100
AcDbLine
10
237.748122068781
20
67.634250060188
30
0.0
11
237.748122068781
21
57.656306286000
31
0.0
0
LINE
5
63c
100
AcDbEntity
8
0-1
6
CENTER
62
4
100
AcDbLine
10
388.146959359491
20
427.202093762216
30
0.0
11
499.554717700014
21
427.202093762216
31
0.0
0
ARC
5
63d
100
AcDbEntity
8
0-1
6
CONTINUOUS
62
7
100
AcDbCircle
10
453.788774178892
20
443.287801704361
30
0.0
40
0.500000000000
100
AcDbArc
50
288.876503630556
51
360.000000000000
0
ARC
5
63e
100
AcDbEntity
8
0-1
6
CONTINUOUS
62
7
100
AcDbCircle
10
459.288774178892
20
427.202093762216
30
0.0
40
16.500000000000
100
AcDbArc
50
108.876503630559
51
116.123496369441
0
ARC
5
63f
100
AcDbEntity
8
0-1
6
CONTINUOUS
62
7
100
AcDbCircle
10
451.803548309341
20
442.465494224819
30
0.0
40
0.500000000000
100
AcDbArc
50
225.000000000004
51
296.123496369443
0
LINE
5
640
100
AcDbEntity
8
0-1
6
CONTINUOUS
62
7
100
AcDbLine
10
454.288774178892
20
443.287801704361
30
0.0
11
454.288774178892
21
450.267218951557
31
0.0
0
ARC
5
641
100
AcDbEntity
8
0-1
6
CONTINUOUS
62
7
100
AcDbCircle
10
454.788774178892
20
450.267218951557
30
0.0
40
0.500000000000
100
AcDbArc
50
101.039714414039
51
180.000000000000
0
LINE
5
642
100
AcDbEntity
8
0-1
6
CONTINUOUS
62
7
100
AcDbLine
10
464.288774178892
20
443.287801704361
30
0.0
11
464.288774178892
21
450.267218951557
31
0.0
0
ARC
5
643
100
AcDbEntity
8
0-1
6
CONTINUOUS
62
7
100
AcDbCircle
10
459.288774178892
20
427.202093762216
30
0.0
40
24.000000000000
100
AcDbArc
50
78.960285585967
51
101.039714414033
0
ARC
5
644
100
AcDbEntity
8
0-1
6
CONTINUOUS
62
7
100
AcDbCircle
10
463.788774178892
20
450.267218951557
30
0.0
40
0.500000000000
100
AcDbArc
50
0.000000000000
51
78.960285585961
0
ARC
5
645
100
AcDbEntity
8
0-1
6
CONTINUOUS
62
7
100
AcDbCircle
10
459.288774178892
20
427.202093762216
30
0.0
40
21.000000000000
100
AcDbArc
50
76.225853001973
51
103.774146998027
0
ARC
5
646
100
AcDbEntity
8
0-1
6
CONTINUOUS
62
7
100
AcDbCircle
10
444.025373716289
20
434.687319631767
30
0.0
40
0.500000000000
100
AcDbArc
50
333.876503630556
51
405.000000000000
0
ARC
5
647
100
AcDbEntity
8
0-1
6
CONTINUOUS
62
7
100
AcDbCircle
10
459.288774178892
20
427.202093762216
30
0.0
40
16.500000000000
100
AcDbArc
50
153.876503630559
51
161.123496369441
0
ARC
5
648
100
AcDbEntity
8
0-1
6
CONTINUOUS
62
7
100
AcDbCircle
10
443.203066236746
20
432.702093762216
30
0.0
40
0.500000000000
100
AcDbArc
50
270.000000000004
51
341.123496369443
0
LINE
5
649
100
AcDbEntity
8
0-1
6
CONTINUOUS
62
7
100
AcDbLine
10
444.378927106882
20
435.040873022361
30
0.0
11
439.443733842659
21
439.976066286583
31
0.0
0
ARC
5
64a
100
AcDbEntity
8
0-1
6
CONTINUOUS
62
7
100
AcDbCircle
10
439.797287233252
20
440.329619677176
30
0.0
40
0.500000000000
100
AcDbArc
50
146.039714414039
51
225.000000000000
0
LINE
5
64b
100
AcDbEntity
8
0-1
6
CONTINUOUS
62
7
100
AcDbLine
10
451.449994918747
20
442.111940834226
30
0.0
11
446.514801654524
21
447.047134098449
31
0.0
0
ARC
5
64c
100
AcDbEntity
8
0-1
6
CONTINUOUS
62
7
100
AcDbCircle
10
459.288774178892
20
427.202093762216
30
0.0
40
24.000000000000
100
AcDbArc
50
123.960285585967
51
146.039714414033
0
ARC
5
64d
100
AcDbEntity
8
0-1
6
CONTINUOUS
62
7
100
AcDbCircle
10
446.161248263931
20
446.693580707856
30
0.0
40
0.500000000000
100
AcDbArc
50
45.000000000000
51
123.960285585961
0
ARC
5
64e
100
AcDbEntity
8
0-1
6
CONTINUOUS
62
7
100
AcDbCircle
10
459.288774178892
20
427.202093762216
30
0.0
40
21.000000000000
100
AcDbArc
50
121.225853001973
51
148.774146998027
0
ARC
5
64f
100
AcDbEntity
8
0-1
6
CONTINUOUS
62
7
100
AcDbCircle
10
443.203066236746
20
421.702093762216
30
0.0
40
0.500000000000
100
AcDbArc
50
18.876503630556
51
90.000000000000
0
ARC
5
650
100
AcDbEntity
8
0-1
6
CONTINUOUS
62
7
100
AcDbCircle
10
459.288774178892
20
427.202093762216
30
0.0
40
16.500000000000
100
AcDbArc
50
198.876503630559
51
206.123496369441
0
ARC
5
651
100
AcDbEntity
8
0-1
6
CONTINUOUS
62
7
100
AcDbCircle
10
444.025373716289
20
419.716867892665
30
0.0
40
0.500000000000
100
AcDbArc
50
315.000000000003
51
386.123496369443
0
LINE
5
652
100
AcDbEntity
8
0-1
6
CONTINUOUS
62
7
100
AcDbLine
10
443.203066236746
20
432.202093762216
30
0.0
11
436.223648989550
21
432.202093762216
31
0.0
0
ARC
5
653
100
AcDbEntity
8
0-1
6
CONTINUOUS
62
7
100
AcDbCircle
10
459.288774178892
20
427.202093762216
30
0.0
40
24.000000000000
100
AcDbArc
50
168.960285585967
51
191.039714414033
0
ARC
5
654
100
AcDbEntity
8
0-1
6
CONTINUOUS
62
7
100
AcDbCircle
10
436.223648989550
20
431.702093762216
30
0.0
40
0.500000000000
100
AcDbArc
50
90.000000000000
51
168.960285585961
0
ARC
5
655
100
AcDbEntity
8
0-1
6
CONTINUOUS
62
7
100
AcDbCircle
10
459.288774178892
20
427.202093762216
30
0.0
40
21.000000000000
100
AcDbArc
50
166.225853001973
51
193.774146998027
0
ARC
5
656
100
AcDbEntity
8
0-1
6
CONTINUOUS
62
7
100
AcDbCircle
10
453.788774178892
20
411.116385820070
30
0.0
40
0.500000000000
100
AcDbArc
50
0.000000000003
51
71.123496369443
0
LINE
5
657
100
AcDbEntity
8
0-1
6
CONTINUOUS
62
7
100
AcDbLine
10
444.378927106882
20
419.363314502071
30
0.0
11
439.443733842659
21
414.428121237849
31
0.0
0
ARC
5
658
100
AcDbEntity
8
0-1
6
CONTINUOUS
62
7
100
AcDbCircle
10
459.288774178892
20
427.202093762216
30
0.0
40
24.000000000000
100
AcDbArc
50
213.960285585967
51
236.039714414033
0
ARC
5
659
100
AcDbEntity
8
0-1
6
CONTINUOUS
62
7
100
AcDbCircle
10
439.797287233252
20
414.074567847255
30
0.0
40
0.500000000000
100
AcDbArc
50
135.000000000000
51
213.960285585961
0
ARC
5
65a
100
AcDbEntity
8
0-1
6
CONTINUOUS
62
7
100
AcDbCircle
10
459.288774178892
20
427.202093762216
30
0.0
40
21.000000000000
100
AcDbArc
50
211.225853001973
51
238.774146998027
0
ARC
5
65b
100
AcDbEntity
8
0-1
6
CONTINUOUS
62
7
100
AcDbCircle
10
464.788774178892
20
411.116385820070
30
0.0
40
0.500000000000
100
AcDbArc
50
108.876503630556
51
180.000000000000
0
ARC
5
65c
100
AcDbEntity
8
0-1
6
CONTINUOUS
62
7
100
AcDbCircle
10
459.288774178892
20
427.202093762216
30
0.0
40
16.500000000000
100
AcDbArc
50
288.876503630559
51
296.123496369441
0
ARC
5
65d
100
AcDbEntity
8
0-1
6
CONTINUOUS
62
7
100
AcDbCircle
10
466.774000048443
20
411.938693299613
30
0.0
40
0.500000000000
100
AcDbArc
50
45.000000000003
51
116.123496369443
0
LINE
5
65e
100
AcDbEntity
8
0-1
6
CONTINUOUS
62
7
100
AcDbLine
10
464.288774178892
20
411.116385820070
30
0.0
11
464.288774178892
21
404.136968572874
31
0.0
0
ARC
5
65f
100
AcDbEntity
8
0-1
6
CONTINUOUS
62
7
100
AcDbCircle
10
463.788774178892
20
404.136968572874
30
0.0
40
0.500000000000
100
AcDbArc
50
281.039714414039
51
360.000000000000
0
LINE
5
660
100
AcDbEntity
8
0-1
6
CONTINUOUS
62
7
100
AcDbLine
10
454.288774178892
20
411.116385820070
30
0.0
11
454.288774178892
21
404.136968572874
31
0.0
0
ARC
5
661
100
AcDbEntity
8
0-1
6
CONTINUOUS
62
7
100
AcDbCircle
10
459.288774178892
20
427.202093762216
30
0.0
40
24.000000000000
100
AcDbArc
50
258.960285585967
51
281.039714414033
0
ARC
5
662
100
AcDbEntity
8
0-1
6
CONTINUOUS
62
7
100
AcDbCircle
10
454.788774178892
20
404.136968572874
30
0.0
40
0.500000000000
100
AcDbArc
50
180.000000000000
51
258.960285585961
0
ARC
5
663
100
AcDbEntity
8
0-1
6
CONTINUOUS
62
7
100
AcDbCircle
10
459.288774178892
20
427.202093762216
30
0.0
40
21.000000000000
100
AcDbArc
50
256.225853001973
51
283.774146998027
0
ARC
5
664
100
AcDbEntity
8
0-1
6
CONTINUOUS
62
7
100
AcDbCircle
10
474.552174641495
20
419.716867892665
30
0.0
40
0.500000000000
100
AcDbArc
50
153.876503630556
51
225.000000000000
0
ARC
5
665
100
AcDbEntity
8
0-1
6
CONTINUOUS
62
7
100
AcDbCircle
10
459.288774178892
20
427.202093762216
30
0.0
40
16.500000000000
100
AcDbArc
50
333.876503630559
51
341.123496369441
0
ARC
5
666
100
AcDbEntity
8
0-1
6
CONTINUOUS
62
7
100
AcDbCircle
10
475.374482121037
20
421.702093762216
30
0.0
40
0.500000000000
100
AcDbArc
50
90.000000000004
51
161.123496369443
0
LINE
5
667
100
AcDbEntity
8
0-1
6
CONTINUOUS
62
7
100
AcDbLine
10
474.198621250902
20
419.363314502071
30
0.0
11
479.133814515125
21
414.428121237849
31
0.0
0
ARC
5
668
100
AcDbEntity
8
0-1
6
CONTINUOUS
62
7
100
AcDbCircle
10
478.780261124532
20
414.074567847255
30
0.0
40
0.500000000000
100
AcDbArc
50
326.039714414039
51
405.000000000000
0
LINE
5
669
100
AcDbEntity
8
0-1
6
CONTINUOUS
62
7
100
AcDbLine
10
467.127553439037
20
412.292246690206
30
0.0
11
472.062746703259
21
407.357053425983
31
0.0
0
ARC
5
66a
100
AcDbEntity
8
0-1
6
CONTINUOUS
62
7
100
AcDbCircle
10
459.288774178892
20
427.202093762216
30
0.0
40
24.000000000000
100
AcDbArc
50
303.960285585967
51
326.039714414033
0
ARC
5
66b
100
AcDbEntity
8
0-1
6
CONTINUOUS
62
7
100
AcDbCircle
10
472.416300093852
20
407.710606816576
30
0.0
40
0.500000000000
100
AcDbArc
50
225.000000000000
51
303.960285585961
0
ARC
5
66c
100
AcDbEntity
8
0-1
6
CONTINUOUS
62
7
100
AcDbCircle
10
459.288774178892
20
427.202093762216
30
0.0
40
21.000000000000
100
AcDbArc
50
301.225853001973
51
328.774146998027
0
ARC
5
66d
100
AcDbEntity
8
0-1
6
CONTINUOUS
62
7
100
AcDbCircle
10
475.374482121037
20
432.702093762216
30
0.0
40
0.500000000000
100
AcDbArc
50
198.876503630556
51
270.000000000000
0
ARC
5
66e
100
AcDbEntity
8
0-1
6
CONTINUOUS
62
7
100
AcDbCircle
10
459.288774178892
20
427.202093762216
30
0.0
40
16.500000000000
100
AcDbArc
50
18.876503630559
51
26.123496369441
0
ARC
5
66f
100
AcDbEntity
8
0-1
6
CONTINUOUS
62
7
100
AcDbCircle
10
474.552174641495
20
434.687319631767
30
0.0
40
0.500000000000
100
AcDbArc
50
135.000000000004
51
206.123496369443
0
LINE
5
670
100
AcDbEntity
8
0-1
6
CONTINUOUS
62
7
100
AcDbLine
10
475.374482121037
20
432.202093762216
30
0.0
11
482.353899368233
21
432.202093762216
31
0.0
0
ARC
5
671
100
AcDbEntity
8
0-1
6
CONTINUOUS
62
7
100
AcDbCircle
10
482.353899368233
20
431.702093762216
30
0.0
40
0.500000000000
100
AcDbArc
50
11.039714414039
51
90.000000000000
0
LINE
5
672
100
AcDbEntity
8
0-1
6
CONTINUOUS
62
7
100
AcDbLine
10
475.374482121037
20
422.202093762216
30
0.0
11
482.353899368233
21
422.202093762216
31
0.0
0
ARC
5
673
100
AcDbEntity
8
0-1
6
CONTINUOUS
62
7
100
AcDbCircle
10
459.288774178892
20
427.202093762216
30
0.0
40
24.000000000000
100
AcDbArc
50
348.960285585967
51
371.039714414033
0
ARC
5
674
100
AcDbEntity
8
0-1
6
CONTINUOUS
62
7
100
AcDbCircle
10
482.353899368233
20
422.702093762216
30
0.0
40
0.500000000000
100
AcDbArc
50
270.000000000000
51
348.960285585961
0
ARC
5
675
100
AcDbEntity
8
0-1
6
CONTINUOUS
62
7
100
AcDbCircle
10
459.288774178892
20
427.202093762216
30
0.0
40
21.000000000000
100
AcDbArc
50
346.225853001973
51
373.774146998027
0
ARC
5
676
100
AcDbEntity
8
0-1
6
CONTINUOUS
62
7
100
AcDbCircle
10
466.774000048443
20
442.465494224819
30
0.0
40
0.500000000000
100
AcDbArc
50
243.876503630556
51
315.000000000000
0
ARC
5
677
100
AcDbEntity
8
0-1
6
CONTINUOUS
62
7
100
AcDbCircle
10
459.288774178892
20
427.202093762216
30
0.0
40
16.500000000000
100
AcDbArc
50
63.876503630559
51
71.123496369441
0
ARC
5
678
100
AcDbEntity
8
0-1
6
CONTINUOUS
62
7
100
AcDbCircle
10
464.788774178892
20
443.287801704361
30
0.0
40
0.500000000000
100
AcDbArc
50
180.000000000004
51
251.123496369443
0
LINE
5
679
100
AcDbEntity
8
0-1
6
CONTINUOUS
62
7
100
AcDbLine
10
467.127553439037
20
442.111940834226
30
0.0
11
472.062746703259
21
447.047134098449
31
0.0
0
ARC
5
67a
100
AcDbEntity
8
0-1
6
CONTINUOUS
62
7
100
AcDbCircle
10
472.416300093852
20
446.693580707856
30
0.0
40
0.500000000000
100
AcDbArc
50
56.039714414039
51
135.000000000000
0
LINE
5
67b
100
AcDbEntity
8
0-1
6
CONTINUOUS
62
7
100
AcDbLine
10
474.198621250902
20
435.040873022361
30
0.0
11
479.133814515125
21
439.976066286583
31
0.0
0
ARC
5
67c
100
AcDbEntity
8
0-1
6
CONTINUOUS
62
7
100
AcDbCircle
10
459.288774178892
20
427.202093762216
30
0.0
40
24.000000000000
100
AcDbArc
50
33.960285585967
51
56.039714414033
0
ARC
5
67d
100
AcDbEntity
8
0-1
6
CONTINUOUS
62
7
100
AcDbCircle
10
478.780261124532
20
440.329619677176
30
0.0
40
0.500000000000
100
AcDbArc
50
315.000000000000
51
393.960285585961
0
ARC
5
67e
100
AcDbEntity
8
0-1
6
CONTINUOUS
62
7
100
AcDbCircle
10
459.288774178892
20
427.202093762216
30
0.0
40
21.000000000000
100
AcDbArc
50
31.225853001973
51
58.774146998027
0
CIRCLE
5
67f
100
AcDbEntity
8
0-1
6
CONTINUOUS
62
7
100
AcDbCircle
10
459.288774178892
20
427.202093762216
30
0.0
40
10.000000000000
0
LINE
5
680
100
AcDbEntity
8
0-1
6
CENTER
62
4
100
AcDbLine
10
459.288774178892
20
366.504069978927
30
0.0
11
459.288774178892
21
466.736735869044
31
0.0
0
LINE
5
681
100
AcDbEntity
8
0-1
6
CONTINUOUS
62
7
100
AcDbLine
10
462.752875794030
20
433.202093762216
30
0.0
11
455.824672563754
21
433.202093762216
31
0.0
0
LINE
5
682
100
AcDbEntity
8
0-1
6
CONTINUOUS
62
7
100
AcDbLine
10
466.216977409167
20
427.202093762216
30
0.0
11
462.752875794030
21
433.202093762216
31
0.0
0
POLYLINE
5
683
100
AcDbEntity
8
0-1
6
CONTINUOUS
62
  7
100
AcDb2dPolyline
66
1
10
0.0
20
0.0
30
0.0
70
0
0
VERTEX
5
684
100
AcDbEntity
8
0-1
6
CONTINUOUS
62
  7
100
AcDbVertex
100
AcDb2dVertex
10
466.216977409167
20
427.202093762216
30
0.0
0
VERTEX
5
685
100
AcDbEntity
8
0-1
6
CONTINUOUS
62
  7
100
AcDbVertex
100
AcDb2dVertex
10
462.752875794030
20
421.202093762216
30
0.0
0
VERTEX
5
686
100
AcDbEntity
8
0-1
6
CONTINUOUS
62
  7
100
AcDbVertex
100
AcDb2dVertex
10
455.824672563754
20
421.202093762216
30
0.0
0
VERTEX
5
687
100
AcDbEntity
8
0-1
6
CONTINUOUS
62
  7
100
AcDbVertex
100
AcDb2dVertex
10
452.360570948616
20
427.202093762216
30
0.0
0
SEQEND
5
688
100
AcDbEntity
8
0-1
0
LINE
5
689
100
AcDbEntity
8
0-1
6
CONTINUOUS
62
7
100
AcDbLine
10
455.824672563754
20
433.202093762216
30
0.0
11
452.360570948616
21
427.202093762216
31
0.0
0
CIRCLE
5
68a
100
AcDbEntity
8
0-1
6
CONTINUOUS
62
7
100
AcDbCircle
10
459.288774178892
20
427.202093762216
30
0.0
40
5.000000000000
0
POLYLINE
5
68b
100
AcDbEntity
8
0-1
6
CONTINUOUS
62
  7
100
AcDb2dPolyline
66
1
10
0.0
20
0.0
30
0.0
70
0
0
VERTEX
5
68c
100
AcDbEntity
8
0-1
6
CONTINUOUS
62
  7
100
AcDbVertex
100
AcDb2dVertex
10
438.288774178892
20
377.486700958426
30
0.0
0
VERTEX
5
68d
100
AcDbEntity
8
0-1
6
CONTINUOUS
62
  7
100
AcDbVertex
100
AcDb2dVertex
10
435.288774178892
20
375.754650150857
30
0.0
0
VERTEX
5
68e
100
AcDbEntity
8
0-1
6
CONTINUOUS
62
  7
100
AcDbVertex
100
AcDb2dVertex
10
435.288774178892
20
371.486700958426
30
0.0
0
SEQEND
5
68f
100
AcDbEntity
8
0-1
0
LINE
5
690
100
AcDbEntity
8
0-1
6
CONTINUOUS
62
7
100
AcDbLine
10
438.288774178892
20
377.486700958426
30
0.0
11
459.288774178892
21
377.486700958426
31
0.0
0
LINE
5
691
100
AcDbEntity
8
0-1
6
CONTINUOUS
62
7
100
AcDbLine
10
435.288774178892
20
371.486700958426
30
0.0
11
459.288774178892
21
371.486700958426
31
0.0
0
LINE
5
692
100
AcDbEntity
8
0-1
6
CONTINUOUS
62
7
100
AcDbLine
10
439.297287233253
20
375.754650150857
30
0.0
11
441.331035171103
21
377.486700958426
31
0.0
0
POLYLINE
5
693
100
AcDbEntity
8
0-1
6
CONTINUOUS
62
  7
100
AcDb2dPolyline
66
1
10
0.0
20
0.0
30
0.0
70
0
0
VERTEX
5
694
100
AcDbEntity
8
0-1
6
CONTINUOUS
62
  7
100
AcDbVertex
100
AcDb2dVertex
10
438.815384990281
20
377.486700958426
30
0.0
0
VERTEX
5
695
100
AcDbEntity
8
0-1
6
CONTINUOUS
62
  7
100
AcDbVertex
100
AcDb2dVertex
10
435.815384990281
20
375.754650150857
30
0.0
0
VERTEX
5
696
100
AcDbEntity
8
0-1
6
CONTINUOUS
62
  7
100
AcDbVertex
100
AcDb2dVertex
10
435.815384990281
20
371.486700958426
30
0.0
0
SEQEND
5
697
100
AcDbEntity
8
0-1
0
LINE
5
698
100
AcDbEntity
8
0-1
6
CONTINUOUS
62
7
100
AcDbLine
10
439.297287233253
20
375.754650150857
30
0.0
11
439.297287233253
21
371.486700958426
31
0.0
0
LINE
5
699
100
AcDbEntity
8
0-1
6
CONTINUOUS
62
7
100
AcDbLine
10
446.226115412127
20
375.754650150857
30
0.0
11
446.226115412127
21
371.486700958426
31
0.0
0
LINE
5
69a
100
AcDbEntity
8
0-1
6
CONTINUOUS
62
7
100
AcDbLine
10
446.226115412127
20
375.754650150857
30
0.0
11
448.402102982969
21
377.486700958426
31
0.0
0
LINE
5
69b
100
AcDbEntity
8
0-1
6
CONTINUOUS
62
7
100
AcDbLine
10
435.288774178892
20
375.754650150857
30
0.0
11
435.815384990281
21
375.754650150857
31
0.0
0
LINE
5
69c
100
AcDbEntity
8
0-1
6
CONTINUOUS
62
7
100
AcDbLine
10
439.297287233253
20
375.754650150857
30
0.0
11
446.226115412127
21
375.754650150857
31
0.0
0
LINE
5
69d
100
AcDbEntity
8
0-1
6
CONTINUOUS
62
7
100
AcDbLine
10
454.288774178892
20
377.486700958426
30
0.0
11
454.288774178892
21
371.486700958426
31
0.0
0
LINE
5
69e
100
AcDbEntity
8
0-1
6
CONTINUOUS
62
7
100
AcDbLine
10
454.288774178892
20
375.754650150857
30
0.0
11
459.288774178892
21
375.754650150857
31
0.0
0
LINE
5
69f
100
AcDbEntity
8
0-1
6
CONTINUOUS
62
7
100
AcDbLine
10
451.705630105856
20
377.486700958426
30
0.0
11
451.705630105856
21
371.486700958426
31
0.0
0
ARC
5
6a0
100
AcDbEntity
8
0-1
6
CONTINUOUS
62
7
100
AcDbCircle
10
446.161248263931
20
407.710606816576
30
0.0
40
0.500000000000
100
AcDbArc
50
236.039714414039
51
315.000000000002
0
LINE
5
6a1
100
AcDbEntity
8
0-1
6
CONTINUOUS
62
7
100
AcDbLine
10
451.449994918747
20
412.292246690206
30
0.0
11
446.514801654524
21
407.357053425983
31
0.0
0
ARC
5
6a2
100
AcDbEntity
8
0-1
6
CONTINUOUS
62
7
100
AcDbCircle
10
436.223648989550
20
422.702093762216
30
0.0
40
0.500000000000
100
AcDbArc
50
191.039714414039
51
270.000000000000
0
LINE
5
6a3
100
AcDbEntity
8
0-1
6
CONTINUOUS
62
7
100
AcDbLine
10
443.203066236746
20
422.202093762216
30
0.0
11
436.223648989550
21
422.202093762216
31
0.0
0
ARC
5
6a4
100
AcDbEntity
8
0-1
6
CONTINUOUS
62
7
100
AcDbCircle
10
451.803548309341
20
411.938693299613
30
0.0
40
0.500000000000
100
AcDbArc
50
63.876503630557
51
135.000000000000
0
ARC
5
6a5
100
AcDbEntity
8
0-1
6
CONTINUOUS
62
7
100
AcDbCircle
10
459.288774178892
20
427.202093762216
30
0.0
40
16.500000000000
100
AcDbArc
50
243.876503630559
51
251.123496369441
0
LINE
5
6a6
100
AcDbEntity
8
0-1
6
CONTINUOUS
62
7
100
AcDbLine
10
452.360570948616
20
383.486700958426
30
0.0
11
452.360570948616
21
377.486700958426
31
0.0
0
LINE
5
6a7
100
AcDbEntity
8
0-1
6
CONTINUOUS
62
7
100
AcDbLine
10
455.824672563754
20
383.486700958426
30
0.0
11
455.824672563754
21
377.486700958426
31
0.0
0
LINE
5
6a8
100
AcDbEntity
8
0-1
6
CONTINUOUS
62
7
100
AcDbLine
10
452.360570948616
20
383.486700958426
30
0.0
11
459.288774178892
21
383.486700958426
31
0.0
0
LINE
5
6a9
100
AcDbEntity
8
0-1
6
CONTINUOUS
62
7
100
AcDbLine
10
454.288774178892
20
383.486700958426
30
0.0
11
454.288774178892
21
391.601753860256
31
0.0
0
POLYLINE
5
6aa
100
AcDbEntity
8
0-1
6
CONTINUOUS
62
  7
100
AcDb2dPolyline
66
1
10
0.0
20
0.0
30
0.0
70
0
0
VERTEX
5
6ab
100
AcDbEntity
8
0-1
6
CONTINUOUS
62
  7
100
AcDbVertex
100
AcDb2dVertex
10
480.288774178892
20
377.486700958426
30
0.0
0
VERTEX
5
6ac
100
AcDbEntity
8
0-1
6
CONTINUOUS
62
  7
100
AcDbVertex
100
AcDb2dVertex
10
483.288774178892
20
375.754650150857
30
0.0
0
VERTEX
5
6ad
100
AcDbEntity
8
0-1
6
CONTINUOUS
62
  7
100
AcDbVertex
100
AcDb2dVertex
10
483.288774178892
20
371.486700958426
30
0.0
0
SEQEND
5
6ae
100
AcDbEntity
8
0-1
0
LINE
5
6af
100
AcDbEntity
8
0-1
6
CONTINUOUS
62
7
100
AcDbLine
10
480.288774178892
20
377.486700958426
30
0.0
11
459.288774178892
21
377.486700958426
31
0.0
0
LINE
5
6b0
100
AcDbEntity
8
0-1
6
CONTINUOUS
62
7
100
AcDbLine
10
483.288774178892
20
371.486700958426
30
0.0
11
459.288774178892
21
371.486700958426
31
0.0
0
LINE
5
6b1
100
AcDbEntity
8
0-1
6
CONTINUOUS
62
7
100
AcDbLine
10
479.280261124531
20
375.754650150857
30
0.0
11
477.246513186681
21
377.486700958426
31
0.0
0
POLYLINE
5
6b2
100
AcDbEntity
8
0-1
6
CONTINUOUS
62
  7
100
AcDb2dPolyline
66
1
10
0.0
20
0.0
30
0.0
70
0
0
VERTEX
5
6b3
100
AcDbEntity
8
0-1
6
CONTINUOUS
62
  7
100
AcDbVertex
100
AcDb2dVertex
10
479.762163367503
20
377.486700958426
30
0.0
0
VERTEX
5
6b4
100
AcDbEntity
8
0-1
6
CONTINUOUS
62
  7
100
AcDbVertex
100
AcDb2dVertex
10
482.762163367503
20
375.754650150857
30
0.0
0
VERTEX
5
6b5
100
AcDbEntity
8
0-1
6
CONTINUOUS
62
  7
100
AcDbVertex
100
AcDb2dVertex
10
482.762163367503
20
371.486700958426
30
0.0
0
SEQEND
5
6b6
100
AcDbEntity
8
0-1
0
LINE
5
6b7
100
AcDbEntity
8
0-1
6
CONTINUOUS
62
7
100
AcDbLine
10
479.280261124531
20
375.754650150857
30
0.0
11
479.280261124531
21
371.486700958426
31
0.0
0
LINE
5
6b8
100
AcDbEntity
8
0-1
6
CONTINUOUS
62
7
100
AcDbLine
10
472.351432945657
20
375.754650150857
30
0.0
11
472.351432945657
21
371.486700958426
31
0.0
0
LINE
5
6b9
100
AcDbEntity
8
0-1
6
CONTINUOUS
62
7
100
AcDbLine
10
472.351432945657
20
375.754650150857
30
0.0
11
470.175445374815
21
377.486700958426
31
0.0
0
LINE
5
6ba
100
AcDbEntity
8
0-1
6
CONTINUOUS
62
7
100
AcDbLine
10
483.288774178892
20
375.754650150857
30
0.0
11
482.762163367503
21
375.754650150857
31
0.0
0
LINE
5
6bb
100
AcDbEntity
8
0-1
6
CONTINUOUS
62
7
100
AcDbLine
10
479.280261124531
20
375.754650150857
30
0.0
11
472.351432945657
21
375.754650150857
31
0.0
0
LINE
5
6bc
100
AcDbEntity
8
0-1
6
CONTINUOUS
62
7
100
AcDbLine
10
464.288774178892
20
377.486700958426
30
0.0
11
464.288774178892
21
371.486700958426
31
0.0
0
LINE
5
6bd
100
AcDbEntity
8
0-1
6
CONTINUOUS
62
7
100
AcDbLine
10
464.288774178892
20
375.754650150857
30
0.0
11
459.288774178892
21
375.754650150857
31
0.0
0
LINE
5
6be
100
AcDbEntity
8
0-1
6
CONTINUOUS
62
7
100
AcDbLine
10
466.871918251928
20
377.486700958426
30
0.0
11
466.871918251928
21
371.486700958426
31
0.0
0
LINE
5
6bf
100
AcDbEntity
8
0-1
6
CONTINUOUS
62
7
100
AcDbLine
10
466.216977409167
20
383.486700958426
30
0.0
11
466.216977409167
21
377.486700958426
31
0.0
0
LINE
5
6c0
100
AcDbEntity
8
0-1
6
CONTINUOUS
62
7
100
AcDbLine
10
462.752875794030
20
383.486700958426
30
0.0
11
462.752875794030
21
377.486700958426
31
0.0
0
LINE
5
6c1
100
AcDbEntity
8
0-1
6
CONTINUOUS
62
7
100
AcDbLine
10
466.216977409167
20
383.486700958426
30
0.0
11
459.288774178892
21
383.486700958426
31
0.0
0
LINE
5
6c2
100
AcDbEntity
8
0-1
6
CONTINUOUS
62
7
100
AcDbLine
10
464.288774178892
20
383.486700958426
30
0.0
11
464.288774178892
21
391.601753860256
31
0.0
0
POLYLINE
5
6c3
100
AcDbEntity
8
0-0
6
CONTINUOUS
62
  7
100
AcDb2dPolyline
66
1
10
0.0
20
0.0
30
0.0
70
0
0
VERTEX
5
6c4
100
AcDbEntity
8
0-0
6
CONTINUOUS
62
  7
100
AcDbVertex
100
AcDb2dVertex
10
561.399357080778
20
492.878767689113
30
0.0
0
VERTEX
5
6c5
100
AcDbEntity
8
0-0
6
CONTINUOUS
62
  7
100
AcDbVertex
100
AcDb2dVertex
10
691.399357080778
20
492.878767689113
30
0.0
0
VERTEX
5
6c6
100
AcDbEntity
8
0-0
6
CONTINUOUS
62
  7
100
AcDbVertex
100
AcDb2dVertex
10
691.399357080778
20
396.878775689113
30
0.0
0
SEQEND
5
6c7
100
AcDbEntity
8
0-0
0
LINE
5
6c8
100
AcDbEntity
8
0-1
6
CENTER
62
4
100
AcDbLine
10
682.899357080778
20
401.878775689113
30
0.0
11
617.899357080778
21
401.878775689113
31
0.0
0
LINE
5
6c9
100
AcDbEntity
8
0-1
6
CENTER
62
4
100
AcDbLine
10
624.399357080777
20
394.373215689113
30
0.0
11
624.399357080777
21
461.384321689113
31
0.0
0
LINE
5
6ca
100
AcDbEntity
8
0-1
6
CENTER
62
4
100
AcDbLine
10
617.899357080778
20
453.878767689113
30
0.0
11
682.899357080778
21
453.878767689113
31
0.0
0
LINE
5
6cb
100
AcDbEntity
8
0-1
6
CENTER
62
4
100
AcDbLine
10
676.399357080778
20
461.384321689113
30
0.0
11
676.399357080778
21
394.373215689113
31
0.0
0
LINE
5
6cc
100
AcDbEntity
8
0-0
6
CONTINUOUS
62
7
100
AcDbLine
10
681.399357080778
20
386.878775689113
30
0.0
11
595.401427080778
21
386.878775689113
31
0.0
0
LINE
5
6cd
100
AcDbEntity
8
0-1
6
CENTER
62
4
100
AcDbLine
10
595.899357080777
20
393.128775689113
30
0.0
11
595.899357080777
21
398.628775689113
31
0.0
0
LINE
5
6ce
100
AcDbEntity
8
0-1
6
CENTER
62
4
100
AcDbLine
10
593.299357080777
20
395.878775689113
30
0.0
11
598.499357080777
21
395.878775689113
31
0.0
0
LINE
5
6cf
100
AcDbEntity
8
0-0
6
CONTINUOUS
62
7
100
AcDbLine
10
586.004507080778
20
393.458575689113
30
0.0
11
562.002427080777
21
459.403726689113
31
0.0
0
LINE
5
6d0
100
AcDbEntity
8
0-0
6
CONTINUOUS
62
7
100
AcDbLine
10
561.399357080778
20
462.823928689113
30
0.0
11
561.399357080778
21
492.878767689113
31
0.0
0
LINE
5
6d1
100
AcDbEntity
8
0-1
6
DASHED
62
4
100
AcDbLine
10
561.399357080778
20
489.678767689113
30
0.0
11
691.399357080778
21
489.678767689113
31
0.0
0
LINE
5
6d2
100
AcDbEntity
8
0-1
6
CENTER
62
4
100
AcDbLine
10
685.149357080778
20
482.378767689113
30
0.0
11
679.649357080777
21
482.378767689113
31
0.0
0
LINE
5
6d3
100
AcDbEntity
8
0-1
6
CENTER
62
4
100
AcDbLine
10
682.399357080778
20
479.778767689113
30
0.0
11
682.399357080778
21
484.978767689113
31
0.0
0
LINE
5
6d4
100
AcDbEntity
8
0-0
6
CONTINUOUS
62
7
100
AcDbLine
10
720.365895811180
20
482.878767689113
30
0.0
11
736.165895811180
21
482.878767689113
31
0.0
0
LINE
5
6d5
100
AcDbEntity
8
0-0
6
CONTINUOUS
62
7
100
AcDbLine
10
736.165895811180
20
481.878767689113
30
0.0
11
739.365895811180
21
481.878767689113
31
0.0
0
LINE
5
6d6
100
AcDbEntity
8
0-0
6
CONTINUOUS
62
7
100
AcDbLine
10
736.165895811180
20
485.878767689113
30
0.0
11
733.165895811180
21
482.878767689113
31
0.0
0
POLYLINE
5
6d7
100
AcDbEntity
8
0-0
6
CONTINUOUS
62
  7
100
AcDb2dPolyline
66
1
10
0.0
20
0.0
30
0.0
70
0
0
VERTEX
5
6d8
100
AcDbEntity
8
0-0
6
CONTINUOUS
62
  7
100
AcDbVertex
100
AcDb2dVertex
10
736.165895811180
20
489.178767689113
30
0.0
0
VERTEX
5
6d9
100
AcDbEntity
8
0-0
6
CONTINUOUS
62
  7
100
AcDbVertex
100
AcDb2dVertex
10
736.165895811180
20
386.878767689113
30
0.0
0
VERTEX
5
6da
100
AcDbEntity
8
0-0
6
CONTINUOUS
62
  7
100
AcDbVertex
100
AcDb2dVertex
10
739.365895811180
20
386.878767689113
30
0.0
0
VERTEX
5
6db
100
AcDbEntity
8
0-0
6
CONTINUOUS
62
  7
100
AcDbVertex
100
AcDb2dVertex
10
741.259102713784
20
387.523568141915
30
0.0
0
SEQEND
5
6dc
100
AcDbEntity
8
0-0
0
POLYLINE
5
6dd
100
AcDbEntity
8
0-0
6
CONTINUOUS
62
  7
100
AcDb2dPolyline
66
1
10
0.0
20
0.0
30
0.0
70
0
0
VERTEX
5
6de
100
AcDbEntity
8
0-0
6
CONTINUOUS
62
  7
100
AcDbVertex
100
AcDb2dVertex
10
740.683060857054
20
388.383784712913
30
0.0
0
VERTEX
5
6df
100
AcDbEntity
8
0-0
6
CONTINUOUS
62
  7
100
AcDbVertex
100
AcDb2dVertex
10
739.365895811180
20
386.878767689113
30
0.0
0
VERTEX
5
6e0
100
AcDbEntity
8
0-0
6
CONTINUOUS
62
  7
100
AcDbVertex
100
AcDb2dVertex
10
739.365895811180
20
489.128767689113
30
0.0
0
SEQEND
5
6e1
100
AcDbEntity
8
0-0
0
POLYLINE
5
6e2
100
AcDbEntity
8
0-0
6
CONTINUOUS
62
  7
100
AcDb2dPolyline
66
1
10
0.0
20
0.0
30
0.0
70
0
0
VERTEX
5
6e3
100
AcDbEntity
8
0-0
6
CONTINUOUS
62
  7
100
AcDbVertex
100
AcDb2dVertex
10
735.665895811180
20
489.678767689113
30
0.0
0
VERTEX
5
6e4
100
AcDbEntity
8
0-0
6
CONTINUOUS
62
  7
100
AcDbVertex
100
AcDb2dVertex
10
724.365895811180
20
489.678767689113
30
0.0
0
VERTEX
5
6e5
100
AcDbEntity
8
0-0
6
CONTINUOUS
62
  7
100
AcDbVertex
100
AcDb2dVertex
10
724.365895811180
20
492.878767689113
30
0.0
0
VERTEX
5
6e6
100
AcDbEntity
8
0-0
6
CONTINUOUS
62
  7
100
AcDbVertex
100
AcDb2dVertex
10
735.615895811180
20
492.878767689113
30
0.0
0
SEQEND
5
6e7
100
AcDbEntity
8
0-0
0
LINE
5
6e8
100
AcDbEntity
8
0-1
6
CENTER
62
4
100
AcDbLine
10
739.365895811180
20
473.878767689113
30
0.0
11
719.365895811180
21
473.878767689113
31
0.0
0
LINE
5
6e9
100
AcDbEntity
8
0-0
6
CONTINUOUS
62
7
100
AcDbLine
10
719.365895811180
20
481.878767689113
30
0.0
11
720.365895811180
21
482.878767689113
31
0.0
0
POLYLINE
5
6ea
100
AcDbEntity
8
0-0
6
CONTINUOUS
62
  7
100
AcDb2dPolyline
66
1
10
0.0
20
0.0
30
0.0
70
0
0
VERTEX
5
6eb
100
AcDbEntity
8
0-0
6
CONTINUOUS
62
  7
100
AcDbVertex
100
AcDb2dVertex
10
719.365895811180
20
481.878767689113
30
0.0
0
VERTEX
5
6ec
100
AcDbEntity
8
0-0
6
CONTINUOUS
62
  7
100
AcDbVertex
100
AcDb2dVertex
10
719.365895811180
20
465.878767689113
30
0.0
0
VERTEX
5
6ed
100
AcDbEntity
8
0-0
6
CONTINUOUS
62
  7
100
AcDbVertex
100
AcDb2dVertex
10
720.365895811180
20
464.878767689113
30
0.0
0
VERTEX
5
6ee
100
AcDbEntity
8
0-0
6
CONTINUOUS
62
  7
100
AcDbVertex
100
AcDb2dVertex
10
736.165895811180
20
464.878767689113
30
0.0
0
SEQEND
5
6ef
100
AcDbEntity
8
0-0
0
LINE
5
6f0
100
AcDbEntity
8
0-0
6
CONTINUOUS
62
7
100
AcDbLine
10
736.165895811180
20
465.878767689113
30
0.0
11
739.365895811180
21
465.878767689113
31
0.0
0
LINE
5
6f1
100
AcDbEntity
8
0-0
6
CONTINUOUS
62
7
100
AcDbLine
10
736.165895811180
20
461.878767689113
30
0.0
11
733.165895811180
21
464.878767689113
31
0.0
0
LINE
5
6f2
100
AcDbEntity
8
0-0
6
CONTINUOUS
62
7
100
AcDbLine
10
789.365895811180
20
465.878767689113
30
0.0
11
792.565895811180
21
465.878767689113
31
0.0
0
POLYLINE
5
6f3
100
AcDbEntity
8
0-0
6
CONTINUOUS
62
  7
100
AcDb2dPolyline
66
1
10
0.0
20
0.0
30
0.0
70
0
0
VERTEX
5
6f4
100
AcDbEntity
8
0-0
6
CONTINUOUS
62
  7
100
AcDbVertex
100
AcDb2dVertex
10
792.565895811180
20
464.878767689113
30
0.0
0
VERTEX
5
6f5
100
AcDbEntity
8
0-0
6
CONTINUOUS
62
  7
100
AcDbVertex
100
AcDb2dVertex
10
808.365895811180
20
464.878767689113
30
0.0
0
VERTEX
5
6f6
100
AcDbEntity
8
0-0
6
CONTINUOUS
62
  7
100
AcDbVertex
100
AcDb2dVertex
10
809.365895811180
20
465.878767689113
30
0.0
0
VERTEX
5
6f7
100
AcDbEntity
8
0-0
6
CONTINUOUS
62
  7
100
AcDbVertex
100
AcDb2dVertex
10
809.365895811180
20
481.878767689113
30
0.0
0
VERTEX
5
6f8
100
AcDbEntity
8
0-0
6
CONTINUOUS
62
  7
100
AcDbVertex
100
AcDb2dVertex
10
808.365895811180
20
482.878767689113
30
0.0
0
VERTEX
5
6f9
100
AcDbEntity
8
0-0
6
CONTINUOUS
62
  7
100
AcDbVertex
100
AcDb2dVertex
10
792.565895811180
20
482.878767689113
30
0.0
0
SEQEND
5
6fa
100
AcDbEntity
8
0-0
0
LINE
5
6fb
100
AcDbEntity
8
0-0
6
CONTINUOUS
62
7
100
AcDbLine
10
792.565895811180
20
481.878767689113
30
0.0
11
789.365895811180
21
481.878767689113
31
0.0
0
LINE
5
6fc
100
AcDbEntity
8
0-0
6
CONTINUOUS
62
7
100
AcDbLine
10
792.565895811180
20
485.878767689113
30
0.0
11
795.565895811180
21
482.878767689113
31
0.0
0
POLYLINE
5
6fd
100
AcDbEntity
8
0-0
6
CONTINUOUS
62
  7
100
AcDb2dPolyline
66
1
10
0.0
20
0.0
30
0.0
70
0
0
VERTEX
5
6fe
100
AcDbEntity
8
0-0
6
CONTINUOUS
62
  7
100
AcDbVertex
100
AcDb2dVertex
10
792.565895811180
20
489.178767689113
30
0.0
0
VERTEX
5
6ff
100
AcDbEntity
8
0-0
6
CONTINUOUS
62
  7
100
AcDbVertex
100
AcDb2dVertex
10
792.565895811180
20
386.878767689113
30
0.0
0
VERTEX
5
700
100
AcDbEntity
8
0-0
6
CONTINUOUS
62
  7
100
AcDbVertex
100
AcDb2dVertex
10
789.365895811180
20
386.878767689113
30
0.0
0
VERTEX
5
701
100
AcDbEntity
8
0-0
6
CONTINUOUS
62
  7
100
AcDbVertex
100
AcDb2dVertex
10
787.472688908577
20
387.523568141915
30
0.0
0
SEQEND
5
702
100
AcDbEntity
8
0-0
0
POLYLINE
5
703
100
AcDbEntity
8
0-0
6
CONTINUOUS
62
  7
100
AcDb2dPolyline
66
1
10
0.0
20
0.0
30
0.0
70
0
0
VERTEX
5
704
100
AcDbEntity
8
0-0
6
CONTINUOUS
62
  7
100
AcDbVertex
100
AcDb2dVertex
10
788.048730765307
20
388.383784712913
30
0.0
0
VERTEX
5
705
100
AcDbEntity
8
0-0
6
CONTINUOUS
62
  7
100
AcDbVertex
100
AcDb2dVertex
10
789.365895811180
20
386.878767689113
30
0.0
0
VERTEX
5
706
100
AcDbEntity
8
0-0
6
CONTINUOUS
62
  7
100
AcDbVertex
100
AcDb2dVertex
10
789.365895811180
20
489.128767689113
30
0.0
0
SEQEND
5
707
100
AcDbEntity
8
0-0
0
POLYLINE
5
708
100
AcDbEntity
8
0-0
6
CONTINUOUS
62
  7
100
AcDb2dPolyline
66
1
10
0.0
20
0.0
30
0.0
70
0
0
VERTEX
5
709
100
AcDbEntity
8
0-0
6
CONTINUOUS
62
  7
100
AcDbVertex
100
AcDb2dVertex
10
793.065895811180
20
489.678767689113
30
0.0
0
VERTEX
5
70a
100
AcDbEntity
8
0-0
6
CONTINUOUS
62
  7
100
AcDbVertex
100
AcDb2dVertex
10
804.365895811180
20
489.678767689113
30
0.0
0
VERTEX
5
70b
100
AcDbEntity
8
0-0
6
CONTINUOUS
62
  7
100
AcDbVertex
100
AcDb2dVertex
10
804.365895811180
20
492.878767689113
30
0.0
0
VERTEX
5
70c
100
AcDbEntity
8
0-0
6
CONTINUOUS
62
  7
100
AcDbVertex
100
AcDb2dVertex
10
793.115895811180
20
492.878767689113
30
0.0
0
SEQEND
5
70d
100
AcDbEntity
8
0-0
0
LINE
5
70e
100
AcDbEntity
8
0-1
6
CENTER
62
4
100
AcDbLine
10
789.365895811180
20
473.878767689113
30
0.0
11
809.365895811180
21
473.878767689113
31
0.0
0
LINE
5
70f
100
AcDbEntity
8
0-0
6
CONTINUOUS
62
7
100
AcDbLine
10
795.565895811180
20
464.878767689113
30
0.0
11
792.565895811180
21
461.878767689113
31
0.0
0
LINE
5
710
100
AcDbEntity
8
0-1
6
CENTER
62
4
100
AcDbLine
10
852.332434541583
20
461.384321689113
30
0.0
11
852.332434541583
21
394.373215689113
31
0.0
0
LINE
5
711
100
AcDbEntity
8
0-0
6
CONTINUOUS
62
7
100
AcDbLine
10
847.332434541583
20
386.878775689113
30
0.0
11
933.330364541583
21
386.878775689113
31
0.0
0
LINE
5
712
100
AcDbEntity
8
0-1
6
CENTER
62
4
100
AcDbLine
10
932.832434541583
20
393.128775689113
30
0.0
11
932.832434541583
21
398.628775689113
31
0.0
0
LINE
5
713
100
AcDbEntity
8
0-1
6
CENTER
62
4
100
AcDbLine
10
935.432434541583
20
395.878775689113
30
0.0
11
930.232434541584
21
395.878775689113
31
0.0
0
LINE
5
714
100
AcDbEntity
8
0-0
6
CONTINUOUS
62
7
100
AcDbLine
10
942.727284541583
20
393.458575689113
30
0.0
11
966.729364541583
21
459.403726689113
31
0.0
0
POLYLINE
5
715
100
AcDbEntity
8
0-0
6
CONTINUOUS
62
  7
100
AcDb2dPolyline
66
1
10
0.0
20
0.0
30
0.0
70
0
0
VERTEX
5
716
100
AcDbEntity
8
0-0
6
CONTINUOUS
62
  7
100
AcDbVertex
100
AcDb2dVertex
10
967.332434541583
20
462.823928689113
30
0.0
0
VERTEX
5
717
100
AcDbEntity
8
0-0
6
CONTINUOUS
62
  7
100
AcDbVertex
100
AcDb2dVertex
10
967.332434541583
20
492.878767689113
30
0.0
0
VERTEX
5
718
100
AcDbEntity
8
0-0
6
CONTINUOUS
62
  7
100
AcDbVertex
100
AcDb2dVertex
10
837.332434541583
20
492.878767689113
30
0.0
0
VERTEX
5
719
100
AcDbEntity
8
0-0
6
CONTINUOUS
62
  7
100
AcDbVertex
100
AcDb2dVertex
10
837.332434541583
20
396.878775689113
30
0.0
0
SEQEND
5
71a
100
AcDbEntity
8
0-0
0
LINE
5
71b
100
AcDbEntity
8
0-1
6
CENTER
62
4
100
AcDbLine
10
845.832434541583
20
401.878775689113
30
0.0
11
910.832434541583
21
401.878775689113
31
0.0
0
LINE
5
71c
100
AcDbEntity
8
0-1
6
CENTER
62
4
100
AcDbLine
10
904.332434541583
20
394.373215689113
30
0.0
11
904.332434541583
21
461.384321689113
31
0.0
0
LINE
5
71d
100
AcDbEntity
8
0-1
6
CENTER
62
4
100
AcDbLine
10
910.832434541583
20
453.878767689113
30
0.0
11
845.832434541583
21
453.878767689113
31
0.0
0
LINE
5
71e
100
AcDbEntity
8
0-1
6
CENTER
62
4
100
AcDbLine
10
846.332434541583
20
479.778767689113
30
0.0
11
846.332434541583
21
484.978767689113
31
0.0
0
LINE
5
71f
100
AcDbEntity
8
0-1
6
CENTER
62
4
100
AcDbLine
10
843.582434541583
20
482.378767689113
30
0.0
11
849.082434541583
21
482.378767689113
31
0.0
0
LINE
5
720
100
AcDbEntity
8
0-1
6
DASHED
62
4
100
AcDbLine
10
837.332434541583
20
489.678767689113
30
0.0
11
967.332434541583
21
489.678767689113
31
0.0
0
LINE
5
721
100
AcDbEntity
8
0-1
6
CENTER
62
4
100
AcDbLine
10
961.832434541583
20
473.878767689113
30
0.0
11
945.832434541583
21
473.878767689113
31
0.0
0
LINE
5
722
100
AcDbEntity
8
0-1
6
CENTER
62
4
100
AcDbLine
10
953.832434541583
20
465.878767689113
30
0.0
11
953.832434541583
21
481.878767689113
31
0.0
0
LINE
5
723
100
AcDbEntity
8
0-1
6
CENTER
62
4
100
AcDbLine
10
932.832434541583
20
463.628767689113
30
0.0
11
932.832434541583
21
458.128767689113
31
0.0
0
LINE
5
724
100
AcDbEntity
8
0-1
6
CENTER
62
4
100
AcDbLine
10
935.432434541583
20
460.878767689113
30
0.0
11
930.232434541584
21
460.878767689113
31
0.0
0
LINE
5
725
100
AcDbEntity
8
0-1
6
CENTER
62
4
100
AcDbLine
10
914.082434541583
20
482.378767689113
30
0.0
11
908.582434541583
21
482.378767689113
31
0.0
0
LINE
5
726
100
AcDbEntity
8
0-1
6
CENTER
62
4
100
AcDbLine
10
911.332434541583
20
479.778767689113
30
0.0
11
911.332434541583
21
484.978767689113
31
0.0
0
LINE
5
727
100
AcDbEntity
8
0-0
6
CONTINUOUS
62
7
100
AcDbLine
10
882.384654067503
20
273.875318876201
30
0.0
11
882.384654067503
21
264.875318876201
31
0.0
0
POLYLINE
5
728
100
AcDbEntity
8
0-0
6
CONTINUOUS
62
  7
100
AcDb2dPolyline
66
1
10
0.0
20
0.0
30
0.0
70
0
0
VERTEX
5
729
100
AcDbEntity
8
0-0
6
CONTINUOUS
62
  7
100
AcDbVertex
100
AcDb2dVertex
10
882.384654067503
20
273.875318876201
30
0.0
0
VERTEX
5
72a
100
AcDbEntity
8
0-0
6
CONTINUOUS
62
  7
100
AcDbVertex
100
AcDb2dVertex
10
752.384654067503
20
273.875318876201
30
0.0
0
VERTEX
5
72b
100
AcDbEntity
8
0-0
6
CONTINUOUS
62
  7
100
AcDbVertex
100
AcDb2dVertex
10
752.384654067503
20
264.875318876201
30
0.0
0
SEQEND
5
72c
100
AcDbEntity
8
0-0
0
POLYLINE
5
72d
100
AcDbEntity
8
0-0
6
CONTINUOUS
62
  7
100
AcDb2dPolyline
66
1
10
0.0
20
0.0
30
0.0
70
0
0
VERTEX
5
72e
100
AcDbEntity
8
0-0
6
CONTINUOUS
62
  7
100
AcDbVertex
100
AcDb2dVertex
10
756.884654067502
20
259.065848876201
30
0.0
0
VERTEX
5
72f
100
AcDbEntity
8
0-0
6
CONTINUOUS
62
  7
100
AcDbVertex
100
AcDb2dVertex
10
756.884654067502
20
254.875318876201
30
0.0
0
VERTEX
5
730
100
AcDbEntity
8
0-0
6
CONTINUOUS
62
  7
100
AcDbVertex
100
AcDb2dVertex
10
757.884654067502
20
253.875318876201
30
0.0
0
VERTEX
5
731
100
AcDbEntity
8
0-0
6
CONTINUOUS
62
  7
100
AcDbVertex
100
AcDb2dVertex
10
773.884654067503
20
253.875318876201
30
0.0
0
VERTEX
5
732
100
AcDbEntity
8
0-0
6
CONTINUOUS
62
  7
100
AcDbVertex
100
AcDb2dVertex
10
774.884654067503
20
254.875318876201
30
0.0
0
VERTEX
5
733
100
AcDbEntity
8
0-0
6
CONTINUOUS
62
  7
100
AcDbVertex
100
AcDb2dVertex
10
756.884654067502
20
254.875318876201
30
0.0
0
SEQEND
5
734
100
AcDbEntity
8
0-0
0
LINE
5
735
100
AcDbEntity
8
0-0
6
CONTINUOUS
62
7
100
AcDbLine
10
774.884654067503
20
254.875318876201
30
0.0
11
774.884654067503
21
258.875318876201
31
0.0
0
POLYLINE
5
736
100
AcDbEntity
8
0-0
6
CONTINUOUS
62
  7
100
AcDb2dPolyline
66
1
10
0.0
20
0.0
30
0.0
70
0
0
VERTEX
5
737
100
AcDbEntity
8
0-0
6
CONTINUOUS
62
  7
100
AcDbVertex
100
AcDb2dVertex
10
808.884654067503
20
253.675318876201
30
0.0
0
VERTEX
5
738
100
AcDbEntity
8
0-0
6
CONTINUOUS
62
  7
100
AcDbVertex
100
AcDb2dVertex
10
822.410988106493
20
255.873348157537
30
0.0
0
VERTEX
5
739
100
AcDbEntity
8
0-0
6
CONTINUOUS
62
  7
100
AcDbVertex
100
AcDb2dVertex
10
822.651883672003
20
255.900276258775
30
0.0
0
VERTEX
5
73a
100
AcDbEntity
8
0-0
6
CONTINUOUS
62
  7
100
AcDbVertex
100
AcDb2dVertex
10
823.202480408959
20
255.876919858302
30
0.0
0
VERTEX
5
73b
100
AcDbEntity
8
0-0
6
CONTINUOUS
62
  7
100
AcDbVertex
100
AcDb2dVertex
10
823.766347724131
20
255.739381578514
30
0.0
0
VERTEX
5
73c
100
AcDbEntity
8
0-0
6
CONTINUOUS
62
  7
100
AcDbVertex
100
AcDb2dVertex
10
824.312728360809
20
255.493961796800
30
0.0
0
VERTEX
5
73d
100
AcDbEntity
8
0-0
6
CONTINUOUS
62
  7
100
AcDbVertex
100
AcDb2dVertex
10
824.839353841258
20
255.129817814941
30
0.0
0
VERTEX
5
73e
100
AcDbEntity
8
0-0
6
CONTINUOUS
62
  7
100
AcDbVertex
100
AcDb2dVertex
10
825.178790176346
20
254.800228247527
30
0.0
0
VERTEX
5
73f
100
AcDbEntity
8
0-0
6
CONTINUOUS
62
  7
100
AcDbVertex
100
AcDb2dVertex
10
825.478924686656
20
254.402894761324
30
0.0
0
VERTEX
5
740
100
AcDbEntity
8
0-0
6
CONTINUOUS
62
  7
100
AcDbVertex
100
AcDb2dVertex
10
825.660592778180
20
254.069207523661
30
0.0
0
VERTEX
5
741
100
AcDbEntity
8
0-0
6
CONTINUOUS
62
  7
100
AcDbVertex
100
AcDb2dVertex
10
825.799995003122
20
253.702140718315
30
0.0
0
VERTEX
5
742
100
AcDbEntity
8
0-0
6
CONTINUOUS
62
  7
100
AcDbVertex
100
AcDb2dVertex
10
825.887097437035
20
253.306607311198
30
0.0
0
VERTEX
5
743
100
AcDbEntity
8
0-0
6
CONTINUOUS
62
  7
100
AcDbVertex
100
AcDb2dVertex
10
825.916945769245
20
252.897156442092
30
0.0
0
VERTEX
5
744
100
AcDbEntity
8
0-0
6
CONTINUOUS
62
  7
100
AcDbVertex
100
AcDb2dVertex
10
825.916945769245
20
212.746880253604
30
0.0
0
VERTEX
5
745
100
AcDbEntity
8
0-0
6
CONTINUOUS
62
  7
100
AcDbVertex
100
AcDb2dVertex
10
826.593951698742
20
213.053919259224
30
0.0
0
VERTEX
5
746
100
AcDbEntity
8
0-0
6
CONTINUOUS
62
  7
100
AcDbVertex
100
AcDb2dVertex
10
827.273052246551
20
213.426410389541
30
0.0
0
VERTEX
5
747
100
AcDbEntity
8
0-0
6
CONTINUOUS
62
  7
100
AcDbVertex
100
AcDb2dVertex
10
827.982608854130
20
213.894412128381
30
0.0
0
VERTEX
5
748
100
AcDbEntity
8
0-0
6
CONTINUOUS
62
  7
100
AcDbVertex
100
AcDb2dVertex
10
828.669441491311
20
214.437589575476
30
0.0
0
VERTEX
5
749
100
AcDbEntity
8
0-0
6
CONTINUOUS
62
  7
100
AcDbVertex
100
AcDb2dVertex
10
829.347627317138
20
215.082216918676
30
0.0
0
VERTEX
5
74a
100
AcDbEntity
8
0-0
6
CONTINUOUS
62
  7
100
AcDbVertex
100
AcDb2dVertex
10
829.976006961973
20
215.803815103964
30
0.0
0
VERTEX
5
74b
100
AcDbEntity
8
0-0
6
CONTINUOUS
62
  7
100
AcDbVertex
100
AcDb2dVertex
10
830.400204464206
20
216.382526822372
30
0.0
0
VERTEX
5
74c
100
AcDbEntity
8
0-0
6
CONTINUOUS
62
  7
100
AcDbVertex
100
AcDb2dVertex
10
830.788232182293
20
217.001269716893
30
0.0
0
SEQEND
5
74d
100
AcDbEntity
8
0-0
0
LINE
5
74e
100
AcDbEntity
8
0-0
6
CONTINUOUS
62
7
100
AcDbLine
10
830.788232182293
20
217.001269716893
30
0.0
11
848.497902721555
21
247.675318876201
31
0.0
0
POLYLINE
5
74f
100
AcDbEntity
8
0-0
6
CONTINUOUS
62
  7
100
AcDb2dPolyline
66
1
10
0.0
20
0.0
30
0.0
70
0
0
VERTEX
5
750
100
AcDbEntity
8
0-0
6
CONTINUOUS
62
  7
100
AcDbVertex
100
AcDb2dVertex
10
848.497902721554
20
247.675318876201
30
0.0
0
VERTEX
5
751
100
AcDbEntity
8
0-0
6
CONTINUOUS
62
  7
100
AcDbVertex
100
AcDb2dVertex
10
849.082779999572
20
248.571919358752
30
0.0
0
VERTEX
5
752
100
AcDbEntity
8
0-0
6
CONTINUOUS
62
  7
100
AcDbVertex
100
AcDb2dVertex
10
849.755545424627
20
249.397137971051
30
0.0
0
VERTEX
5
753
100
AcDbEntity
8
0-0
6
CONTINUOUS
62
  7
100
AcDbVertex
100
AcDb2dVertex
10
850.499603636784
20
250.136127834573
30
0.0
0
VERTEX
5
754
100
AcDbEntity
8
0-0
6
CONTINUOUS
62
  7
100
AcDbVertex
100
AcDb2dVertex
10
851.303483683656
20
250.781298918895
30
0.0
0
VERTEX
5
755
100
AcDbEntity
8
0-0
6
CONTINUOUS
62
  7
100
AcDbVertex
100
AcDb2dVertex
10
852.154460963983
20
251.332511132445
30
0.0
0
VERTEX
5
756
100
AcDbEntity
8
0-0
6
CONTINUOUS
62
  7
100
AcDbVertex
100
AcDb2dVertex
10
853.032265420981
20
251.784491213113
30
0.0
0
VERTEX
5
757
100
AcDbEntity
8
0-0
6
CONTINUOUS
62
  7
100
AcDbVertex
100
AcDb2dVertex
10
853.947341846909
20
252.145333245361
30
0.0
0
VERTEX
5
758
100
AcDbEntity
8
0-0
6
CONTINUOUS
62
  7
100
AcDbVertex
100
AcDb2dVertex
10
854.865959290324
20
252.408566130882
30
0.0
0
VERTEX
5
759
100
AcDbEntity
8
0-0
6
CONTINUOUS
62
  7
100
AcDbVertex
100
AcDb2dVertex
10
855.771419973583
20
252.578700171843
30
0.0
0
VERTEX
5
75a
100
AcDbEntity
8
0-0
6
CONTINUOUS
62
  7
100
AcDbVertex
100
AcDb2dVertex
10
856.473404790537
20
252.651826691576
30
0.0
0
VERTEX
5
75b
100
AcDbEntity
8
0-0
6
CONTINUOUS
62
  7
100
AcDbVertex
100
AcDb2dVertex
10
857.158156759399
20
252.675318876201
30
0.0
0
SEQEND
5
75c
100
AcDbEntity
8
0-0
0
POLYLINE
5
75d
100
AcDbEntity
8
0-0
6
CONTINUOUS
62
  7
100
AcDb2dPolyline
66
1
10
0.0
20
0.0
30
0.0
70
0
0
VERTEX
5
75e
100
AcDbEntity
8
0-0
6
CONTINUOUS
62
  7
100
AcDbVertex
100
AcDb2dVertex
10
857.158156759399
20
252.675318876201
30
0.0
0
VERTEX
5
75f
100
AcDbEntity
8
0-0
6
CONTINUOUS
62
  7
100
AcDbVertex
100
AcDb2dVertex
10
865.884654067503
20
252.675318876201
30
0.0
0
VERTEX
5
760
100
AcDbEntity
8
0-0
6
CONTINUOUS
62
  7
100
AcDbVertex
100
AcDb2dVertex
10
865.884654067503
20
257.675318876201
30
0.0
0
SEQEND
5
761
100
AcDbEntity
8
0-0
0
LINE
5
762
100
AcDbEntity
8
0-0
6
CONTINUOUS
62
7
100
AcDbLine
10
876.384654067503
20
258.875318876201
30
0.0
11
758.384654067503
21
258.875318876201
31
0.0
0
LINE
5
763
100
AcDbEntity
8
0-0
6
CENTER
62
4
100
AcDbLine
10
786.384654050408
20
220.675318856322
30
0.0
11
846.384654050408
21
220.675318856322
31
0.0
0
POLYLINE
5
764
100
AcDbEntity
8
0-0
6
CONTINUOUS
62
  7
100
AcDb2dPolyline
66
1
10
0.0
20
0.0
30
0.0
70
0
0
VERTEX
5
765
100
AcDbEntity
8
0-0
6
CONTINUOUS
62
  7
100
AcDbVertex
100
AcDb2dVertex
10
822.777154050409
20
216.984607260527
30
0.0
0
VERTEX
5
766
100
AcDbEntity
8
0-0
6
CONTINUOUS
62
  7
100
AcDbVertex
100
AcDb2dVertex
10
816.384654050409
20
213.293895664732
30
0.0
0
VERTEX
5
767
100
AcDbEntity
8
0-0
6
CONTINUOUS
62
  7
100
AcDbVertex
100
AcDb2dVertex
10
809.992154050409
20
216.984607260527
30
0.0
0
VERTEX
5
768
100
AcDbEntity
8
0-0
6
CONTINUOUS
62
  7
100
AcDbVertex
100
AcDb2dVertex
10
809.992154050409
20
224.366030452117
30
0.0
0
VERTEX
5
769
100
AcDbEntity
8
0-0
6
CONTINUOUS
62
  7
100
AcDbVertex
100
AcDb2dVertex
10
816.384654050408
20
228.056742047911
30
0.0
0
VERTEX
5
76a
100
AcDbEntity
8
0-0
6
CONTINUOUS
62
  7
100
AcDbVertex
100
AcDb2dVertex
10
822.777154050409
20
224.366030452117
30
0.0
0
VERTEX
5
76b
100
AcDbEntity
8
0-0
6
CONTINUOUS
62
  7
100
AcDbVertex
100
AcDb2dVertex
10
822.777154050409
20
216.984607260527
30
0.0
0
SEQEND
5
76c
100
AcDbEntity
8
0-0
0
LINE
5
76d
100
AcDbEntity
8
0-0
6
CONTINUOUS
62
7
100
AcDbLine
10
824.377488687888
20
212.257569069041
30
0.0
11
818.634164610942
21
210.931618228349
31
0.0
0
LINE
5
76e
100
AcDbEntity
8
0-0
6
CENTER
62
4
100
AcDbLine
10
816.384654050408
20
190.675318856322
30
0.0
11
816.384654050408
21
250.675318856322
31
0.0
0
LINE
5
76f
100
AcDbEntity
8
0-0
6
CONTINUOUS
62
7
100
AcDbLine
10
816.884654067503
20
254.975318876201
30
0.0
11
816.884654067503
21
257.675318876201
31
0.0
0
LINE
5
770
100
AcDbEntity
8
0-0
6
CONTINUOUS
62
7
100
AcDbLine
10
808.884654067503
20
253.675318876201
30
0.0
11
806.413898608421
21
221.439541078952
31
0.0
0
LINE
5
771
100
AcDbEntity
8
F-F_J_ADD
6
HIDDEN
62
4
100
AcDbLine
10
766.591760848690
20
254.582425657387
30
0.0
11
765.884654067503
21
253.875318876201
31
0.0
0
LINE
5
772
100
AcDbEntity
8
F-F_J_ADD
6
HIDDEN
62
4
100
AcDbLine
10
765.884654067503
20
253.875318876201
30
0.0
11
765.177547286316
21
254.582425657387
31
0.0
0
POLYLINE
5
773
100
AcDbEntity
8
0-0
6
CONTINUOUS
62
  7
100
AcDb2dPolyline
66
1
10
0.0
20
0.0
30
0.0
70
0
0
VERTEX
5
774
100
AcDbEntity
8
0-0
6
CONTINUOUS
62
  7
100
AcDbVertex
100
AcDb2dVertex
10
679.649701120828
20
253.875318876201
30
0.0
0
VERTEX
5
775
100
AcDbEntity
8
0-0
6
CONTINUOUS
62
  7
100
AcDbVertex
100
AcDb2dVertex
10
695.649701120828
20
253.875318876201
30
0.0
0
VERTEX
5
776
100
AcDbEntity
8
0-0
6
CONTINUOUS
62
  7
100
AcDbVertex
100
AcDb2dVertex
10
696.649701120828
20
254.875318876201
30
0.0
0
VERTEX
5
777
100
AcDbEntity
8
0-0
6
CONTINUOUS
62
  7
100
AcDbVertex
100
AcDb2dVertex
10
696.649701120828
20
270.675318876201
30
0.0
0
SEQEND
5
778
100
AcDbEntity
8
0-0
0
LINE
5
779
100
AcDbEntity
8
F-F_J_ADD
6
HIDDEN
62
253
100
AcDbLine
10
696.149701120828
20
270.675318876201
30
0.0
11
695.442594339641
21
271.382425657387
31
0.0
0
LINE
5
77a
100
AcDbEntity
8
0-0
6
CONTINUOUS
62
2
100
AcDbLine
10
695.774423452590
20
270.675318876201
30
0.0
11
696.524978789065
21
269.375318685466
31
0.0
0
LINE
5
77b
100
AcDbEntity
8
0-0
6
CONTINUOUS
62
4
100
AcDbLine
10
694.935415389512
20
269.375318685466
30
0.0
11
694.935415389512
21
264.875318685466
31
0.0
0
LINE
5
77c
100
AcDbEntity
8
0-0
6
CONTINUOUS
62
4
100
AcDbLine
10
694.328272583459
20
264.875318685466
30
0.0
11
694.328272583459
21
269.375318685466
31
0.0
0
LINE
5
77d
100
AcDbEntity
8
0-0
6
CONTINUOUS
62
4
100
AcDbLine
10
693.721129658196
20
269.375318685466
30
0.0
11
693.721129658196
21
264.875318685466
31
0.0
0
LINE
5
77e
100
AcDbEntity
8
0-0
6
CONTINUOUS
62
4
100
AcDbLine
10
693.113986732934
20
264.875318685466
30
0.0
11
693.113986732934
21
269.375318685466
31
0.0
0
LINE
5
77f
100
AcDbEntity
8
0-0
6
CONTINUOUS
62
4
100
AcDbLine
10
692.506844046090
20
269.375318685466
30
0.0
11
692.506844046090
21
264.875318685466
31
0.0
0
POLYLINE
5
780
100
AcDbEntity
8
0-0
6
CONTINUOUS
62
  2
100
AcDb2dPolyline
66
1
10
0.0
20
0.0
30
0.0
70
0
0
VERTEX
5
781
100
AcDbEntity
8
0-0
6
CONTINUOUS
62
  2
100
AcDbVertex
100
AcDb2dVertex
10
692.399701120828
20
264.375318685466
30
0.0
0
VERTEX
5
782
100
AcDbEntity
8
0-0
6
CONTINUOUS
62
  2
100
AcDbVertex
100
AcDb2dVertex
10
699.899701120828
20
264.375318685466
30
0.0
0
VERTEX
5
783
100
AcDbEntity
8
0-0
6
CONTINUOUS
62
  2
100
AcDbVertex
100
AcDb2dVertex
10
700.399701120828
20
264.875318685466
30
0.0
0
VERTEX
5
784
100
AcDbEntity
8
0-0
6
CONTINUOUS
62
  2
100
AcDbVertex
100
AcDb2dVertex
10
691.899701120828
20
264.875318685466
30
0.0
0
VERTEX
5
785
100
AcDbEntity
8
0-0
6
CONTINUOUS
62
  2
100
AcDbVertex
100
AcDb2dVertex
10
692.399701120828
20
264.375318685466
30
0.0
0
SEQEND
5
786
100
AcDbEntity
8
0-0
0
LINE
5
787
100
AcDbEntity
8
0-0
6
CONTINUOUS
62
2
100
AcDbLine
10
691.899701120828
20
264.875318685466
30
0.0
11
691.899701120828
21
270.675318876201
31
0.0
0
LINE
5
788
100
AcDbEntity
8
0-0
6
CONTINUOUS
62
2
100
AcDbLine
10
691.899701120828
20
269.375318685466
30
0.0
11
700.399701120828
21
269.375318685466
31
0.0
0
LINE
5
789
100
AcDbEntity
8
0-0
6
CONTINUOUS
62
2
100
AcDbLine
10
700.399701120828
20
270.675318876201
30
0.0
11
700.399701120828
21
264.875318685466
31
0.0
0
LINE
5
78a
100
AcDbEntity
8
0-0
6
CONTINUOUS
62
7
100
AcDbLine
10
699.649701120828
20
270.675318876201
30
0.0
11
696.649701120828
21
267.675318876201
31
0.0
0
LINE
5
78b
100
AcDbEntity
8
F-F_J_ADD
6
HIDDEN
62
253
100
AcDbLine
10
696.149701120828
20
270.675318876201
30
0.0
11
696.856807902014
21
271.382425657387
31
0.0
0
POLYLINE
5
78c
100
AcDbEntity
8
0-0
6
CONTINUOUS
62
  7
100
AcDb2dPolyline
66
1
10
0.0
20
0.0
30
0.0
70
0
0
VERTEX
5
78d
100
AcDbEntity
8
0-0
6
CONTINUOUS
62
  7
100
AcDbVertex
100
AcDb2dVertex
10
702.899701120828
20
273.875318876201
30
0.0
0
VERTEX
5
78e
100
AcDbEntity
8
0-0
6
CONTINUOUS
62
  7
100
AcDbVertex
100
AcDb2dVertex
10
600.649701120828
20
273.875318876201
30
0.0
0
VERTEX
5
78f
100
AcDbEntity
8
0-0
6
CONTINUOUS
62
  7
100
AcDbVertex
100
AcDb2dVertex
10
600.649701120828
20
270.675318876201
30
0.0
0
VERTEX
5
790
100
AcDbEntity
8
0-0
6
CONTINUOUS
62
  7
100
AcDbVertex
100
AcDb2dVertex
10
702.949701120828
20
270.675318876201
30
0.0
0
SEQEND
5
791
100
AcDbEntity
8
0-0
0
POLYLINE
5
792
100
AcDbEntity
8
0-0
6
CONTINUOUS
62
  7
100
AcDb2dPolyline
66
1
10
0.0
20
0.0
30
0.0
70
0
0
VERTEX
5
793
100
AcDbEntity
8
0-0
6
CONTINUOUS
62
  7
100
AcDbVertex
100
AcDb2dVertex
10
703.449701120828
20
270.175318876201
30
0.0
0
VERTEX
5
794
100
AcDbEntity
8
0-0
6
CONTINUOUS
62
  7
100
AcDbVertex
100
AcDb2dVertex
10
703.449701120828
20
258.875318876201
30
0.0
0
VERTEX
5
795
100
AcDbEntity
8
0-0
6
CONTINUOUS
62
  7
100
AcDbVertex
100
AcDb2dVertex
10
706.649701120828
20
258.875318876201
30
0.0
0
VERTEX
5
796
100
AcDbEntity
8
0-0
6
CONTINUOUS
62
  7
100
AcDbVertex
100
AcDb2dVertex
10
706.649701120828
20
270.125318876201
30
0.0
0
SEQEND
5
797
100
AcDbEntity
8
0-0
0
POLYLINE
5
798
100
AcDbEntity
8
0-0
6
CONTINUOUS
62
  7
100
AcDb2dPolyline
66
1
10
0.0
20
0.0
30
0.0
70
0
0
VERTEX
5
799
100
AcDbEntity
8
0-0
6
CONTINUOUS
62
  7
100
AcDbVertex
100
AcDb2dVertex
10
696.649701120828
20
254.875318876201
30
0.0
0
VERTEX
5
79a
100
AcDbEntity
8
0-0
6
CONTINUOUS
62
  7
100
AcDbVertex
100
AcDb2dVertex
10
678.649701120828
20
254.875318876201
30
0.0
0
VERTEX
5
79b
100
AcDbEntity
8
0-0
6
CONTINUOUS
62
  7
100
AcDbVertex
100
AcDb2dVertex
10
679.649701120828
20
253.875318876201
30
0.0
0
SEQEND
5
79c
100
AcDbEntity
8
0-0
0
LINE
5
79d
100
AcDbEntity
8
0-0
6
CONTINUOUS
62
7
100
AcDbLine
10
678.649701120828
20
254.875318876201
30
0.0
11
678.649701120828
21
270.675318876201
31
0.0
0
POLYLINE
5
79e
100
AcDbEntity
8
0-0
6
CONTINUOUS
62
  7
100
AcDb2dPolyline
66
1
10
0.0
20
0.0
30
0.0
70
0
0
VERTEX
5
79f
100
AcDbEntity
8
0-0
6
CONTINUOUS
62
  7
100
AcDbVertex
100
AcDb2dVertex
10
676.649701120828
20
270.675318876201
30
0.0
0
VERTEX
5
7a0
100
AcDbEntity
8
0-0
6
CONTINUOUS
62
  7
100
AcDbVertex
100
AcDb2dVertex
10
676.649701120828
20
268.175318876201
30
0.0
0
VERTEX
5
7a1
100
AcDbEntity
8
0-0
6
CONTINUOUS
62
  7
100
AcDbVertex
100
AcDb2dVertex
10
606.649701120827
20
268.175318876201
30
0.0
0
VERTEX
5
7a2
100
AcDbEntity
8
0-0
6
CONTINUOUS
62
  7
100
AcDbVertex
100
AcDb2dVertex
10
606.649701120827
20
270.675318876201
30
0.0
0
SEQEND
5
7a3
100
AcDbEntity
8
0-0
0
POLYLINE
5
7a4
100
AcDbEntity
8
0-0
6
CONTINUOUS
62
  2
100
AcDb2dPolyline
66
1
10
0.0
20
0.0
30
0.0
70
0
0
VERTEX
5
7a5
100
AcDbEntity
8
0-0
6
CONTINUOUS
62
  2
100
AcDbVertex
100
AcDb2dVertex
10
606.754700663064
20
268.175318876201
30
0.0
0
VERTEX
5
7a6
100
AcDbEntity
8
0-0
6
CONTINUOUS
62
  2
100
AcDbVertex
100
AcDb2dVertex
10
606.754700663064
20
266.945318857127
30
0.0
0
VERTEX
5
7a7
100
AcDbEntity
8
0-0
6
CONTINUOUS
62
  2
100
AcDbVertex
100
AcDb2dVertex
10
624.544701578591
20
266.945318857127
30
0.0
0
VERTEX
5
7a8
100
AcDbEntity
8
0-0
6
CONTINUOUS
62
  2
100
AcDbVertex
100
AcDb2dVertex
10
624.544701578591
20
268.175318876201
30
0.0
0
SEQEND
5
7a9
100
AcDbEntity
8
0-0
0
POLYLINE
5
7aa
100
AcDbEntity
8
0-0
6
CONTINUOUS
62
  2
100
AcDb2dPolyline
66
1
10
0.0
20
0.0
30
0.0
70
0
0
VERTEX
5
7ab
100
AcDbEntity
8
0-0
6
CONTINUOUS
62
  2
100
AcDbVertex
100
AcDb2dVertex
10
622.149701120828
20
266.945318857127
30
0.0
0
VERTEX
5
7ac
100
AcDbEntity
8
0-0
6
CONTINUOUS
62
  2
100
AcDbVertex
100
AcDb2dVertex
10
622.149701120828
20
257.945319333964
30
0.0
0
VERTEX
5
7ad
100
AcDbEntity
8
0-0
6
CONTINUOUS
62
  2
100
AcDbVertex
100
AcDb2dVertex
10
621.149701120828
20
256.945319333964
30
0.0
0
VERTEX
5
7ae
100
AcDbEntity
8
0-0
6
CONTINUOUS
62
  2
100
AcDbVertex
100
AcDb2dVertex
10
610.149701120828
20
256.945319333964
30
0.0
0
VERTEX
5
7af
100
AcDbEntity
8
0-0
6
CONTINUOUS
62
  2
100
AcDbVertex
100
AcDb2dVertex
10
609.149701120828
20
257.945319333964
30
0.0
0
VERTEX
5
7b0
100
AcDbEntity
8
0-0
6
CONTINUOUS
62
  2
100
AcDbVertex
100
AcDb2dVertex
10
622.149701120828
20
257.945319333964
30
0.0
0
SEQEND
5
7b1
100
AcDbEntity
8
0-0
0
POLYLINE
5
7b2
100
AcDbEntity
8
0-0
6
CONTINUOUS
62
  7
100
AcDb2dPolyline
66
1
10
0.0
20
0.0
30
0.0
70
0
0
VERTEX
5
7b3
100
AcDbEntity
8
0-0
6
CONTINUOUS
62
  7
100
AcDbVertex
100
AcDb2dVertex
10
623.517513945188
20
255.070350607559
30
0.0
0
VERTEX
5
7b4
100
AcDbEntity
8
0-0
6
CONTINUOUS
62
  7
100
AcDbVertex
100
AcDb2dVertex
10
623.250365578364
20
254.768092310869
30
0.0
0
VERTEX
5
7b5
100
AcDbEntity
8
0-0
6
CONTINUOUS
62
  7
100
AcDbVertex
100
AcDb2dVertex
10
623.014883706176
20
254.402961911832
30
0.0
0
VERTEX
5
7b6
100
AcDbEntity
8
0-0
6
CONTINUOUS
62
  7
100
AcDbVertex
100
AcDb2dVertex
10
622.860856184684
20
254.068579002940
30
0.0
0
VERTEX
5
7b7
100
AcDbEntity
8
0-0
6
CONTINUOUS
62
  7
100
AcDbVertex
100
AcDb2dVertex
10
622.742481029986
20
253.689781826895
30
0.0
0
VERTEX
5
7b8
100
AcDbEntity
8
0-0
6
CONTINUOUS
62
  7
100
AcDbVertex
100
AcDb2dVertex
10
622.673703048662
20
253.306931565267
30
0.0
0
VERTEX
5
7b9
100
AcDbEntity
8
0-0
6
CONTINUOUS
62
  7
100
AcDbVertex
100
AcDb2dVertex
10
622.649701120828
20
252.897156442092
30
0.0
0
VERTEX
5
7ba
100
AcDbEntity
8
0-0
6
CONTINUOUS
62
  7
100
AcDbVertex
100
AcDb2dVertex
10
622.649701120828
20
210.675318871846
30
0.0
0
VERTEX
5
7bb
100
AcDbEntity
8
0-0
6
CONTINUOUS
62
  7
100
AcDbVertex
100
AcDb2dVertex
10
625.149701120828
20
210.675318871846
30
0.0
0
VERTEX
5
7bc
100
AcDbEntity
8
0-0
6
CONTINUOUS
62
  7
100
AcDbVertex
100
AcDb2dVertex
10
625.149701120828
20
251.110582250315
30
0.0
0
VERTEX
5
7bd
100
AcDbEntity
8
0-0
6
CONTINUOUS
62
  7
100
AcDbVertex
100
AcDb2dVertex
10
658.149701120828
20
251.110582250315
30
0.0
0
VERTEX
5
7be
100
AcDbEntity
8
0-0
6
CONTINUOUS
62
  7
100
AcDbVertex
100
AcDb2dVertex
10
658.149701120828
20
210.675318871846
30
0.0
0
VERTEX
5
7bf
100
AcDbEntity
8
0-0
6
CONTINUOUS
62
  7
100
AcDbVertex
100
AcDb2dVertex
10
660.649701120828
20
210.675318871846
30
0.0
0
VERTEX
5
7c0
100
AcDbEntity
8
0-0
6
CONTINUOUS
62
  7
100
AcDbVertex
100
AcDb2dVertex
10
660.649701120828
20
252.897156442092
30
0.0
0
VERTEX
5
7c1
100
AcDbEntity
8
0-0
6
CONTINUOUS
62
  7
100
AcDbVertex
100
AcDb2dVertex
10
660.626557389524
20
253.299648580204
30
0.0
0
VERTEX
5
7c2
100
AcDbEntity
8
0-0
6
CONTINUOUS
62
  7
100
AcDbVertex
100
AcDb2dVertex
10
660.553891181420
20
253.702140718315
30
0.0
0
VERTEX
5
7c3
100
AcDbEntity
8
0-0
6
CONTINUOUS
62
  7
100
AcDbVertex
100
AcDb2dVertex
10
660.440040478308
20
254.064702224969
30
0.0
0
VERTEX
5
7c4
100
AcDbEntity
8
0-0
6
CONTINUOUS
62
  7
100
AcDbVertex
100
AcDb2dVertex
10
660.284554832710
20
254.402894761324
30
0.0
0
VERTEX
5
7c5
100
AcDbEntity
8
0-0
6
CONTINUOUS
62
  7
100
AcDbVertex
100
AcDb2dVertex
10
660.027861078862
20
254.795546033835
30
0.0
0
VERTEX
5
7c6
100
AcDbEntity
8
0-0
6
CONTINUOUS
62
  7
100
AcDbVertex
100
AcDb2dVertex
10
659.719096252470
20
255.129817814941
30
0.0
0
VERTEX
5
7c7
100
AcDbEntity
8
0-0
6
CONTINUOUS
62
  7
100
AcDbVertex
100
AcDb2dVertex
10
659.229138298010
20
255.489833929866
30
0.0
0
VERTEX
5
7c8
100
AcDbEntity
8
0-0
6
CONTINUOUS
62
  7
100
AcDbVertex
100
AcDb2dVertex
10
658.674544191796
20
255.739381578514
30
0.0
0
VERTEX
5
7c9
100
AcDbEntity
8
0-0
6
CONTINUOUS
62
  7
100
AcDbVertex
100
AcDb2dVertex
10
658.077103008976
20
255.876119276295
30
0.0
0
VERTEX
5
7ca
100
AcDbEntity
8
0-0
6
CONTINUOUS
62
  7
100
AcDbVertex
100
AcDb2dVertex
10
657.439992863207
20
255.900276258775
30
0.0
0
VERTEX
5
7cb
100
AcDbEntity
8
0-0
6
CONTINUOUS
62
  7
100
AcDbVertex
100
AcDb2dVertex
10
657.149701120828
20
255.873348157537
30
0.0
0
SEQEND
5
7cc
100
AcDbEntity
8
0-0
0
POLYLINE
5
7cd
100
AcDbEntity
8
0-0
6
CONTINUOUS
62
  7
100
AcDb2dPolyline
66
1
10
0.0
20
0.0
30
0.0
70
0
0
VERTEX
5
7ce
100
AcDbEntity
8
0-0
6
CONTINUOUS
62
  7
100
AcDbVertex
100
AcDb2dVertex
10
657.149701120828
20
255.873348157537
30
0.0
0
VERTEX
5
7cf
100
AcDbEntity
8
0-0
6
CONTINUOUS
62
  7
100
AcDbVertex
100
AcDb2dVertex
10
653.164193685965
20
255.442409305988
30
0.0
0
VERTEX
5
7d0
100
AcDbEntity
8
0-0
6
CONTINUOUS
62
  7
100
AcDbVertex
100
AcDb2dVertex
10
648.739073194826
20
255.145637932525
30
0.0
0
VERTEX
5
7d1
100
AcDbEntity
8
0-0
6
CONTINUOUS
62
  7
100
AcDbVertex
100
AcDb2dVertex
10
644.043286800964
20
254.994364503494
30
0.0
0
VERTEX
5
7d2
100
AcDbEntity
8
0-0
6
CONTINUOUS
62
  7
100
AcDbVertex
100
AcDb2dVertex
10
639.256115440692
20
254.994364503494
30
0.0
0
VERTEX
5
7d3
100
AcDbEntity
8
0-0
6
CONTINUOUS
62
  7
100
AcDbVertex
100
AcDb2dVertex
10
634.560329046830
20
255.145637932525
30
0.0
0
VERTEX
5
7d4
100
AcDbEntity
8
0-0
6
CONTINUOUS
62
  7
100
AcDbVertex
100
AcDb2dVertex
10
630.135208555691
20
255.442409305988
30
0.0
0
VERTEX
5
7d5
100
AcDbEntity
8
0-0
6
CONTINUOUS
62
  7
100
AcDbVertex
100
AcDb2dVertex
10
626.149701120828
20
255.873348157537
30
0.0
0
SEQEND
5
7d6
100
AcDbEntity
8
0-0
0
POLYLINE
5
7d7
100
AcDbEntity
8
0-0
6
CONTINUOUS
62
  7
100
AcDb2dPolyline
66
1
10
0.0
20
0.0
30
0.0
70
0
0
VERTEX
5
7d8
100
AcDbEntity
8
0-0
6
CONTINUOUS
62
  7
100
AcDbVertex
100
AcDb2dVertex
10
626.149701120828
20
255.873348157537
30
0.0
0
VERTEX
5
7d9
100
AcDbEntity
8
0-0
6
CONTINUOUS
62
  7
100
AcDbVertex
100
AcDb2dVertex
10
625.480556186181
20
255.900063375381
30
0.0
0
VERTEX
5
7da
100
AcDbEntity
8
0-0
6
CONTINUOUS
62
  7
100
AcDbVertex
100
AcDb2dVertex
10
624.821650157460
20
255.797853610941
30
0.0
0
VERTEX
5
7db
100
AcDbEntity
8
0-0
6
CONTINUOUS
62
  7
100
AcDbVertex
100
AcDb2dVertex
10
624.144428365633
20
255.531469606696
30
0.0
0
VERTEX
5
7dc
100
AcDbEntity
8
0-0
6
CONTINUOUS
62
  7
100
AcDbVertex
100
AcDb2dVertex
10
623.819186330688
20
255.325787371968
30
0.0
0
VERTEX
5
7dd
100
AcDbEntity
8
0-0
6
CONTINUOUS
62
  7
100
AcDbVertex
100
AcDb2dVertex
10
623.517513945188
20
255.070350607559
30
0.0
0
SEQEND
5
7de
100
AcDbEntity
8
0-0
0
POLYLINE
5
7df
100
AcDbEntity
8
0-0
6
CONTINUOUS
62
  7
100
AcDb2dPolyline
66
1
10
0.0
20
0.0
30
0.0
70
0
0
VERTEX
5
7e0
100
AcDbEntity
8
0-0
6
CONTINUOUS
62
  7
100
AcDbVertex
100
AcDb2dVertex
10
623.674827386675
20
252.623647324131
30
0.0
0
VERTEX
5
7e1
100
AcDbEntity
8
0-0
6
CONTINUOUS
62
  7
100
AcDbVertex
100
AcDb2dVertex
10
623.239557477769
20
252.079535454789
30
0.0
0
VERTEX
5
7e2
100
AcDbEntity
8
0-0
6
CONTINUOUS
62
  7
100
AcDbVertex
100
AcDb2dVertex
10
622.916122757038
20
251.458762701109
30
0.0
0
VERTEX
5
7e3
100
AcDbEntity
8
0-0
6
CONTINUOUS
62
  7
100
AcDbVertex
100
AcDb2dVertex
10
622.716952639416
20
250.785185011883
30
0.0
0
VERTEX
5
7e4
100
AcDbEntity
8
0-0
6
CONTINUOUS
62
  7
100
AcDbVertex
100
AcDb2dVertex
10
622.649701120828
20
250.084687599960
30
0.0
0
SEQEND
5
7e5
100
AcDbEntity
8
0-0
0
POLYLINE
5
7e6
100
AcDbEntity
8
0-0
6
CONTINUOUS
62
  7
100
AcDb2dPolyline
66
1
10
0.0
20
0.0
30
0.0
70
0
0
VERTEX
5
7e7
100
AcDbEntity
8
0-0
6
CONTINUOUS
62
  7
100
AcDbVertex
100
AcDb2dVertex
10
623.674827386675
20
252.623647324131
30
0.0
0
VERTEX
5
7e8
100
AcDbEntity
8
0-0
6
CONTINUOUS
62
  7
100
AcDbVertex
100
AcDb2dVertex
10
624.205205305259
20
253.070188395137
30
0.0
0
VERTEX
5
7e9
100
AcDbEntity
8
0-0
6
CONTINUOUS
62
  7
100
AcDbVertex
100
AcDb2dVertex
10
624.810309107550
20
253.401998344874
30
0.0
0
VERTEX
5
7ea
100
AcDbEntity
8
0-0
6
CONTINUOUS
62
  7
100
AcDbVertex
100
AcDb2dVertex
10
625.466884993771
20
253.606325903053
30
0.0
0
VERTEX
5
7eb
100
AcDbEntity
8
0-0
6
CONTINUOUS
62
  7
100
AcDbVertex
100
AcDb2dVertex
10
626.149701120828
20
253.675318876201
30
0.0
0
SEQEND
5
7ec
100
AcDbEntity
8
0-0
0
LINE
5
7ed
100
AcDbEntity
8
0-0
6
CONTINUOUS
62
7
100
AcDbLine
10
626.149701120828
20
253.675318876201
30
0.0
11
657.149701120828
21
253.675318876201
31
0.0
0
POLYLINE
5
7ee
100
AcDbEntity
8
0-0
6
CONTINUOUS
62
  7
100
AcDb2dPolyline
66
1
10
0.0
20
0.0
30
0.0
70
0
0
VERTEX
5
7ef
100
AcDbEntity
8
0-0
6
CONTINUOUS
62
  7
100
AcDbVertex
100
AcDb2dVertex
10
657.149701120828
20
253.675318876201
30
0.0
0
VERTEX
5
7f0
100
AcDbEntity
8
0-0
6
CONTINUOUS
62
  7
100
AcDbVertex
100
AcDb2dVertex
10
657.832517247884
20
253.606325903053
30
0.0
0
VERTEX
5
7f1
100
AcDbEntity
8
0-0
6
CONTINUOUS
62
  7
100
AcDbVertex
100
AcDb2dVertex
10
658.489093134106
20
253.401998344874
30
0.0
0
VERTEX
5
7f2
100
AcDbEntity
8
0-0
6
CONTINUOUS
62
  7
100
AcDbVertex
100
AcDb2dVertex
10
659.094196936397
20
253.070188395137
30
0.0
0
VERTEX
5
7f3
100
AcDbEntity
8
0-0
6
CONTINUOUS
62
  7
100
AcDbVertex
100
AcDb2dVertex
10
659.624574854981
20
252.623647324130
30
0.0
0
VERTEX
5
7f4
100
AcDbEntity
8
0-0
6
CONTINUOUS
62
  7
100
AcDbVertex
100
AcDb2dVertex
10
660.059844763887
20
252.079535454789
30
0.0
0
VERTEX
5
7f5
100
AcDbEntity
8
0-0
6
CONTINUOUS
62
  7
100
AcDbVertex
100
AcDb2dVertex
10
660.383279484618
20
251.458762701109
30
0.0
0
VERTEX
5
7f6
100
AcDbEntity
8
0-0
6
CONTINUOUS
62
  7
100
AcDbVertex
100
AcDb2dVertex
10
660.582449602239
20
250.785185011883
30
0.0
0
VERTEX
5
7f7
100
AcDbEntity
8
0-0
6
CONTINUOUS
62
  7
100
AcDbVertex
100
AcDb2dVertex
10
660.649701120828
20
250.084687599960
30
0.0
0
SEQEND
5
7f8
100
AcDbEntity
8
0-0
0
POLYLINE
5
7f9
100
AcDbEntity
8
0-0
6
CONTINUOUS
62
  2
100
AcDb2dPolyline
66
1
10
0.0
20
0.0
30
0.0
70
0
0
VERTEX
5
7fa
100
AcDbEntity
8
0-0
6
CONTINUOUS
62
  2
100
AcDbVertex
100
AcDb2dVertex
10
662.149701120828
20
256.945319333964
30
0.0
0
VERTEX
5
7fb
100
AcDbEntity
8
0-0
6
CONTINUOUS
62
  2
100
AcDbVertex
100
AcDb2dVertex
10
673.149701120828
20
256.945319333964
30
0.0
0
VERTEX
5
7fc
100
AcDbEntity
8
0-0
6
CONTINUOUS
62
  2
100
AcDbVertex
100
AcDb2dVertex
10
674.149701120828
20
257.945319333964
30
0.0
0
VERTEX
5
7fd
100
AcDbEntity
8
0-0
6
CONTINUOUS
62
  2
100
AcDbVertex
100
AcDb2dVertex
10
661.149701120828
20
257.945319333964
30
0.0
0
VERTEX
5
7fe
100
AcDbEntity
8
0-0
6
CONTINUOUS
62
  2
100
AcDbVertex
100
AcDb2dVertex
10
662.149701120828
20
256.945319333964
30
0.0
0
SEQEND
5
7ff
100
AcDbEntity
8
0-0
0
LINE
5
800
100
AcDbEntity
8
0-0
6
CONTINUOUS
62
4
100
AcDbLine
10
661.962201120828
20
257.945319333964
30
0.0
11
661.962201120828
21
264.945318857127
31
0.0
0
LINE
5
801
100
AcDbEntity
8
0-0
6
CONTINUOUS
62
4
100
AcDbLine
10
662.774701120828
20
264.945318857127
30
0.0
11
662.774701120828
21
257.945319333964
31
0.0
0
LINE
5
802
100
AcDbEntity
8
0-0
6
CONTINUOUS
62
4
100
AcDbLine
10
663.587201120828
20
257.945319333964
30
0.0
11
663.587201120828
21
264.945318857127
31
0.0
0
LINE
5
803
100
AcDbEntity
8
0-0
6
CONTINUOUS
62
4
100
AcDbLine
10
664.399701120828
20
264.945318857127
30
0.0
11
664.399701120828
21
257.945319333964
31
0.0
0
LINE
5
804
100
AcDbEntity
8
0-0
6
CONTINUOUS
62
4
100
AcDbLine
10
665.212201120828
20
257.945319333964
30
0.0
11
665.212201120828
21
264.945318857127
31
0.0
0
LINE
5
805
100
AcDbEntity
8
0-0
6
CONTINUOUS
62
7
100
AcDbLine
10
665.149701120828
20
264.975318876201
30
0.0
11
662.749701120828
21
267.375318876201
31
0.0
0
LINE
5
806
100
AcDbEntity
8
0-0
6
CONTINUOUS
62
2
100
AcDbLine
10
661.149701120828
20
266.945318857127
30
0.0
11
661.149701120828
21
257.945319333964
31
0.0
0
LINE
5
807
100
AcDbEntity
8
0-0
6
CONTINUOUS
62
4
100
AcDbLine
10
666.024701120828
20
257.945319333964
30
0.0
11
666.024701120828
21
264.945318857127
31
0.0
0
POLYLINE
5
808
100
AcDbEntity
8
0-0
6
CONTINUOUS
62
  7
100
AcDb2dPolyline
66
1
10
0.0
20
0.0
30
0.0
70
0
0
VERTEX
5
809
100
AcDbEntity
8
0-0
6
CONTINUOUS
62
  7
100
AcDbVertex
100
AcDb2dVertex
10
665.149701120828
20
264.975318876201
30
0.0
0
VERTEX
5
80a
100
AcDbEntity
8
0-0
6
CONTINUOUS
62
  7
100
AcDbVertex
100
AcDb2dVertex
10
618.149701120828
20
264.975318876201
30
0.0
0
VERTEX
5
80b
100
AcDbEntity
8
0-0
6
CONTINUOUS
62
  7
100
AcDbVertex
100
AcDb2dVertex
10
618.149701120828
20
260.675318876201
30
0.0
0
VERTEX
5
80c
100
AcDbEntity
8
0-0
6
CONTINUOUS
62
  7
100
AcDbVertex
100
AcDb2dVertex
10
665.149701120828
20
260.675318876201
30
0.0
0
VERTEX
5
80d
100
AcDbEntity
8
0-0
6
CONTINUOUS
62
  7
100
AcDbVertex
100
AcDb2dVertex
10
665.149701120828
20
264.975318876201
30
0.0
0
SEQEND
5
80e
100
AcDbEntity
8
0-0
0
LINE
5
80f
100
AcDbEntity
8
0-0
6
CONTINUOUS
62
7
100
AcDbLine
10
664.849701120770
20
267.375318876201
30
0.0
11
618.449701120827
21
267.375318876201
31
0.0
0
LINE
5
810
100
AcDbEntity
8
0-0
6
CONTINUOUS
62
7
100
AcDbLine
10
620.549701120828
20
267.375318876201
30
0.0
11
618.149701120827
21
264.975318876201
31
0.0
0
LINE
5
811
100
AcDbEntity
8
0-0
6
CONTINUOUS
62
2
100
AcDbLine
10
616.227051379655
20
264.945318857127
30
0.0
11
615.072350862000
21
266.945318857127
31
0.0
0
LINE
5
812
100
AcDbEntity
8
F-F_J_ADD
6
HIDDEN
62
253
100
AcDbLine
10
615.649701120828
20
268.175318876201
30
0.0
11
614.942594339641
21
268.882425657387
31
0.0
0
LINE
5
813
100
AcDbEntity
8
F-F_J_ADD
6
HIDDEN
62
253
100
AcDbLine
10
615.649701120828
20
268.175318876201
30
0.0
11
616.356807902014
21
268.882425657387
31
0.0
0
LINE
5
814
100
AcDbEntity
8
0-0
6
CONTINUOUS
62
4
100
AcDbLine
10
614.024701120828
20
264.945318857127
30
0.0
11
614.024701120828
21
257.945319333964
31
0.0
0
LINE
5
815
100
AcDbEntity
8
0-0
6
CONTINUOUS
62
4
100
AcDbLine
10
613.212201120828
20
257.945319333964
30
0.0
11
613.212201120828
21
264.945318857127
31
0.0
0
LINE
5
816
100
AcDbEntity
8
0-0
6
CONTINUOUS
62
4
100
AcDbLine
10
612.399701120828
20
264.945318857127
30
0.0
11
612.399701120828
21
257.945319333964
31
0.0
0
LINE
5
817
100
AcDbEntity
8
0-0
6
CONTINUOUS
62
4
100
AcDbLine
10
611.587201120828
20
257.945319333964
30
0.0
11
611.587201120828
21
264.945318857127
31
0.0
0
LINE
5
818
100
AcDbEntity
8
0-0
6
CONTINUOUS
62
4
100
AcDbLine
10
610.774701120828
20
264.945318857127
30
0.0
11
610.774701120828
21
257.945319333964
31
0.0
0
LINE
5
819
100
AcDbEntity
8
0-0
6
CONTINUOUS
62
4
100
AcDbLine
10
609.962201120828
20
257.945319333964
30
0.0
11
609.962201120828
21
264.945318857127
31
0.0
0
LINE
5
81a
100
AcDbEntity
8
0-0
6
CONTINUOUS
62
2
100
AcDbLine
10
609.149701120828
20
264.945318857127
30
0.0
11
622.149701120828
21
264.945318857127
31
0.0
0
LINE
5
81b
100
AcDbEntity
8
0-0
6
CENTER
62
4
100
AcDbLine
10
615.649701120828
20
262.525319930235
30
0.0
11
615.649701120828
21
275.779851057107
31
0.0
0
LINE
5
81c
100
AcDbEntity
8
0-0
6
CONTINUOUS
62
2
100
AcDbLine
10
609.149701120828
20
266.945318857127
30
0.0
11
609.149701120828
21
257.945319333964
31
0.0
0
POLYLINE
5
81d
100
AcDbEntity
8
0-0
6
CONTINUOUS
62
  7
100
AcDb2dPolyline
66
1
10
0.0
20
0.0
30
0.0
70
0
0
VERTEX
5
81e
100
AcDbEntity
8
0-0
6
CONTINUOUS
62
  7
100
AcDbVertex
100
AcDb2dVertex
10
617.149701120827
20
257.675318876201
30
0.0
0
VERTEX
5
81f
100
AcDbEntity
8
0-0
6
CONTINUOUS
62
  7
100
AcDbVertex
100
AcDb2dVertex
10
617.149701120827
20
235.354810800512
30
0.0
0
VERTEX
5
820
100
AcDbEntity
8
0-0
6
CONTINUOUS
62
  7
100
AcDbVertex
100
AcDb2dVertex
10
617.510105530026
20
228.102930069446
30
0.0
0
SEQEND
5
821
100
AcDbEntity
8
0-0
0
POLYLINE
5
822
100
AcDbEntity
8
0-0
6
CONTINUOUS
62
  7
100
AcDb2dPolyline
66
1
10
0.0
20
0.0
30
0.0
70
0
0
VERTEX
5
823
100
AcDbEntity
8
0-0
6
CONTINUOUS
62
  7
100
AcDbVertex
100
AcDb2dVertex
10
616.604228847599
20
228.102930069446
30
0.0
0
VERTEX
5
824
100
AcDbEntity
8
0-0
6
CONTINUOUS
62
  7
100
AcDbVertex
100
AcDb2dVertex
10
616.379511047980
20
227.674475494797
30
0.0
0
VERTEX
5
825
100
AcDbEntity
8
0-0
6
CONTINUOUS
62
  7
100
AcDbVertex
100
AcDb2dVertex
10
616.203641620446
20
227.241850180690
30
0.0
0
VERTEX
5
826
100
AcDbEntity
8
0-0
6
CONTINUOUS
62
  7
100
AcDbVertex
100
AcDb2dVertex
10
616.086430005739
20
226.810326567106
30
0.0
0
VERTEX
5
827
100
AcDbEntity
8
0-0
6
CONTINUOUS
62
  7
100
AcDbVertex
100
AcDb2dVertex
10
616.032828661975
20
226.378049824497
30
0.0
0
VERTEX
5
828
100
AcDbEntity
8
0-0
6
CONTINUOUS
62
  7
100
AcDbVertex
100
AcDb2dVertex
10
616.029701120828
20
226.246027266165
30
0.0
0
VERTEX
5
829
100
AcDbEntity
8
0-0
6
CONTINUOUS
62
  7
100
AcDbVertex
100
AcDb2dVertex
10
616.070271655307
20
225.769329150144
30
0.0
0
VERTEX
5
82a
100
AcDbEntity
8
0-0
6
CONTINUOUS
62
  7
100
AcDbVertex
100
AcDb2dVertex
10
616.187392052914
20
225.298873622833
30
0.0
0
VERTEX
5
82b
100
AcDbEntity
8
0-0
6
CONTINUOUS
62
  7
100
AcDbVertex
100
AcDb2dVertex
10
616.369010979729
20
224.840130872478
30
0.0
0
VERTEX
5
82c
100
AcDbEntity
8
0-0
6
CONTINUOUS
62
  7
100
AcDbVertex
100
AcDb2dVertex
10
616.604228847599
20
224.389124462884
30
0.0
0
VERTEX
5
82d
100
AcDbEntity
8
0-0
6
CONTINUOUS
62
  7
100
AcDbVertex
100
AcDb2dVertex
10
616.360626836554
20
223.450656341835
30
0.0
0
VERTEX
5
82e
100
AcDbEntity
8
0-0
6
CONTINUOUS
62
  7
100
AcDbVertex
100
AcDb2dVertex
10
616.115135823837
20
222.062987599079
30
0.0
0
VERTEX
5
82f
100
AcDbEntity
8
0-0
6
CONTINUOUS
62
  7
100
AcDbVertex
100
AcDb2dVertex
10
616.029701120828
20
220.675318856322
30
0.0
0
VERTEX
5
830
100
AcDbEntity
8
0-0
6
CONTINUOUS
62
  7
100
AcDbVertex
100
AcDb2dVertex
10
616.075262493608
20
219.664643831349
30
0.0
0
VERTEX
5
831
100
AcDbEntity
8
0-0
6
CONTINUOUS
62
  7
100
AcDbVertex
100
AcDb2dVertex
10
616.275889812882
20
218.294644942232
30
0.0
0
VERTEX
5
832
100
AcDbEntity
8
0-0
6
CONTINUOUS
62
  7
100
AcDbVertex
100
AcDb2dVertex
10
616.604228847599
20
216.961513249760
30
0.0
0
VERTEX
5
833
100
AcDbEntity
8
0-0
6
CONTINUOUS
62
  7
100
AcDbVertex
100
AcDb2dVertex
10
616.379511047980
20
216.533058675110
30
0.0
0
VERTEX
5
834
100
AcDbEntity
8
0-0
6
CONTINUOUS
62
  7
100
AcDbVertex
100
AcDb2dVertex
10
616.203641620446
20
216.100433361004
30
0.0
0
VERTEX
5
835
100
AcDbEntity
8
0-0
6
CONTINUOUS
62
  7
100
AcDbVertex
100
AcDb2dVertex
10
616.086430005739
20
215.668909747419
30
0.0
0
VERTEX
5
836
100
AcDbEntity
8
0-0
6
CONTINUOUS
62
  7
100
AcDbVertex
100
AcDb2dVertex
10
616.032828661975
20
215.236633004810
30
0.0
0
VERTEX
5
837
100
AcDbEntity
8
0-0
6
CONTINUOUS
62
  7
100
AcDbVertex
100
AcDb2dVertex
10
616.029701120828
20
215.104610446479
30
0.0
0
VERTEX
5
838
100
AcDbEntity
8
0-0
6
CONTINUOUS
62
  7
100
AcDbVertex
100
AcDb2dVertex
10
616.070271655307
20
214.627912330457
30
0.0
0
VERTEX
5
839
100
AcDbEntity
8
0-0
6
CONTINUOUS
62
  7
100
AcDbVertex
100
AcDb2dVertex
10
616.187392052914
20
214.157456803147
30
0.0
0
VERTEX
5
83a
100
AcDbEntity
8
0-0
6
CONTINUOUS
62
  7
100
AcDbVertex
100
AcDb2dVertex
10
616.369010979729
20
213.698714052791
30
0.0
0
VERTEX
5
83b
100
AcDbEntity
8
0-0
6
CONTINUOUS
62
  7
100
AcDbVertex
100
AcDb2dVertex
10
616.604228847599
20
213.247707643197
30
0.0
0
VERTEX
5
83c
100
AcDbEntity
8
0-0
6
CONTINUOUS
62
  7
100
AcDbVertex
100
AcDb2dVertex
10
616.029701120828
20
214.242818856322
30
0.0
0
VERTEX
5
83d
100
AcDbEntity
8
0-0
6
CONTINUOUS
62
  7
100
AcDbVertex
100
AcDb2dVertex
10
616.029701120828
20
227.107818856322
30
0.0
0
VERTEX
5
83e
100
AcDbEntity
8
0-0
6
CONTINUOUS
62
  7
100
AcDbVertex
100
AcDb2dVertex
10
616.604228847599
20
228.102930069446
30
0.0
0
VERTEX
5
83f
100
AcDbEntity
8
0-0
6
CONTINUOUS
62
  7
100
AcDbVertex
100
AcDb2dVertex
10
622.075173394057
20
228.102930069446
30
0.0
0
VERTEX
5
840
100
AcDbEntity
8
0-0
6
CONTINUOUS
62
  7
100
AcDbVertex
100
AcDb2dVertex
10
622.310391261927
20
227.651923659852
30
0.0
0
VERTEX
5
841
100
AcDbEntity
8
0-0
6
CONTINUOUS
62
  7
100
AcDbVertex
100
AcDb2dVertex
10
622.492010188741
20
227.193180909497
30
0.0
0
VERTEX
5
842
100
AcDbEntity
8
0-0
6
CONTINUOUS
62
  7
100
AcDbVertex
100
AcDb2dVertex
10
622.609130586348
20
226.722725382186
30
0.0
0
VERTEX
5
843
100
AcDbEntity
8
0-0
6
CONTINUOUS
62
  7
100
AcDbVertex
100
AcDb2dVertex
10
622.649701120828
20
226.246027266165
30
0.0
0
VERTEX
5
844
100
AcDbEntity
8
0-0
6
CONTINUOUS
62
  7
100
AcDbVertex
100
AcDb2dVertex
10
622.646573579680
20
226.114004707834
30
0.0
0
VERTEX
5
845
100
AcDbEntity
8
0-0
6
CONTINUOUS
62
  7
100
AcDbVertex
100
AcDb2dVertex
10
622.592972235917
20
225.681727965225
30
0.0
0
VERTEX
5
846
100
AcDbEntity
8
0-0
6
CONTINUOUS
62
  7
100
AcDbVertex
100
AcDb2dVertex
10
622.475760621209
20
225.250204351640
30
0.0
0
VERTEX
5
847
100
AcDbEntity
8
0-0
6
CONTINUOUS
62
  7
100
AcDbVertex
100
AcDb2dVertex
10
622.299891193676
20
224.817579037533
30
0.0
0
VERTEX
5
848
100
AcDbEntity
8
0-0
6
CONTINUOUS
62
  7
100
AcDbVertex
100
AcDb2dVertex
10
622.075173394057
20
224.389124462884
30
0.0
0
VERTEX
5
849
100
AcDbEntity
8
0-0
6
CONTINUOUS
62
  7
100
AcDbVertex
100
AcDb2dVertex
10
616.604228847599
20
224.389124462884
30
0.0
0
SEQEND
5
84a
100
AcDbEntity
8
0-0
0
POLYLINE
5
84b
100
AcDbEntity
8
0-0
6
CONTINUOUS
62
  7
100
AcDb2dPolyline
66
1
10
0.0
20
0.0
30
0.0
70
0
0
VERTEX
5
84c
100
AcDbEntity
8
0-0
6
CONTINUOUS
62
  7
100
AcDbVertex
100
AcDb2dVertex
10
614.029701120828
20
224.673353401776
30
0.0
0
VERTEX
5
84d
100
AcDbEntity
8
0-0
6
CONTINUOUS
62
  7
100
AcDbVertex
100
AcDb2dVertex
10
613.649701120849
20
224.673318856322
30
0.0
0
VERTEX
5
84e
100
AcDbEntity
8
0-0
6
CONTINUOUS
62
  7
100
AcDbVertex
100
AcDb2dVertex
10
613.649701120849
20
216.677318856322
30
0.0
0
VERTEX
5
84f
100
AcDbEntity
8
0-0
6
CONTINUOUS
62
  7
100
AcDbVertex
100
AcDb2dVertex
10
614.029701120828
20
216.677284310867
30
0.0
0
SEQEND
5
850
100
AcDbEntity
8
0-0
0
LINE
5
851
100
AcDbEntity
8
0-0
6
CONTINUOUS
62
7
100
AcDbLine
10
614.029701120828
20
216.175318856322
30
0.0
11
614.029701120828
21
225.175318856322
31
0.0
0
LINE
5
852
100
AcDbEntity
8
0-0
6
CONTINUOUS
62
7
100
AcDbLine
10
615.529701120828
20
226.675318856322
30
0.0
11
616.029701120828
21
226.675318856322
31
0.0
0
LINE
5
853
100
AcDbEntity
8
0-0
6
CONTINUOUS
62
7
100
AcDbLine
10
622.649701120828
20
227.107818856322
30
0.0
11
622.075173394057
21
228.102930069446
31
0.0
0
POLYLINE
5
854
100
AcDbEntity
8
0-0
6
CONTINUOUS
62
  7
100
AcDb2dPolyline
66
1
10
0.0
20
0.0
30
0.0
70
0
0
VERTEX
5
855
100
AcDbEntity
8
0-0
6
CONTINUOUS
62
  7
100
AcDbVertex
100
AcDb2dVertex
10
622.075173394057
20
224.389124462884
30
0.0
0
VERTEX
5
856
100
AcDbEntity
8
0-0
6
CONTINUOUS
62
  7
100
AcDbVertex
100
AcDb2dVertex
10
622.318775405102
20
223.450656341835
30
0.0
0
VERTEX
5
857
100
AcDbEntity
8
0-0
6
CONTINUOUS
62
  7
100
AcDbVertex
100
AcDb2dVertex
10
622.562085357165
20
222.080792816241
30
0.0
0
VERTEX
5
858
100
AcDbEntity
8
0-0
6
CONTINUOUS
62
  7
100
AcDbVertex
100
AcDb2dVertex
10
622.649701120828
20
220.675318856322
30
0.0
0
VERTEX
5
859
100
AcDbEntity
8
0-0
6
CONTINUOUS
62
  7
100
AcDbVertex
100
AcDb2dVertex
10
622.604139748048
20
219.664643831349
30
0.0
0
VERTEX
5
85a
100
AcDbEntity
8
0-0
6
CONTINUOUS
62
  7
100
AcDbVertex
100
AcDb2dVertex
10
622.406009067267
20
218.307132432150
30
0.0
0
VERTEX
5
85b
100
AcDbEntity
8
0-0
6
CONTINUOUS
62
  7
100
AcDbVertex
100
AcDb2dVertex
10
622.075173394057
20
216.961513249760
30
0.0
0
VERTEX
5
85c
100
AcDbEntity
8
0-0
6
CONTINUOUS
62
  7
100
AcDbVertex
100
AcDb2dVertex
10
616.604228847599
20
216.961513249760
30
0.0
0
SEQEND
5
85d
100
AcDbEntity
8
0-0
0
LINE
5
85e
100
AcDbEntity
8
0-0
6
CONTINUOUS
62
7
100
AcDbLine
10
616.029701120828
20
214.675318856322
30
0.0
11
615.529701120828
21
214.675318856322
31
0.0
0
POLYLINE
5
85f
100
AcDbEntity
8
0-0
6
CONTINUOUS
62
  7
100
AcDb2dPolyline
66
1
10
0.0
20
0.0
30
0.0
70
0
0
VERTEX
5
860
100
AcDbEntity
8
0-0
6
CONTINUOUS
62
  7
100
AcDbVertex
100
AcDb2dVertex
10
616.604228847599
20
213.247707643197
30
0.0
0
VERTEX
5
861
100
AcDbEntity
8
0-0
6
CONTINUOUS
62
  7
100
AcDbVertex
100
AcDb2dVertex
10
622.075173394057
20
213.247707643197
30
0.0
0
VERTEX
5
862
100
AcDbEntity
8
0-0
6
CONTINUOUS
62
  7
100
AcDbVertex
100
AcDb2dVertex
10
622.299891193676
20
213.676162217846
30
0.0
0
VERTEX
5
863
100
AcDbEntity
8
0-0
6
CONTINUOUS
62
  7
100
AcDbVertex
100
AcDb2dVertex
10
622.475760621209
20
214.108787531953
30
0.0
0
VERTEX
5
864
100
AcDbEntity
8
0-0
6
CONTINUOUS
62
  7
100
AcDbVertex
100
AcDb2dVertex
10
622.592972235917
20
214.540311145538
30
0.0
0
VERTEX
5
865
100
AcDbEntity
8
0-0
6
CONTINUOUS
62
  7
100
AcDbVertex
100
AcDb2dVertex
10
622.646573579680
20
214.972587888147
30
0.0
0
VERTEX
5
866
100
AcDbEntity
8
0-0
6
CONTINUOUS
62
  7
100
AcDbVertex
100
AcDb2dVertex
10
622.649701120828
20
215.104610446479
30
0.0
0
VERTEX
5
867
100
AcDbEntity
8
0-0
6
CONTINUOUS
62
  7
100
AcDbVertex
100
AcDb2dVertex
10
622.609130586348
20
215.581308562500
30
0.0
0
VERTEX
5
868
100
AcDbEntity
8
0-0
6
CONTINUOUS
62
  7
100
AcDbVertex
100
AcDb2dVertex
10
622.492010188741
20
216.051764089810
30
0.0
0
VERTEX
5
869
100
AcDbEntity
8
0-0
6
CONTINUOUS
62
  7
100
AcDbVertex
100
AcDb2dVertex
10
622.310391261927
20
216.510506840166
30
0.0
0
VERTEX
5
86a
100
AcDbEntity
8
0-0
6
CONTINUOUS
62
  7
100
AcDbVertex
100
AcDb2dVertex
10
622.075173394057
20
216.961513249760
30
0.0
0
SEQEND
5
86b
100
AcDbEntity
8
0-0
0
LINE
5
86c
100
AcDbEntity
8
0-0
6
CONTINUOUS
62
7
100
AcDbLine
10
622.649701120828
20
214.242818856322
30
0.0
11
622.075173394057
21
213.247707643197
31
0.0
0
POLYLINE
5
86d
100
AcDbEntity
8
0-0
6
CONTINUOUS
62
  7
100
AcDb2dPolyline
66
1
10
0.0
20
0.0
30
0.0
70
0
0
VERTEX
5
86e
100
AcDbEntity
8
0-0
6
CONTINUOUS
62
  7
100
AcDbVertex
100
AcDb2dVertex
10
621.849841311132
20
213.243411963477
30
0.0
0
VERTEX
5
86f
100
AcDbEntity
8
0-0
6
CONTINUOUS
62
  7
100
AcDbVertex
100
AcDb2dVertex
10
622.217117687609
20
212.990245308476
30
0.0
0
VERTEX
5
870
100
AcDbEntity
8
0-0
6
CONTINUOUS
62
  7
100
AcDbVertex
100
AcDb2dVertex
10
622.649701120828
20
212.746880253603
30
0.0
0
SEQEND
5
871
100
AcDbEntity
8
0-0
0
LINE
5
872
100
AcDbEntity
8
0-0
6
CONTINUOUS
62
7
100
AcDbLine
10
625.149701120828
20
214.675318856322
30
0.0
11
627.649701120828
21
214.675318856322
31
0.0
0
LINE
5
873
100
AcDbEntity
8
0-0
6
CONTINUOUS
62
7
100
AcDbLine
10
627.649701120828
20
226.675318856322
30
0.0
11
625.149701120828
21
226.675318856322
31
0.0
0
LINE
5
874
100
AcDbEntity
8
0-0
6
CONTINUOUS
62
7
100
AcDbLine
10
627.649701120828
20
243.675318855683
30
0.0
11
627.649701120828
21
197.675318856322
31
0.0
0
LINE
5
875
100
AcDbEntity
8
0-0
6
CONTINUOUS
62
7
100
AcDbLine
10
629.649701120828
20
195.675318856322
30
0.0
11
653.649701120828
21
195.675318856322
31
0.0
0
LINE
5
876
100
AcDbEntity
8
0-0
6
CONTINUOUS
62
7
100
AcDbLine
10
655.649701120828
20
197.675318856322
30
0.0
11
655.649701120828
21
243.675318855683
31
0.0
0
LINE
5
877
100
AcDbEntity
8
0-0
6
CONTINUOUS
62
7
100
AcDbLine
10
653.649701120828
20
245.675318856322
30
0.0
11
629.649701120828
21
245.675318856322
31
0.0
0
LINE
5
878
100
AcDbEntity
8
0-0
6
CONTINUOUS
62
7
100
AcDbLine
10
675.649701120828
20
270.675318876201
30
0.0
11
678.649701120828
21
267.675318876201
31
0.0
0
POLYLINE
5
879
100
AcDbEntity
8
0-0
6
CONTINUOUS
62
  2
100
AcDb2dPolyline
66
1
10
0.0
20
0.0
30
0.0
70
0
0
VERTEX
5
87a
100
AcDbEntity
8
0-0
6
CONTINUOUS
62
  2
100
AcDbVertex
100
AcDb2dVertex
10
676.544701578591
20
268.175318876201
30
0.0
0
VERTEX
5
87b
100
AcDbEntity
8
0-0
6
CONTINUOUS
62
  2
100
AcDbVertex
100
AcDb2dVertex
10
676.544701578591
20
266.945318857127
30
0.0
0
VERTEX
5
87c
100
AcDbEntity
8
0-0
6
CONTINUOUS
62
  2
100
AcDbVertex
100
AcDb2dVertex
10
658.754700663064
20
266.945318857127
30
0.0
0
VERTEX
5
87d
100
AcDbEntity
8
0-0
6
CONTINUOUS
62
  2
100
AcDbVertex
100
AcDb2dVertex
10
658.754700663064
20
268.175318876201
30
0.0
0
SEQEND
5
87e
100
AcDbEntity
8
0-0
0
LINE
5
87f
100
AcDbEntity
8
0-0
6
CONTINUOUS
62
2
100
AcDbLine
10
661.149701120828
20
264.945318857127
30
0.0
11
674.149701120828
21
264.945318857127
31
0.0
0
LINE
5
880
100
AcDbEntity
8
0-0
6
CONTINUOUS
62
2
100
AcDbLine
10
674.149701120828
20
266.945318857127
30
0.0
11
674.149701120828
21
257.945319333964
31
0.0
0
LINE
5
881
100
AcDbEntity
8
0-0
6
CENTER
62
4
100
AcDbLine
10
667.649701120828
20
275.779851057107
30
0.0
11
667.649701120828
21
262.525319930235
31
0.0
0
LINE
5
882
100
AcDbEntity
8
0-0
6
CONTINUOUS
62
2
100
AcDbLine
10
668.227051379655
20
264.945318857127
30
0.0
11
667.072350862000
21
266.945318857127
31
0.0
0
LINE
5
883
100
AcDbEntity
8
F-F_J_ADD
6
HIDDEN
62
253
100
AcDbLine
10
667.649701120828
20
268.175318876201
30
0.0
11
666.942594339641
21
268.882425657387
31
0.0
0
LINE
5
884
100
AcDbEntity
8
F-F_J_ADD
6
HIDDEN
62
253
100
AcDbLine
10
667.649701120828
20
268.175318876201
30
0.0
11
668.356807902014
21
268.882425657387
31
0.0
0
LINE
5
885
100
AcDbEntity
8
0-0
6
CONTINUOUS
62
7
100
AcDbLine
10
666.149701120828
20
257.675318876201
30
0.0
11
666.149701120828
21
235.354810800512
31
0.0
0
LINE
5
886
100
AcDbEntity
8
0-0
6
CONTINUOUS
62
7
100
AcDbLine
10
666.149701120828
20
235.354810800512
30
0.0
11
665.736396855388
21
227.593157254253
31
0.0
0
POLYLINE
5
887
100
AcDbEntity
8
0-0
6
CONTINUOUS
62
  7
100
AcDb2dPolyline
66
1
10
0.0
20
0.0
30
0.0
70
0
0
VERTEX
5
888
100
AcDbEntity
8
0-0
6
CONTINUOUS
62
  7
100
AcDbVertex
100
AcDb2dVertex
10
665.702501233865
20
227.608540186531
30
0.0
0
VERTEX
5
889
100
AcDbEntity
8
0-0
6
CONTINUOUS
62
  7
100
AcDbVertex
100
AcDb2dVertex
10
665.468746049977
20
228.056742047911
30
0.0
0
VERTEX
5
88a
100
AcDbEntity
8
0-0
6
CONTINUOUS
62
  7
100
AcDbVertex
100
AcDb2dVertex
10
666.039701120849
20
227.067818856322
30
0.0
0
VERTEX
5
88b
100
AcDbEntity
8
0-0
6
CONTINUOUS
62
  7
100
AcDbVertex
100
AcDb2dVertex
10
666.039701120849
20
214.282818856322
30
0.0
0
VERTEX
5
88c
100
AcDbEntity
8
0-0
6
CONTINUOUS
62
  7
100
AcDbVertex
100
AcDb2dVertex
10
665.468746049977
20
213.293895664732
30
0.0
0
VERTEX
5
88d
100
AcDbEntity
8
0-0
6
CONTINUOUS
62
  7
100
AcDbVertex
100
AcDb2dVertex
10
660.649701120849
20
213.293895664732
30
0.0
0
SEQEND
5
88e
100
AcDbEntity
8
0-0
0
POLYLINE
5
88f
100
AcDbEntity
8
0-0
6
CONTINUOUS
62
  7
100
AcDb2dPolyline
66
1
10
0.0
20
0.0
30
0.0
70
0
0
VERTEX
5
890
100
AcDbEntity
8
0-0
6
CONTINUOUS
62
  7
100
AcDbVertex
100
AcDb2dVertex
10
660.649701120828
20
212.746880253604
30
0.0
0
VERTEX
5
891
100
AcDbEntity
8
0-0
6
CONTINUOUS
62
  7
100
AcDbVertex
100
AcDb2dVertex
10
661.181345276882
20
213.053919259224
30
0.0
0
VERTEX
5
892
100
AcDbEntity
8
0-0
6
CONTINUOUS
62
  7
100
AcDbVertex
100
AcDb2dVertex
10
661.505659608211
20
213.286459565696
30
0.0
0
SEQEND
5
893
100
AcDbEntity
8
0-0
0
POLYLINE
5
894
100
AcDbEntity
8
0-0
6
CONTINUOUS
62
  7
100
AcDb2dPolyline
66
1
10
0.0
20
0.0
30
0.0
70
0
0
VERTEX
5
895
100
AcDbEntity
8
0-0
6
CONTINUOUS
62
  7
100
AcDbVertex
100
AcDb2dVertex
10
665.468746049977
20
213.293895664732
30
0.0
0
VERTEX
5
896
100
AcDbEntity
8
0-0
6
CONTINUOUS
62
  7
100
AcDbVertex
100
AcDb2dVertex
10
665.692066525653
20
213.719686069201
30
0.0
0
VERTEX
5
897
100
AcDbEntity
8
0-0
6
CONTINUOUS
62
  7
100
AcDbVertex
100
AcDb2dVertex
10
665.866842353780
20
214.149621279632
30
0.0
0
VERTEX
5
898
100
AcDbEntity
8
0-0
6
CONTINUOUS
62
  7
100
AcDbVertex
100
AcDb2dVertex
10
665.983325084510
20
214.578461635984
30
0.0
0
VERTEX
5
899
100
AcDbEntity
8
0-0
6
CONTINUOUS
62
  7
100
AcDbVertex
100
AcDb2dVertex
10
666.036593054553
20
215.008050435438
30
0.0
0
VERTEX
5
89a
100
AcDbEntity
8
0-0
6
CONTINUOUS
62
  7
100
AcDbVertex
100
AcDb2dVertex
10
666.039701120849
20
215.139251462630
30
0.0
0
VERTEX
5
89b
100
AcDbEntity
8
0-0
6
CONTINUOUS
62
  7
100
AcDbVertex
100
AcDb2dVertex
10
665.999382871077
20
215.612985268563
30
0.0
0
VERTEX
5
89c
100
AcDbEntity
8
0-0
6
CONTINUOUS
62
  7
100
AcDbVertex
100
AcDb2dVertex
10
665.882990777536
20
216.080515304837
30
0.0
0
VERTEX
5
89d
100
AcDbEntity
8
0-0
6
CONTINUOUS
62
  7
100
AcDbVertex
100
AcDb2dVertex
10
665.702501233865
20
216.536405399147
30
0.0
0
VERTEX
5
89e
100
AcDbEntity
8
0-0
6
CONTINUOUS
62
  7
100
AcDbVertex
100
AcDb2dVertex
10
665.468746049977
20
216.984607260527
30
0.0
0
VERTEX
5
89f
100
AcDbEntity
8
0-0
6
CONTINUOUS
62
  7
100
AcDbVertex
100
AcDb2dVertex
10
660.649701120849
20
216.984607260527
30
0.0
0
SEQEND
5
8a0
100
AcDbEntity
8
0-0
0
LINE
5
8a1
100
AcDbEntity
8
0-0
6
CONTINUOUS
62
7
100
AcDbLine
10
658.149701120828
20
214.675318856322
30
0.0
11
655.649701120828
21
214.675318856322
31
0.0
0
LINE
5
8a2
100
AcDbEntity
8
0-0
6
CONTINUOUS
62
7
100
AcDbLine
10
655.649701120828
20
226.675318856322
30
0.0
11
658.149701120828
21
226.675318856322
31
0.0
0
LINE
5
8a3
100
AcDbEntity
8
0-0
6
CONTINUOUS
62
7
100
AcDbLine
10
660.649701120849
20
228.056742047911
30
0.0
11
665.468746049977
21
228.056742047911
31
0.0
0
POLYLINE
5
8a4
100
AcDbEntity
8
0-0
6
CONTINUOUS
62
  7
100
AcDb2dPolyline
66
1
10
0.0
20
0.0
30
0.0
70
0
0
VERTEX
5
8a5
100
AcDbEntity
8
0-0
6
CONTINUOUS
62
  7
100
AcDbVertex
100
AcDb2dVertex
10
665.702501233865
20
227.608540186531
30
0.0
0
VERTEX
5
8a6
100
AcDbEntity
8
0-0
6
CONTINUOUS
62
  7
100
AcDbVertex
100
AcDb2dVertex
10
665.882990777536
20
227.152650092221
30
0.0
0
VERTEX
5
8a7
100
AcDbEntity
8
0-0
6
CONTINUOUS
62
  7
100
AcDbVertex
100
AcDb2dVertex
10
665.999382871077
20
226.685120055947
30
0.0
0
VERTEX
5
8a8
100
AcDbEntity
8
0-0
6
CONTINUOUS
62
  7
100
AcDbVertex
100
AcDb2dVertex
10
666.039701120849
20
226.211386250014
30
0.0
0
VERTEX
5
8a9
100
AcDbEntity
8
0-0
6
CONTINUOUS
62
  7
100
AcDbVertex
100
AcDb2dVertex
10
666.036593054553
20
226.080185222822
30
0.0
0
VERTEX
5
8aa
100
AcDbEntity
8
0-0
6
CONTINUOUS
62
  7
100
AcDbVertex
100
AcDb2dVertex
10
665.983325084510
20
225.650596423368
30
0.0
0
VERTEX
5
8ab
100
AcDbEntity
8
0-0
6
CONTINUOUS
62
  7
100
AcDbVertex
100
AcDb2dVertex
10
665.866842353780
20
225.221756067016
30
0.0
0
VERTEX
5
8ac
100
AcDbEntity
8
0-0
6
CONTINUOUS
62
  7
100
AcDbVertex
100
AcDb2dVertex
10
665.692066525653
20
224.791820856585
30
0.0
0
VERTEX
5
8ad
100
AcDbEntity
8
0-0
6
CONTINUOUS
62
  7
100
AcDbVertex
100
AcDb2dVertex
10
665.468746049977
20
224.366030452117
30
0.0
0
VERTEX
5
8ae
100
AcDbEntity
8
0-0
6
CONTINUOUS
62
  7
100
AcDbVertex
100
AcDb2dVertex
10
665.795043333992
20
223.041188735190
30
0.0
0
VERTEX
5
8af
100
AcDbEntity
8
0-0
6
CONTINUOUS
62
  7
100
AcDbVertex
100
AcDb2dVertex
10
665.994423067916
20
221.679709077409
30
0.0
0
VERTEX
5
8b0
100
AcDbEntity
8
0-0
6
CONTINUOUS
62
  7
100
AcDbVertex
100
AcDb2dVertex
10
666.039701120849
20
220.675318856322
30
0.0
0
VERTEX
5
8b1
100
AcDbEntity
8
0-0
6
CONTINUOUS
62
  7
100
AcDbVertex
100
AcDb2dVertex
10
665.954797686883
20
219.296279223508
30
0.0
0
VERTEX
5
8b2
100
AcDbEntity
8
0-0
6
CONTINUOUS
62
  7
100
AcDbVertex
100
AcDb2dVertex
10
665.710833240899
20
217.917239590695
30
0.0
0
VERTEX
5
8b3
100
AcDbEntity
8
0-0
6
CONTINUOUS
62
  7
100
AcDbVertex
100
AcDb2dVertex
10
665.468746049977
20
216.984607260527
30
0.0
0
SEQEND
5
8b4
100
AcDbEntity
8
0-0
0
LINE
5
8b5
100
AcDbEntity
8
0-0
6
CENTER
62
4
100
AcDbLine
10
663.149701120828
20
220.675318856322
30
0.0
11
608.649701120849
21
220.675318856322
31
0.0
0
LINE
5
8b6
100
AcDbEntity
8
0-0
6
CONTINUOUS
62
7
100
AcDbLine
10
660.649701120849
20
224.366030452117
30
0.0
11
665.468746049977
21
224.366030452117
31
0.0
0
LINE
5
8b7
100
AcDbEntity
8
0-0
6
CONTINUOUS
62
7
100
AcDbLine
10
752.393819214853
20
153.941182342157
30
0.0
11
759.619531215891
21
153.941182342157
31
0.0
0
LINE
5
8b8
100
AcDbEntity
8
0-0
6
CONTINUOUS
62
7
100
AcDbLine
10
752.393819214853
20
153.941182342157
30
0.0
11
752.393819214853
21
149.709956492164
31
0.0
0
LINE
5
8b9
100
AcDbEntity
8
0-1
6
CENTER
62
4
100
AcDbLine
10
757.893819214852
20
134.941182342157
30
0.0
11
773.893819214853
21
134.941182342157
31
0.0
0
LINE
5
8ba
100
AcDbEntity
8
0-1
6
CENTER
62
4
100
AcDbLine
10
765.893819214853
20
142.941182342157
30
0.0
11
765.893819214853
21
126.941182342157
31
0.0
0
LINE
5
8bb
100
AcDbEntity
8
0-0
6
CONTINUOUS
62
7
100
AcDbLine
10
753.410986763570
20
119.303229026997
30
0.0
11
776.989804067503
21
54.520982342157
31
0.0
0
POLYLINE
5
8bc
100
AcDbEntity
8
0-0
6
CONTINUOUS
62
  2
100
AcDb2dPolyline
66
1
10
0.0
20
0.0
30
0.0
70
0
0
VERTEX
5
8bd
100
AcDbEntity
8
0-0
6
CONTINUOUS
62
  2
100
AcDbVertex
100
AcDb2dVertex
10
784.884654067502
20
55.786481824502
30
0.0
0
VERTEX
5
8be
100
AcDbEntity
8
0-0
6
CONTINUOUS
62
  2
100
AcDbVertex
100
AcDb2dVertex
10
784.884654067502
20
58.095882859811
30
0.0
0
VERTEX
5
8bf
100
AcDbEntity
8
0-0
6
CONTINUOUS
62
  2
100
AcDbVertex
100
AcDb2dVertex
10
786.884654067502
20
59.250583377465
30
0.0
0
VERTEX
5
8c0
100
AcDbEntity
8
0-0
6
CONTINUOUS
62
  2
100
AcDbVertex
100
AcDb2dVertex
10
788.884654067502
20
58.095882859811
30
0.0
0
VERTEX
5
8c1
100
AcDbEntity
8
0-0
6
CONTINUOUS
62
  2
100
AcDbVertex
100
AcDb2dVertex
10
788.884654067502
20
55.786481824502
30
0.0
0
VERTEX
5
8c2
100
AcDbEntity
8
0-0
6
CONTINUOUS
62
  2
100
AcDbVertex
100
AcDb2dVertex
10
786.884654067502
20
54.631781306848
30
0.0
0
VERTEX
5
8c3
100
AcDbEntity
8
0-0
6
CONTINUOUS
62
  2
100
AcDbVertex
100
AcDb2dVertex
10
784.884654067502
20
55.786481824502
30
0.0
0
SEQEND
5
8c4
100
AcDbEntity
8
0-0
0
LINE
5
8c5
100
AcDbEntity
8
0-1
6
CENTER
62
4
100
AcDbLine
10
784.284654067503
20
56.941182342157
30
0.0
11
789.484654067502
21
56.941182342157
31
0.0
0
LINE
5
8c6
100
AcDbEntity
8
0-1
6
CENTER
62
4
100
AcDbLine
10
786.884654067502
20
59.691182342157
30
0.0
11
786.884654067502
21
54.191182342157
31
0.0
0
LINE
5
8c7
100
AcDbEntity
8
0-0
6
CONTINUOUS
62
7
100
AcDbLine
10
786.386724067503
20
47.941182342157
30
0.0
11
872.384654067503
21
47.941182342157
31
0.0
0
LINE
5
8c8
100
AcDbEntity
8
0-0
6
CONTINUOUS
62
7
100
AcDbLine
10
868.384654084596
20
53.941182342156
30
0.0
11
814.384654084597
21
53.941182342156
31
0.0
0
LINE
5
8c9
100
AcDbEntity
8
0-0
6
CENTER
62
4
100
AcDbLine
10
815.384654084597
20
53.441182342156
30
0.0
11
815.384654084597
21
72.441182342156
31
0.0
0
POLYLINE
5
8ca
100
AcDbEntity
8
0-0
6
CONTINUOUS
62
  7
100
AcDb2dPolyline
66
1
10
0.0
20
0.0
30
0.0
70
0
0
VERTEX
5
8cb
100
AcDbEntity
8
0-0
6
CONTINUOUS
62
  7
100
AcDbVertex
100
AcDb2dVertex
10
815.642548975475
20
69.591372415005
30
0.0
0
VERTEX
5
8cc
100
AcDbEntity
8
0-0
6
CONTINUOUS
62
  7
100
AcDbVertex
100
AcDb2dVertex
10
814.893219950802
20
69.767241842538
30
0.0
0
VERTEX
5
8cd
100
AcDbEntity
8
0-0
6
CONTINUOUS
62
  7
100
AcDbVertex
100
AcDb2dVertex
10
814.145799127408
20
69.884453457246
30
0.0
0
VERTEX
5
8ce
100
AcDbEntity
8
0-0
6
CONTINUOUS
62
  7
100
AcDbVertex
100
AcDb2dVertex
10
813.397073846278
20
69.938054801009
30
0.0
0
VERTEX
5
8cf
100
AcDbEntity
8
0-0
6
CONTINUOUS
62
  7
100
AcDbVertex
100
AcDb2dVertex
10
813.168404067503
20
69.941182342157
30
0.0
0
VERTEX
5
8d0
100
AcDbEntity
8
0-0
6
CONTINUOUS
62
  7
100
AcDbVertex
100
AcDb2dVertex
10
812.342738710682
20
69.900611807677
30
0.0
0
VERTEX
5
8d1
100
AcDbEntity
8
0-0
6
CONTINUOUS
62
  7
100
AcDbVertex
100
AcDb2dVertex
10
811.527885834678
20
69.783491410070
30
0.0
0
VERTEX
5
8d2
100
AcDbEntity
8
0-0
6
CONTINUOUS
62
  7
100
AcDbVertex
100
AcDb2dVertex
10
810.733320083459
20
69.601872483256
30
0.0
0
VERTEX
5
8d3
100
AcDbEntity
8
0-0
6
CONTINUOUS
62
  7
100
AcDbVertex
100
AcDb2dVertex
10
809.952154067503
20
69.366654615386
30
0.0
0
SEQEND
5
8d4
100
AcDbEntity
8
0-0
0
POLYLINE
5
8d5
100
AcDbEntity
8
0-0
6
CONTINUOUS
62
  7
100
AcDb2dPolyline
66
1
10
0.0
20
0.0
30
0.0
70
0
0
VERTEX
5
8d6
100
AcDbEntity
8
0-0
6
CONTINUOUS
62
  7
100
AcDbVertex
100
AcDb2dVertex
10
809.952154067503
20
69.941182342157
30
0.0
0
VERTEX
5
8d7
100
AcDbEntity
8
0-0
6
CONTINUOUS
62
  7
100
AcDbVertex
100
AcDb2dVertex
10
809.952154067503
20
63.321182342157
30
0.0
0
VERTEX
5
8d8
100
AcDbEntity
8
0-0
6
CONTINUOUS
62
  7
100
AcDbVertex
100
AcDb2dVertex
10
822.817154067503
20
63.321182342157
30
0.0
0
VERTEX
5
8d9
100
AcDbEntity
8
0-0
6
CONTINUOUS
62
  7
100
AcDbVertex
100
AcDb2dVertex
10
822.817154067503
20
69.941182342157
30
0.0
0
SEQEND
5
8da
100
AcDbEntity
8
0-0
0
POLYLINE
5
8db
100
AcDbEntity
8
0-0
6
CONTINUOUS
62
  7
100
AcDb2dPolyline
66
1
10
0.0
20
0.0
30
0.0
70
0
0
VERTEX
5
8dc
100
AcDbEntity
8
0-0
6
CONTINUOUS
62
  7
100
AcDbVertex
100
AcDb2dVertex
10
822.817154067503
20
69.366654615386
30
0.0
0
VERTEX
5
8dd
100
AcDbEntity
8
0-0
6
CONTINUOUS
62
  7
100
AcDbVertex
100
AcDb2dVertex
10
822.075048975476
20
69.591372415005
30
0.0
0
VERTEX
5
8de
100
AcDbEntity
8
0-0
6
CONTINUOUS
62
  7
100
AcDbVertex
100
AcDb2dVertex
10
821.325719950802
20
69.767241842538
30
0.0
0
VERTEX
5
8df
100
AcDbEntity
8
0-0
6
CONTINUOUS
62
  7
100
AcDbVertex
100
AcDb2dVertex
10
820.578299127407
20
69.884453457246
30
0.0
0
VERTEX
5
8e0
100
AcDbEntity
8
0-0
6
CONTINUOUS
62
  7
100
AcDbVertex
100
AcDb2dVertex
10
819.829573846278
20
69.938054801009
30
0.0
0
VERTEX
5
8e1
100
AcDbEntity
8
0-0
6
CONTINUOUS
62
  7
100
AcDbVertex
100
AcDb2dVertex
10
819.600904067503
20
69.941182342157
30
0.0
0
VERTEX
5
8e2
100
AcDbEntity
8
0-0
6
CONTINUOUS
62
  7
100
AcDbVertex
100
AcDb2dVertex
10
818.775238710682
20
69.900611807677
30
0.0
0
VERTEX
5
8e3
100
AcDbEntity
8
0-0
6
CONTINUOUS
62
  7
100
AcDbVertex
100
AcDb2dVertex
10
818.680556589702
20
69.890839429545
30
0.0
0
VERTEX
5
8e4
100
AcDbEntity
8
0-0
6
CONTINUOUS
62
  7
100
AcDbVertex
100
AcDb2dVertex
10
817.960385834678
20
69.783491410070
30
0.0
0
VERTEX
5
8e5
100
AcDbEntity
8
0-0
6
CONTINUOUS
62
  7
100
AcDbVertex
100
AcDb2dVertex
10
817.165820083459
20
69.601872483256
30
0.0
0
VERTEX
5
8e6
100
AcDbEntity
8
0-0
6
CONTINUOUS
62
  7
100
AcDbVertex
100
AcDb2dVertex
10
816.384654067503
20
69.366654615386
30
0.0
0
VERTEX
5
8e7
100
AcDbEntity
8
0-0
6
CONTINUOUS
62
  7
100
AcDbVertex
100
AcDb2dVertex
10
816.384654067503
20
63.895710068928
30
0.0
0
VERTEX
5
8e8
100
AcDbEntity
8
0-0
6
CONTINUOUS
62
  7
100
AcDbVertex
100
AcDb2dVertex
10
815.603488051547
20
63.660492201058
30
0.0
0
VERTEX
5
8e9
100
AcDbEntity
8
0-0
6
CONTINUOUS
62
  7
100
AcDbVertex
100
AcDb2dVertex
10
814.808922300328
20
63.478873274243
30
0.0
0
VERTEX
5
8ea
100
AcDbEntity
8
0-0
6
CONTINUOUS
62
  7
100
AcDbVertex
100
AcDb2dVertex
10
813.994069424324
20
63.361752876636
30
0.0
0
VERTEX
5
8eb
100
AcDbEntity
8
0-0
6
CONTINUOUS
62
  7
100
AcDbVertex
100
AcDb2dVertex
10
813.168404067503
20
63.321182342157
30
0.0
0
VERTEX
5
8ec
100
AcDbEntity
8
0-0
6
CONTINUOUS
62
  7
100
AcDbVertex
100
AcDb2dVertex
10
812.939734288728
20
63.324309883304
30
0.0
0
VERTEX
5
8ed
100
AcDbEntity
8
0-0
6
CONTINUOUS
62
  7
100
AcDbVertex
100
AcDb2dVertex
10
812.191009007598
20
63.377911227068
30
0.0
0
VERTEX
5
8ee
100
AcDbEntity
8
0-0
6
CONTINUOUS
62
  7
100
AcDbVertex
100
AcDb2dVertex
10
811.443588184204
20
63.495122841775
30
0.0
0
VERTEX
5
8ef
100
AcDbEntity
8
0-0
6
CONTINUOUS
62
  7
100
AcDbVertex
100
AcDb2dVertex
10
810.694259159530
20
63.670992269309
30
0.0
0
VERTEX
5
8f0
100
AcDbEntity
8
0-0
6
CONTINUOUS
62
  7
100
AcDbVertex
100
AcDb2dVertex
10
809.952154067503
20
63.895710068928
30
0.0
0
SEQEND
5
8f1
100
AcDbEntity
8
0-0
0
LINE
5
8f2
100
AcDbEntity
8
0-0
6
CONTINUOUS
62
7
100
AcDbLine
10
810.384654067503
20
63.321182342157
30
0.0
11
810.384654067503
21
62.821182342157
31
0.0
0
LINE
5
8f3
100
AcDbEntity
8
0-0
6
CONTINUOUS
62
7
100
AcDbLine
10
811.884654067503
20
61.321182342157
30
0.0
11
820.884654060947
21
61.321182342157
31
0.0
0
POLYLINE
5
8f4
100
AcDbEntity
8
0-0
6
CONTINUOUS
62
  7
100
AcDb2dPolyline
66
1
10
0.0
20
0.0
30
0.0
70
0
0
VERTEX
5
8f5
100
AcDbEntity
8
0-0
6
CONTINUOUS
62
  7
100
AcDbVertex
100
AcDb2dVertex
10
820.382688612958
20
61.321182342157
30
0.0
0
VERTEX
5
8f6
100
AcDbEntity
8
0-0
6
CONTINUOUS
62
  7
100
AcDbVertex
100
AcDb2dVertex
10
820.382654067503
20
60.941182342178
30
0.0
0
VERTEX
5
8f7
100
AcDbEntity
8
0-0
6
CONTINUOUS
62
  7
100
AcDbVertex
100
AcDb2dVertex
10
812.386654067503
20
60.941182342178
30
0.0
0
VERTEX
5
8f8
100
AcDbEntity
8
0-0
6
CONTINUOUS
62
  7
100
AcDbVertex
100
AcDb2dVertex
10
812.386619522048
20
61.321182342157
30
0.0
0
SEQEND
5
8f9
100
AcDbEntity
8
0-0
0
POLYLINE
5
8fa
100
AcDbEntity
8
0-0
6
CONTINUOUS
62
  2
100
AcDb2dPolyline
66
1
10
0.0
20
0.0
30
0.0
70
0
0
VERTEX
5
8fb
100
AcDbEntity
8
0-0
6
CONTINUOUS
62
  2
100
AcDbVertex
100
AcDb2dVertex
10
812.848755761871
20
60.941182342178
30
0.0
0
VERTEX
5
8fc
100
AcDbEntity
8
0-0
6
CONTINUOUS
62
  2
100
AcDbVertex
100
AcDb2dVertex
10
815.384654084597
20
59.477080789193
30
0.0
0
VERTEX
5
8fd
100
AcDbEntity
8
0-0
6
CONTINUOUS
62
  2
100
AcDbVertex
100
AcDb2dVertex
10
817.920552407322
20
60.941182342178
30
0.0
0
SEQEND
5
8fe
100
AcDbEntity
8
0-0
0
POLYLINE
5
8ff
100
AcDbEntity
8
0-0
6
CONTINUOUS
62
  7
100
AcDb2dPolyline
66
1
10
0.0
20
0.0
30
0.0
70
0
0
VERTEX
5
900
100
AcDbEntity
8
0-0
6
CONTINUOUS
62
  7
100
AcDbVertex
100
AcDb2dVertex
10
817.876088184204
20
63.495122841775
30
0.0
0
VERTEX
5
901
100
AcDbEntity
8
0-0
6
CONTINUOUS
62
  7
100
AcDbVertex
100
AcDb2dVertex
10
817.126759159531
20
63.670992269309
30
0.0
0
VERTEX
5
902
100
AcDbEntity
8
0-0
6
CONTINUOUS
62
  7
100
AcDbVertex
100
AcDb2dVertex
10
816.384654067503
20
63.895710068928
30
0.0
0
SEQEND
5
903
100
AcDbEntity
8
0-0
0
POLYLINE
5
904
100
AcDbEntity
8
0-0
6
CONTINUOUS
62
  7
100
AcDb2dPolyline
66
1
10
0.0
20
0.0
30
0.0
70
0
0
VERTEX
5
905
100
AcDbEntity
8
0-0
6
CONTINUOUS
62
  7
100
AcDbVertex
100
AcDb2dVertex
10
817.876088184204
20
63.495122841775
30
0.0
0
VERTEX
5
906
100
AcDbEntity
8
0-0
6
CONTINUOUS
62
  7
100
AcDbVertex
100
AcDb2dVertex
10
818.623509007598
20
63.377911227068
30
0.0
0
VERTEX
5
907
100
AcDbEntity
8
0-0
6
CONTINUOUS
62
  7
100
AcDbVertex
100
AcDb2dVertex
10
819.372234288728
20
63.324309883304
30
0.0
0
VERTEX
5
908
100
AcDbEntity
8
0-0
6
CONTINUOUS
62
  7
100
AcDbVertex
100
AcDb2dVertex
10
819.600904067503
20
63.321182342157
30
0.0
0
VERTEX
5
909
100
AcDbEntity
8
0-0
6
CONTINUOUS
62
  7
100
AcDbVertex
100
AcDb2dVertex
10
820.426569424324
20
63.361752876636
30
0.0
0
VERTEX
5
90a
100
AcDbEntity
8
0-0
6
CONTINUOUS
62
  7
100
AcDbVertex
100
AcDb2dVertex
10
821.241422300328
20
63.478873274243
30
0.0
0
VERTEX
5
90b
100
AcDbEntity
8
0-0
6
CONTINUOUS
62
  7
100
AcDbVertex
100
AcDb2dVertex
10
822.035988051547
20
63.660492201058
30
0.0
0
VERTEX
5
90c
100
AcDbEntity
8
0-0
6
CONTINUOUS
62
  7
100
AcDbVertex
100
AcDb2dVertex
10
822.817154067503
20
63.895710068928
30
0.0
0
SEQEND
5
90d
100
AcDbEntity
8
0-0
0
LINE
5
90e
100
AcDbEntity
8
0-0
6
CONTINUOUS
62
7
100
AcDbLine
10
822.384654067503
20
63.321182342157
30
0.0
11
822.384654067503
21
62.821182342157
31
0.0
0
LINE
5
90f
100
AcDbEntity
8
0-0
6
CENTER
62
4
100
AcDbLine
10
824.884654084597
20
62.941182342156
30
0.0
11
805.884654084597
21
62.941182342156
31
0.0
0
LINE
5
910
100
AcDbEntity
8
0-0
6
CONTINUOUS
62
7
100
AcDbLine
10
806.384654084597
20
61.941182342156
30
0.0
11
806.384654084597
21
74.941182342157
31
0.0
0
LINE
5
911
100
AcDbEntity
8
0-0
6
CONTINUOUS
62
7
100
AcDbLine
10
808.688076323720
20
74.941182342157
30
0.0
11
808.688076323720
21
72.441182342157
31
0.0
0
LINE
5
912
100
AcDbEntity
8
0-0
6
CONTINUOUS
62
7
100
AcDbLine
10
810.384654067503
20
72.441182342157
30
0.0
11
810.384654067503
21
74.941182342157
31
0.0
0
LINE
5
913
100
AcDbEntity
8
0-0
6
CONTINUOUS
62
7
100
AcDbLine
10
806.384654083029
20
72.441182342157
30
0.0
11
828.246358335436
21
72.441182342157
31
0.0
0
LINE
5
914
100
AcDbEntity
8
0-0
6
CONTINUOUS
62
7
100
AcDbLine
10
828.246358335436
20
71.295072719706
30
0.0
11
828.246358335436
21
74.941182342157
31
0.0
0
LINE
5
915
100
AcDbEntity
8
0-0
6
CONTINUOUS
62
7
100
AcDbLine
10
822.384654067503
20
74.941182342157
30
0.0
11
822.384654067503
21
72.441182342157
31
0.0
0
LINE
5
916
100
AcDbEntity
8
0-0
6
CONTINUOUS
62
7
100
AcDbLine
10
825.916945786339
20
69.941182342157
30
0.0
11
806.384654083029
21
69.941182342157
31
0.0
0
LINE
5
917
100
AcDbEntity
8
0-0
6
CONTINUOUS
62
7
100
AcDbLine
10
815.642548975475
20
69.591372415005
30
0.0
11
816.384654067503
21
69.366654615386
31
0.0
0
LINE
5
918
100
AcDbEntity
8
0-0
6
CENTER
62
4
100
AcDbLine
10
816.384654067503
20
55.941182342178
30
0.0
11
816.384654067503
21
110.441182342157
31
0.0
0
POLYLINE
5
919
100
AcDbEntity
8
0-0
6
CONTINUOUS
62
  7
100
AcDb2dPolyline
66
1
10
0.0
20
0.0
30
0.0
70
0
0
VERTEX
5
91a
100
AcDbEntity
8
0-0
6
CONTINUOUS
62
  7
100
AcDbVertex
100
AcDb2dVertex
10
816.384654067503
20
112.760227271306
30
0.0
0
VERTEX
5
91b
100
AcDbEntity
8
0-0
6
CONTINUOUS
62
  7
100
AcDbVertex
100
AcDb2dVertex
10
817.160962463460
20
112.993982455194
30
0.0
0
VERTEX
5
91c
100
AcDbEntity
8
0-0
6
CONTINUOUS
62
  7
100
AcDbVertex
100
AcDb2dVertex
10
817.950587269472
20
113.174471998865
30
0.0
0
VERTEX
5
91d
100
AcDbEntity
8
0-0
6
CONTINUOUS
62
  7
100
AcDbVertex
100
AcDb2dVertex
10
818.760373046363
20
113.290864092406
30
0.0
0
VERTEX
5
91e
100
AcDbEntity
8
0-0
6
CONTINUOUS
62
  7
100
AcDbVertex
100
AcDb2dVertex
10
819.580904067503
20
113.331182342178
30
0.0
0
VERTEX
5
91f
100
AcDbEntity
8
0-0
6
CONTINUOUS
62
  7
100
AcDbVertex
100
AcDb2dVertex
10
819.808150912604
20
113.328074275882
30
0.0
0
VERTEX
5
920
100
AcDbEntity
8
0-0
6
CONTINUOUS
62
  7
100
AcDbVertex
100
AcDb2dVertex
10
820.552220539621
20
113.274806305839
30
0.0
0
VERTEX
5
921
100
AcDbEntity
8
0-0
6
CONTINUOUS
62
  7
100
AcDbVertex
100
AcDb2dVertex
10
821.294993825159
20
113.158323575109
30
0.0
0
VERTEX
5
922
100
AcDbEntity
8
0-0
6
CONTINUOUS
62
  7
100
AcDbVertex
100
AcDb2dVertex
10
822.039663453589
20
112.983547746982
30
0.0
0
VERTEX
5
923
100
AcDbEntity
8
0-0
6
CONTINUOUS
62
  7
100
AcDbVertex
100
AcDb2dVertex
10
822.777154067503
20
112.760227271306
30
0.0
0
SEQEND
5
924
100
AcDbEntity
8
0-0
0
LINE
5
925
100
AcDbEntity
8
0-0
6
CONTINUOUS
62
7
100
AcDbLine
10
822.777154067503
20
113.331182342178
30
0.0
11
822.777154067503
21
107.941182342178
31
0.0
0
LINE
5
926
100
AcDbEntity
8
0-0
6
CONTINUOUS
62
7
100
AcDbLine
10
822.384654067503
20
105.441182342157
30
0.0
11
822.384654067503
21
102.941182342157
31
0.0
0
LINE
5
927
100
AcDbEntity
8
0-0
6
CONTINUOUS
62
7
100
AcDbLine
10
828.246358335436
20
102.941182342157
30
0.0
11
828.246358335436
21
106.587291964608
31
0.0
0
LINE
5
928
100
AcDbEntity
8
0-0
6
CONTINUOUS
62
7
100
AcDbLine
10
828.246358335436
20
105.441182342157
30
0.0
11
806.384654083029
21
105.441182342157
31
0.0
0
LINE
5
929
100
AcDbEntity
8
0-0
6
CONTINUOUS
62
7
100
AcDbLine
10
808.688076323720
20
105.441182342157
30
0.0
11
808.688076323720
21
102.941182342157
31
0.0
0
LINE
5
92a
100
AcDbEntity
8
0-0
6
CONTINUOUS
62
7
100
AcDbLine
10
810.384654067503
20
102.941182342157
30
0.0
11
810.384654067503
21
105.441182342157
31
0.0
0
POLYLINE
5
92b
100
AcDbEntity
8
0-0
6
CONTINUOUS
62
  7
100
AcDb2dPolyline
66
1
10
0.0
20
0.0
30
0.0
70
0
0
VERTEX
5
92c
100
AcDbEntity
8
0-0
6
CONTINUOUS
62
  7
100
AcDbVertex
100
AcDb2dVertex
10
809.992154067503
20
107.941182342178
30
0.0
0
VERTEX
5
92d
100
AcDbEntity
8
0-0
6
CONTINUOUS
62
  7
100
AcDbVertex
100
AcDb2dVertex
10
809.992154067503
20
113.331182342178
30
0.0
0
VERTEX
5
92e
100
AcDbEntity
8
0-0
6
CONTINUOUS
62
  7
100
AcDbVertex
100
AcDb2dVertex
10
822.777154067503
20
113.331182342178
30
0.0
0
SEQEND
5
92f
100
AcDbEntity
8
0-0
0
LINE
5
930
100
AcDbEntity
8
0-0
6
CENTER
62
4
100
AcDbLine
10
824.884654084597
20
114.941182342157
30
0.0
11
805.884654084597
21
114.941182342157
31
0.0
0
LINE
5
931
100
AcDbEntity
8
0-0
6
CONTINUOUS
62
7
100
AcDbLine
10
806.384654084597
20
115.941182342157
30
0.0
11
806.384654084597
21
102.941182342157
31
0.0
0
LINE
5
932
100
AcDbEntity
8
0-0
6
CONTINUOUS
62
7
100
AcDbLine
10
806.384654083029
20
107.941182342157
30
0.0
11
825.916945786340
21
107.941182342157
31
0.0
0
POLYLINE
5
933
100
AcDbEntity
8
0-0
6
CONTINUOUS
62
  7
100
AcDb2dPolyline
66
1
10
0.0
20
0.0
30
0.0
70
0
0
VERTEX
5
934
100
AcDbEntity
8
0-0
6
CONTINUOUS
62
  7
100
AcDbVertex
100
AcDb2dVertex
10
816.384654067503
20
107.941182342178
30
0.0
0
VERTEX
5
935
100
AcDbEntity
8
0-0
6
CONTINUOUS
62
  7
100
AcDbVertex
100
AcDb2dVertex
10
816.384654067503
20
112.760227271306
30
0.0
0
VERTEX
5
936
100
AcDbEntity
8
0-0
6
CONTINUOUS
62
  7
100
AcDbVertex
100
AcDb2dVertex
10
815.647163453589
20
112.983547746982
30
0.0
0
VERTEX
5
937
100
AcDbEntity
8
0-0
6
CONTINUOUS
62
  7
100
AcDbVertex
100
AcDb2dVertex
10
814.902493825159
20
113.158323575109
30
0.0
0
VERTEX
5
938
100
AcDbEntity
8
0-0
6
CONTINUOUS
62
  7
100
AcDbVertex
100
AcDb2dVertex
10
814.159720539621
20
113.274806305839
30
0.0
0
VERTEX
5
939
100
AcDbEntity
8
0-0
6
CONTINUOUS
62
  7
100
AcDbVertex
100
AcDb2dVertex
10
813.415650912604
20
113.328074275882
30
0.0
0
VERTEX
5
93a
100
AcDbEntity
8
0-0
6
CONTINUOUS
62
  7
100
AcDbVertex
100
AcDb2dVertex
10
813.188404067503
20
113.331182342178
30
0.0
0
VERTEX
5
93b
100
AcDbEntity
8
0-0
6
CONTINUOUS
62
  7
100
AcDbVertex
100
AcDb2dVertex
10
812.367873046363
20
113.290864092406
30
0.0
0
VERTEX
5
93c
100
AcDbEntity
8
0-0
6
CONTINUOUS
62
  7
100
AcDbVertex
100
AcDb2dVertex
10
811.558087269472
20
113.174471998865
30
0.0
0
VERTEX
5
93d
100
AcDbEntity
8
0-0
6
CONTINUOUS
62
  7
100
AcDbVertex
100
AcDb2dVertex
10
810.768462463460
20
112.993982455194
30
0.0
0
VERTEX
5
93e
100
AcDbEntity
8
0-0
6
CONTINUOUS
62
  7
100
AcDbVertex
100
AcDb2dVertex
10
809.992154067503
20
112.760227271306
30
0.0
0
SEQEND
5
93f
100
AcDbEntity
8
0-0
0
POLYLINE
5
940
100
AcDbEntity
8
0-0
6
CONTINUOUS
62
  2
100
AcDb2dPolyline
66
1
10
0.0
20
0.0
30
0.0
70
0
0
VERTEX
5
941
100
AcDbEntity
8
0-0
6
CONTINUOUS
62
  2
100
AcDbVertex
100
AcDb2dVertex
10
812.384654084597
20
113.331182342178
30
0.0
0
VERTEX
5
942
100
AcDbEntity
8
0-0
6
CONTINUOUS
62
  2
100
AcDbVertex
100
AcDb2dVertex
10
812.384654084597
20
116.673233118638
30
0.0
0
VERTEX
5
943
100
AcDbEntity
8
0-0
6
CONTINUOUS
62
  2
100
AcDbVertex
100
AcDb2dVertex
10
815.384654084597
20
118.405283895120
30
0.0
0
VERTEX
5
944
100
AcDbEntity
8
0-0
6
CONTINUOUS
62
  2
100
AcDbVertex
100
AcDb2dVertex
10
818.384654084597
20
116.673233118638
30
0.0
0
VERTEX
5
945
100
AcDbEntity
8
0-0
6
CONTINUOUS
62
  2
100
AcDbVertex
100
AcDb2dVertex
10
818.384654084597
20
113.331182342178
30
0.0
0
SEQEND
5
946
100
AcDbEntity
8
0-0
0
LINE
5
947
100
AcDbEntity
8
0-0
6
CENTER
62
4
100
AcDbLine
10
815.384654084597
20
105.441182342157
30
0.0
11
815.384654084597
21
124.441182342157
31
0.0
0
LINE
5
948
100
AcDbEntity
8
0-0
6
CONTINUOUS
62
7
100
AcDbLine
10
814.384654084597
20
123.941182342157
30
0.0
11
868.384654084596
21
123.941182342157
31
0.0
0
LINE
5
949
100
AcDbEntity
8
0-0
6
CENTER
62
4
100
AcDbLine
10
867.384654084596
20
124.441182342157
30
0.0
11
867.384654084596
21
105.441182342157
31
0.0
0
POLYLINE
5
94a
100
AcDbEntity
8
0-0
6
CONTINUOUS
62
  2
100
AcDb2dPolyline
66
1
10
0.0
20
0.0
30
0.0
70
0
0
VERTEX
5
94b
100
AcDbEntity
8
0-0
6
CONTINUOUS
62
  2
100
AcDbVertex
100
AcDb2dVertex
10
867.384654084596
20
111.477080789194
30
0.0
0
VERTEX
5
94c
100
AcDbEntity
8
0-0
6
CONTINUOUS
62
  2
100
AcDbVertex
100
AcDb2dVertex
10
864.384654084596
20
113.209131565675
30
0.0
0
VERTEX
5
94d
100
AcDbEntity
8
0-0
6
CONTINUOUS
62
  2
100
AcDbVertex
100
AcDb2dVertex
10
864.384654084596
20
116.673233118638
30
0.0
0
VERTEX
5
94e
100
AcDbEntity
8
0-0
6
CONTINUOUS
62
  2
100
AcDbVertex
100
AcDb2dVertex
10
867.384654084596
20
118.405283895120
30
0.0
0
VERTEX
5
94f
100
AcDbEntity
8
0-0
6
CONTINUOUS
62
  2
100
AcDbVertex
100
AcDb2dVertex
10
870.384654084596
20
116.673233118638
30
0.0
0
VERTEX
5
950
100
AcDbEntity
8
0-0
6
CONTINUOUS
62
  2
100
AcDbVertex
100
AcDb2dVertex
10
870.384654084596
20
113.209131565675
30
0.0
0
VERTEX
5
951
100
AcDbEntity
8
0-0
6
CONTINUOUS
62
  2
100
AcDbVertex
100
AcDb2dVertex
10
867.384654084596
20
111.477080789194
30
0.0
0
SEQEND
5
952
100
AcDbEntity
8
0-0
0
LINE
5
953
100
AcDbEntity
8
0-0
6
CENTER
62
4
100
AcDbLine
10
876.884654084596
20
114.941182342157
30
0.0
11
857.884654084596
21
114.941182342157
31
0.0
0
LINE
5
954
100
AcDbEntity
8
0-0
6
CONTINUOUS
62
7
100
AcDbLine
10
876.384654084596
20
115.941182342157
30
0.0
11
876.384654084596
21
61.941182342156
31
0.0
0
LINE
5
955
100
AcDbEntity
8
0-0
6
CENTER
62
4
100
AcDbLine
10
876.884654084596
20
62.941182342156
30
0.0
11
857.884654084596
21
62.941182342156
31
0.0
0
POLYLINE
5
956
100
AcDbEntity
8
0-0
6
CONTINUOUS
62
  2
100
AcDb2dPolyline
66
1
10
0.0
20
0.0
30
0.0
70
0
0
VERTEX
5
957
100
AcDbEntity
8
0-0
6
CONTINUOUS
62
  2
100
AcDbVertex
100
AcDb2dVertex
10
864.384654084596
20
64.673233118638
30
0.0
0
VERTEX
5
958
100
AcDbEntity
8
0-0
6
CONTINUOUS
62
  2
100
AcDbVertex
100
AcDb2dVertex
10
867.384654084596
20
66.405283895120
30
0.0
0
VERTEX
5
959
100
AcDbEntity
8
0-0
6
CONTINUOUS
62
  2
100
AcDbVertex
100
AcDb2dVertex
10
870.384654084596
20
64.673233118638
30
0.0
0
VERTEX
5
95a
100
AcDbEntity
8
0-0
6
CONTINUOUS
62
  2
100
AcDbVertex
100
AcDb2dVertex
10
870.384654084596
20
61.209131565675
30
0.0
0
VERTEX
5
95b
100
AcDbEntity
8
0-0
6
CONTINUOUS
62
  2
100
AcDbVertex
100
AcDb2dVertex
10
867.384654084596
20
59.477080789193
30
0.0
0
VERTEX
5
95c
100
AcDbEntity
8
0-0
6
CONTINUOUS
62
  2
100
AcDbVertex
100
AcDb2dVertex
10
864.384654084596
20
61.209131565675
30
0.0
0
VERTEX
5
95d
100
AcDbEntity
8
0-0
6
CONTINUOUS
62
  2
100
AcDbVertex
100
AcDb2dVertex
10
864.384654084596
20
64.673233118638
30
0.0
0
SEQEND
5
95e
100
AcDbEntity
8
0-0
0
LINE
5
95f
100
AcDbEntity
8
0-0
6
CENTER
62
4
100
AcDbLine
10
867.384654084596
20
72.441182342156
30
0.0
11
867.384654084596
21
53.441182342156
31
0.0
0
LINE
5
960
100
AcDbEntity
8
0-0
6
CONTINUOUS
62
7
100
AcDbLine
10
882.384654067503
20
57.941182342157
30
0.0
11
882.384654067503
21
153.941174342157
31
0.0
0
LINE
5
961
100
AcDbEntity
8
0-0
6
CONTINUOUS
62
7
100
AcDbLine
10
882.384654067503
20
153.941182342157
30
0.0
11
772.168107213814
21
153.941182342157
31
0.0
0
LINE
5
962
100
AcDbEntity
8
0-0
6
CONTINUOUS
62
7
100
AcDbLine
10
778.170899075060
20
150.741182342157
30
0.0
11
882.384654067503
21
150.741182342157
31
0.0
0
POLYLINE
5
963
100
AcDbEntity
8
0-0
6
CONTINUOUS
62
  2
100
AcDb2dPolyline
66
1
10
0.0
20
0.0
30
0.0
70
0
0
VERTEX
5
964
100
AcDbEntity
8
0-0
6
CONTINUOUS
62
  2
100
AcDbVertex
100
AcDb2dVertex
10
875.384654067503
20
144.595882859811
30
0.0
0
VERTEX
5
965
100
AcDbEntity
8
0-0
6
CONTINUOUS
62
  2
100
AcDbVertex
100
AcDb2dVertex
10
875.384654067503
20
142.286481824502
30
0.0
0
VERTEX
5
966
100
AcDbEntity
8
0-0
6
CONTINUOUS
62
  2
100
AcDbVertex
100
AcDb2dVertex
10
873.384654067503
20
141.131781306848
30
0.0
0
VERTEX
5
967
100
AcDbEntity
8
0-0
6
CONTINUOUS
62
  2
100
AcDbVertex
100
AcDb2dVertex
10
871.384654067503
20
142.286481824502
30
0.0
0
VERTEX
5
968
100
AcDbEntity
8
0-0
6
CONTINUOUS
62
  2
100
AcDbVertex
100
AcDb2dVertex
10
871.384654067503
20
144.595882859811
30
0.0
0
VERTEX
5
969
100
AcDbEntity
8
0-0
6
CONTINUOUS
62
  2
100
AcDbVertex
100
AcDb2dVertex
10
873.384654067503
20
145.750583377465
30
0.0
0
VERTEX
5
96a
100
AcDbEntity
8
0-0
6
CONTINUOUS
62
  2
100
AcDbVertex
100
AcDb2dVertex
10
875.384654067503
20
144.595882859811
30
0.0
0
SEQEND
5
96b
100
AcDbEntity
8
0-0
0
LINE
5
96c
100
AcDbEntity
8
0-1
6
CENTER
62
4
100
AcDbLine
10
876.134654067503
20
143.441182342157
30
0.0
11
870.634654067502
21
143.441182342157
31
0.0
0
LINE
5
96d
100
AcDbEntity
8
0-1
6
CENTER
62
4
100
AcDbLine
10
873.384654067503
20
140.841182342157
30
0.0
11
873.384654067503
21
146.041182342157
31
0.0
0
LINE
5
96e
100
AcDbEntity
8
0-0
6
CENTER
62
4
100
AcDbLine
10
870.884654084597
20
88.941182342157
30
0.0
11
811.884654084597
21
88.941182342157
31
0.0
0
LINE
5
96f
100
AcDbEntity
8
0-0
6
CONTINUOUS
62
7
100
AcDbLine
10
793.384654067503
20
74.941182342157
30
0.0
11
839.384654067503
21
74.941182342157
31
0.0
0
LINE
5
970
100
AcDbEntity
8
0-0
6
CONTINUOUS
62
7
100
AcDbLine
10
841.384654067503
20
76.941182342157
30
0.0
11
841.384654067503
21
100.941182342157
31
0.0
0
LINE
5
971
100
AcDbEntity
8
0-0
6
CONTINUOUS
62
7
100
AcDbLine
10
839.384654067503
20
102.941182342157
30
0.0
11
793.384654067503
21
102.941182342157
31
0.0
0
LINE
5
972
100
AcDbEntity
8
0-0
6
CONTINUOUS
62
7
100
AcDbLine
10
791.384654067503
20
100.941182342157
30
0.0
11
791.384654067503
21
76.941182342157
31
0.0
0
POLYLINE
5
973
100
AcDbEntity
8
0-0
6
CONTINUOUS
62
  2
100
AcDb2dPolyline
66
1
10
0.0
20
0.0
30
0.0
70
0
0
VERTEX
5
974
100
AcDbEntity
8
0-0
6
CONTINUOUS
62
  2
100
AcDbVertex
100
AcDb2dVertex
10
788.884654067502
20
120.786473824502
30
0.0
0
VERTEX
5
975
100
AcDbEntity
8
0-0
6
CONTINUOUS
62
  2
100
AcDbVertex
100
AcDb2dVertex
10
788.884654067502
20
123.095874859811
30
0.0
0
VERTEX
5
976
100
AcDbEntity
8
0-0
6
CONTINUOUS
62
  2
100
AcDbVertex
100
AcDb2dVertex
10
786.884654067502
20
124.250575377465
30
0.0
0
VERTEX
5
977
100
AcDbEntity
8
0-0
6
CONTINUOUS
62
  2
100
AcDbVertex
100
AcDb2dVertex
10
784.884654067502
20
123.095874859811
30
0.0
0
VERTEX
5
978
100
AcDbEntity
8
0-0
6
CONTINUOUS
62
  2
100
AcDbVertex
100
AcDb2dVertex
10
784.884654067502
20
120.786473824502
30
0.0
0
VERTEX
5
979
100
AcDbEntity
8
0-0
6
CONTINUOUS
62
  2
100
AcDbVertex
100
AcDb2dVertex
10
786.884654067502
20
119.631773306848
30
0.0
0
VERTEX
5
97a
100
AcDbEntity
8
0-0
6
CONTINUOUS
62
  2
100
AcDbVertex
100
AcDb2dVertex
10
788.884654067502
20
120.786473824502
30
0.0
0
SEQEND
5
97b
100
AcDbEntity
8
0-0
0
LINE
5
97c
100
AcDbEntity
8
0-1
6
CENTER
62
4
100
AcDbLine
10
789.484654067502
20
121.941174342157
30
0.0
11
784.284654067503
21
121.941174342157
31
0.0
0
LINE
5
97d
100
AcDbEntity
8
0-1
6
CENTER
62
4
100
AcDbLine
10
786.884654067502
20
119.191174342157
30
0.0
11
786.884654067502
21
124.691174342157
31
0.0
0
POLYLINE
5
97e
100
AcDbEntity
8
0-0
6
CONTINUOUS
62
  2
100
AcDb2dPolyline
66
1
10
0.0
20
0.0
30
0.0
70
0
0
VERTEX
5
97f
100
AcDbEntity
8
0-0
6
CONTINUOUS
62
  2
100
AcDbVertex
100
AcDb2dVertex
10
806.384654067503
20
142.286481824502
30
0.0
0
VERTEX
5
980
100
AcDbEntity
8
0-0
6
CONTINUOUS
62
  2
100
AcDbVertex
100
AcDb2dVertex
10
806.384654067503
20
144.595882859811
30
0.0
0
VERTEX
5
981
100
AcDbEntity
8
0-0
6
CONTINUOUS
62
  2
100
AcDbVertex
100
AcDb2dVertex
10
808.384654067503
20
145.750583377465
30
0.0
0
VERTEX
5
982
100
AcDbEntity
8
0-0
6
CONTINUOUS
62
  2
100
AcDbVertex
100
AcDb2dVertex
10
810.384654067503
20
144.595882859811
30
0.0
0
VERTEX
5
983
100
AcDbEntity
8
0-0
6
CONTINUOUS
62
  2
100
AcDbVertex
100
AcDb2dVertex
10
810.384654067503
20
142.286481824502
30
0.0
0
VERTEX
5
984
100
AcDbEntity
8
0-0
6
CONTINUOUS
62
  2
100
AcDbVertex
100
AcDb2dVertex
10
808.384654067503
20
141.131781306848
30
0.0
0
VERTEX
5
985
100
AcDbEntity
8
0-0
6
CONTINUOUS
62
  2
100
AcDbVertex
100
AcDb2dVertex
10
806.384654067503
20
142.286481824502
30
0.0
0
SEQEND
5
986
100
AcDbEntity
8
0-0
0
LINE
5
987
100
AcDbEntity
8
0-1
6
CENTER
62
4
100
AcDbLine
10
805.634654067502
20
143.441182342157
30
0.0
11
811.134654067503
21
143.441182342157
31
0.0
0
LINE
5
988
100
AcDbEntity
8
0-1
6
CENTER
62
4
100
AcDbLine
10
808.384654067503
20
140.841182342157
30
0.0
11
808.384654067503
21
146.041182342157
31
0.0
0
LINE
5
989
100
AcDbEntity
8
0-0
6
CENTER
62
4
100
AcDbLine
10
841.384654084597
20
118.441182342157
30
0.0
11
841.384654084597
21
59.441182342156
31
0.0
0
LINE
5
98a
100
AcDbEntity
8
0-0
6
CENTER
62
4
100
AcDbLine
10
841.384654067503
20
247.675318876201
30
0.0
11
841.384654067503
21
273.175318876201
31
0.0
0
LINE
5
98b
100
AcDbEntity
8
0-1
6
CENTER
62
4
100
AcDbLine
10
620.149357080778
20
482.378767689113
30
0.0
11
614.649357080777
21
482.378767689113
31
0.0
0
LINE
5
98c
100
AcDbEntity
8
0-1
6
CENTER
62
4
100
AcDbLine
10
617.399357080778
20
479.778767689113
30
0.0
11
617.399357080778
21
484.978767689113
31
0.0
0
LINE
5
98d
100
AcDbEntity
8
0-1
6
CENTER
62
4
100
AcDbLine
10
595.899357080777
20
463.628767689113
30
0.0
11
595.899357080777
21
458.128767689113
31
0.0
0
LINE
5
98e
100
AcDbEntity
8
0-1
6
CENTER
62
4
100
AcDbLine
10
593.299357080777
20
460.878767689113
30
0.0
11
598.499357080777
21
460.878767689113
31
0.0
0
LINE
5
98f
100
AcDbEntity
8
0-1
6
CENTER
62
4
100
AcDbLine
10
582.899357080778
20
473.878767689113
30
0.0
11
566.899357080777
21
473.878767689113
31
0.0
0
LINE
5
990
100
AcDbEntity
8
0-1
6
CENTER
62
4
100
AcDbLine
10
574.899357080778
20
465.878767689113
30
0.0
11
574.899357080778
21
481.878767689113
31
0.0
0
ARC
5
991
100
AcDbEntity
8
0-0
6
CONTINUOUS
62
7
100
AcDbCircle
10
876.384654067503
20
264.875318876201
30
0.0
40
6.000000000000
100
AcDbArc
50
270.000000000000
51
360.000000000000
0
ARC
5
992
100
AcDbEntity
8
0-0
6
CONTINUOUS
62
7
100
AcDbCircle
10
758.384654067503
20
264.875318876201
30
0.0
40
6.000000000000
100
AcDbArc
50
180.000000000000
51
270.000000000000
0
ARC
5
993
100
AcDbEntity
8
0-0
6
CONTINUOUS
62
7
100
AcDbCircle
10
702.899701120828
20
270.125318876201
30
0.0
40
3.750000000000
100
AcDbArc
50
0.000000000000
51
90.000000000000
0
ARC
5
994
100
AcDbEntity
8
0-0
6
CONTINUOUS
62
7
100
AcDbCircle
10
702.949701120828
20
270.175318876201
30
0.0
40
0.500000000000
100
AcDbArc
50
0.000000000000
51
90.000000000000
0
ARC
5
995
100
AcDbEntity
8
0-0
6
CONTINUOUS
62
7
100
AcDbCircle
10
872.384654067503
20
57.941182342157
30
0.0
40
10.000000000000
100
AcDbArc
50
270.000000000000
51
360.000000000000
0
ARC
5
996
100
AcDbEntity
8
0-0
6
CONTINUOUS
62
7
100
AcDbCircle
10
786.386724067503
20
57.941182342157
30
0.0
40
10.000000000000
100
AcDbArc
50
200.000000000000
51
270.000000000000
0
ARC
5
997
100
AcDbEntity
8
0-0
6
CONTINUOUS
62
7
100
AcDbCircle
10
681.399357080778
20
396.878775689113
30
0.0
40
10.000000000000
100
AcDbArc
50
270.000000000000
51
360.000000000000
0
ARC
5
998
100
AcDbEntity
8
0-0
6
CONTINUOUS
62
7
100
AcDbCircle
10
571.399357080778
20
462.823928689113
30
0.0
40
10.000000000000
100
AcDbArc
50
180.000000000000
51
200.000000000000
0
ARC
5
999
100
AcDbEntity
8
0-0
6
CONTINUOUS
62
7
100
AcDbCircle
10
595.401427080778
20
396.878775689113
30
0.0
40
10.000000000000
100
AcDbArc
50
200.000000000000
51
270.000000000000
0
CIRCLE
5
99a
100
AcDbEntity
8
0-0
6
CONTINUOUS
62
7
100
AcDbCircle
10
595.899357080777
20
460.878767689113
30
0.0
40
2.750000000000
0
CIRCLE
5
99b
100
AcDbEntity
8
0-0
6
CONTINUOUS
62
7
100
AcDbCircle
10
595.899357080777
20
395.878775689113
30
0.0
40
2.750000000000
0
CIRCLE
5
99c
100
AcDbEntity
8
0-0
6
CONTINUOUS
62
7
100
AcDbCircle
10
617.399357080778
20
482.378767689113
30
0.0
40
2.750000000000
0
CIRCLE
5
99d
100
AcDbEntity
8
0-0
6
CONTINUOUS
62
7
100
AcDbCircle
10
682.399357080778
20
482.378767689113
30
0.0
40
2.750000000000
0
CIRCLE
5
99e
100
AcDbEntity
8
0-0
6
CONTINUOUS
62
7
100
AcDbCircle
10
624.399357080777
20
453.878767689113
30
0.0
40
4.100000000000
0
CIRCLE
5
99f
100
AcDbEntity
8
0-0
6
CONTINUOUS
62
7
100
AcDbCircle
10
624.399357080777
20
401.878775689113
30
0.0
40
4.100000000000
0
CIRCLE
5
9a0
100
AcDbEntity
8
0-0
6
CONTINUOUS
62
7
100
AcDbCircle
10
676.399357080778
20
401.878775689113
30
0.0
40
4.100000000000
0
CIRCLE
5
9a1
100
AcDbEntity
8
0-0
6
CONTINUOUS
62
7
100
AcDbCircle
10
676.399357080778
20
453.878767689113
30
0.0
40
4.100000000000
0
CIRCLE
5
9a2
100
AcDbEntity
8
0-0
6
CONTINUOUS
62
7
100
AcDbCircle
10
574.899357080778
20
473.878767689113
30
0.0
40
5.050000000000
0
CIRCLE
5
9a3
100
AcDbEntity
8
0-0
6
CONTINUOUS
62
7
100
AcDbCircle
10
574.899357080778
20
473.878767689113
30
0.0
40
8.000000000000
0
ARC
5
9a4
100
AcDbEntity
8
0-0
6
CONTINUOUS
62
7
100
AcDbCircle
10
735.615895811180
20
489.128767689113
30
0.0
40
3.750000000000
100
AcDbArc
50
0.000000000000
51
90.000000000000
0
ARC
5
9a5
100
AcDbEntity
8
0-0
6
CONTINUOUS
62
7
100
AcDbCircle
10
735.665895811180
20
489.178767689113
30
0.0
40
0.500000000000
100
AcDbArc
50
0.000000000000
51
90.000000000000
0
ARC
5
9a6
100
AcDbEntity
8
0-0
6
CONTINUOUS
62
7
100
AcDbCircle
10
847.332434541583
20
396.878775689113
30
0.0
40
10.000000000000
100
AcDbArc
50
180.000000000000
51
270.000000000000
0
ARC
5
9a7
100
AcDbEntity
8
0-0
6
CONTINUOUS
62
7
100
AcDbCircle
10
957.332434541583
20
462.823928689113
30
0.0
40
10.000000000000
100
AcDbArc
50
340.000000000000
51
360.000000000000
0
ARC
5
9a8
100
AcDbEntity
8
0-0
6
CONTINUOUS
62
7
100
AcDbCircle
10
933.330364541583
20
396.878775689113
30
0.0
40
10.000000000000
100
AcDbArc
50
270.000000000000
51
340.000000000000
0
CIRCLE
5
9a9
100
AcDbEntity
8
0-0
6
CONTINUOUS
62
7
100
AcDbCircle
10
932.832434541583
20
460.878767689113
30
0.0
40
2.750000000000
0
CIRCLE
5
9aa
100
AcDbEntity
8
0-0
6
CONTINUOUS
62
7
100
AcDbCircle
10
932.832434541583
20
395.878775689113
30
0.0
40
2.750000000000
0
CIRCLE
5
9ab
100
AcDbEntity
8
0-0
6
CONTINUOUS
62
7
100
AcDbCircle
10
911.332434541583
20
482.378767689113
30
0.0
40
2.750000000000
0
CIRCLE
5
9ac
100
AcDbEntity
8
0-0
6
CONTINUOUS
62
7
100
AcDbCircle
10
846.332434541583
20
482.378767689113
30
0.0
40
2.750000000000
0
CIRCLE
5
9ad
100
AcDbEntity
8
0-0
6
CONTINUOUS
62
7
100
AcDbCircle
10
904.332434541583
20
453.878767689113
30
0.0
40
4.100000000000
0
CIRCLE
5
9ae
100
AcDbEntity
8
0-0
6
CONTINUOUS
62
7
100
AcDbCircle
10
904.332434541583
20
401.878775689113
30
0.0
40
4.100000000000
0
CIRCLE
5
9af
100
AcDbEntity
8
0-0
6
CONTINUOUS
62
7
100
AcDbCircle
10
852.332434541583
20
401.878775689113
30
0.0
40
4.100000000000
0
CIRCLE
5
9b0
100
AcDbEntity
8
0-0
6
CONTINUOUS
62
7
100
AcDbCircle
10
852.332434541583
20
453.878767689113
30
0.0
40
4.100000000000
0
CIRCLE
5
9b1
100
AcDbEntity
8
0-0
6
CONTINUOUS
62
7
100
AcDbCircle
10
953.832434541583
20
473.878767689113
30
0.0
40
5.050000000000
0
CIRCLE
5
9b2
100
AcDbEntity
8
0-0
6
CONTINUOUS
62
7
100
AcDbCircle
10
953.832434541583
20
473.878767689113
30
0.0
40
8.000000000000
0
ARC
5
9b3
100
AcDbEntity
8
0-0
6
CONTINUOUS
62
7
100
AcDbCircle
10
793.115895811180
20
489.128767689113
30
0.0
40
3.750000000000
100
AcDbArc
50
90.000000000000
51
180.000000000000
0
ARC
5
9b4
100
AcDbEntity
8
0-0
6
CONTINUOUS
62
7
100
AcDbCircle
10
793.065895811180
20
489.178767689113
30
0.0
40
0.500000000000
100
AcDbArc
50
90.000000000000
51
180.000000000000
0
CIRCLE
5
9b5
100
AcDbEntity
8
0-1
6
CONTINUOUS
62
4
100
AcDbCircle
10
574.899357080778
20
473.878767689113
30
0.0
40
6.000000000000
0
TEXT
5
9b6
100
AcDbEntity
8
0-1
62
7
370
-3
100
AcDbText
10
621.426
20
506.845
30
0.0
40
4.208
1
(L)
41
0.674
50
0.000
100
AcDbText
0
CIRCLE
5
9b7
100
AcDbEntity
8
0-1
6
CONTINUOUS
62
4
100
AcDbCircle
10
953.832434541583
20
473.878767689113
30
0.0
40
6.000000000000
0
TEXT
5
9b8
100
AcDbEntity
8
0-1
62
7
370
-3
100
AcDbText
10
900.206
20
506.845
30
0.0
40
4.208
1
(R)
41
0.668
50
0.000
100
AcDbText
0
ARC
5
9b9
100
AcDbEntity
8
0-0
6
CONTINUOUS
62
7
100
AcDbCircle
10
868.384654084596
20
61.941182342156
30
0.0
40
8.000000000000
100
AcDbArc
50
270.000000000000
51
360.000000000000
0
ARC
5
9ba
100
AcDbEntity
8
0-0
6
CONTINUOUS
62
7
100
AcDbCircle
10
868.384654084596
20
115.941182342157
30
0.0
40
8.000000000000
100
AcDbArc
50
0.000000000000
51
90.000000000000
0
ARC
5
9bb
100
AcDbEntity
8
0-0
6
CONTINUOUS
62
7
100
AcDbCircle
10
814.384654084597
20
115.941182342157
30
0.0
40
8.000000000000
100
AcDbArc
50
90.000000000000
51
180.000000000000
0
ARC
5
9bc
100
AcDbEntity
8
0-0
6
CONTINUOUS
62
7
100
AcDbCircle
10
814.384654084597
20
61.941182342156
30
0.0
40
8.000000000000
100
AcDbArc
50
180.000000000000
51
270.000000000000
0
ARC
5
9bd
100
AcDbEntity
8
0-0
6
CONTINUOUS
62
7
100
AcDbCircle
10
820.884654067503
20
62.821182342157
30
0.0
40
1.500000000000
100
AcDbArc
50
270.000000000000
51
360.000000000000
0
ARC
5
9be
100
AcDbEntity
8
0-0
6
CONTINUOUS
62
7
100
AcDbCircle
10
811.884654067503
20
62.821182342157
30
0.0
40
1.500000000000
100
AcDbArc
50
180.000000000000
51
270.000000000000
0
ARC
5
9bf
100
AcDbEntity
8
0-0
6
CONTINUOUS
62
7
100
AcDbCircle
10
839.384654067503
20
100.941182342157
30
0.0
40
2.000000000000
100
AcDbArc
50
359.999999999999
51
450.000000000000
0
ARC
5
9c0
100
AcDbEntity
8
0-0
6
CONTINUOUS
62
7
100
AcDbCircle
10
793.384654067503
20
100.941182342157
30
0.0
40
2.000000000000
100
AcDbArc
50
90.000000000000
51
180.000000000000
0
ARC
5
9c1
100
AcDbEntity
8
0-0
6
CONTINUOUS
62
7
100
AcDbCircle
10
839.384654067503
20
76.941182342157
30
0.0
40
2.000000000000
100
AcDbArc
50
270.000000000000
51
360.000000000000
0
ARC
5
9c2
100
AcDbEntity
8
0-0
6
CONTINUOUS
62
7
100
AcDbCircle
10
793.384654067503
20
76.941182342157
30
0.0
40
2.000000000000
100
AcDbArc
50
179.999999999999
51
270.000000000000
0
ARC
5
9c3
100
AcDbEntity
8
0-0
6
CONTINUOUS
62
7
100
AcDbCircle
10
620.149701169091
20
257.675318827938
30
0.0
40
3.000000048263
100
AcDbArc
50
90.000000746537
51
180.000001207418
0
ARC
5
9c4
100
AcDbEntity
8
0-0
6
CONTINUOUS
62
7
100
AcDbCircle
10
663.149701072564
20
257.675318827938
30
0.0
40
3.000000048263
100
AcDbArc
50
0.000000921759
51
90.000001382640
0
ARC
5
9c5
100
AcDbEntity
8
0-0
6
CONTINUOUS
62
7
100
AcDbCircle
10
618.449701120827
20
268.175318876201
30
0.0
40
0.800000000000
100
AcDbArc
50
179.999999999999
51
270.000000000000
0
ARC
5
9c6
100
AcDbEntity
8
0-0
6
CONTINUOUS
62
7
100
AcDbCircle
10
664.849701120828
20
268.175318876201
30
0.0
40
0.800000000000
100
AcDbArc
50
270.000000000000
51
360.000000000000
0
ARC
5
9c7
100
AcDbEntity
8
0-0
6
CONTINUOUS
62
7
100
AcDbCircle
10
615.529701120828
20
216.175318856322
30
0.0
40
1.500000000000
100
AcDbArc
50
179.999999999999
51
270.000000000000
0
ARC
5
9c8
100
AcDbEntity
8
0-0
6
CONTINUOUS
62
7
100
AcDbCircle
10
615.529701120828
20
225.175318856322
30
0.0
40
1.500000000000
100
AcDbArc
50
90.000000000000
51
180.000000000000
0
ARC
5
9c9
100
AcDbEntity
8
0-0
6
CONTINUOUS
62
7
100
AcDbCircle
10
653.649701120828
20
197.675318856322
30
0.0
40
2.000000000000
100
AcDbArc
50
270.000000000000
51
360.000000000000
0
ARC
5
9ca
100
AcDbEntity
8
0-0
6
CONTINUOUS
62
7
100
AcDbCircle
10
653.649701120828
20
243.675318856322
30
0.0
40
2.000000000000
100
AcDbArc
50
359.999999999999
51
450.000000000000
0
ARC
5
9cb
100
AcDbEntity
8
0-0
6
CONTINUOUS
62
7
100
AcDbCircle
10
629.649701120828
20
197.675318856322
30
0.0
40
2.000000000000
100
AcDbArc
50
180.000000000000
51
270.000000000000
0
ARC
5
9cc
100
AcDbEntity
8
0-0
6
CONTINUOUS
62
7
100
AcDbCircle
10
629.649701120828
20
243.675318856322
30
0.0
40
2.000000000000
100
AcDbArc
50
90.000000000000
51
180.000000000000
0
ARC
5
9cd
100
AcDbEntity
8
0-0
6
CONTINUOUS
62
7
100
AcDbCircle
10
816.384654050410
20
220.675318856322
30
0.0
40
9.999999984475
100
AcDbArc
50
175.617055789667
51
283.000000121052
0
ARC
5
9ce
100
AcDbEntity
8
0-0
6
CONTINUOUS
62
7
100
AcDbCircle
10
822.127978144449
20
222.001269716894
30
0.0
40
10.000000000000
100
AcDbArc
50
282.999999999999
51
292.265362319022
0
ARC
5
9cf
100
AcDbEntity
8
0-0
6
CONTINUOUS
62
7
100
AcDbCircle
10
816.384654050408
20
220.675318856322
30
0.0
40
6.392500000000
100
AcDbArc
50
240.000000000000
51
300.000000000000
0
ARC
5
9d0
100
AcDbEntity
8
0-0
6
CONTINUOUS
62
7
100
AcDbCircle
10
816.384654050408
20
220.675318856322
30
0.0
40
6.392500000000
100
AcDbArc
50
300.000000000000
51
360.000000000000
0
ARC
5
9d1
100
AcDbEntity
8
0-0
6
CONTINUOUS
62
7
100
AcDbCircle
10
816.384654050408
20
220.675318856322
30
0.0
40
6.392500000000
100
AcDbArc
50
180.000000000000
51
240.000000000000
0
ARC
5
9d2
100
AcDbEntity
8
0-0
6
CONTINUOUS
62
7
100
AcDbCircle
10
816.384654050408
20
220.675318856322
30
0.0
40
6.392500000000
100
AcDbArc
50
120.000000000000
51
180.000000000000
0
ARC
5
9d3
100
AcDbEntity
8
0-0
6
CONTINUOUS
62
7
100
AcDbCircle
10
816.384654050408
20
220.675318856322
30
0.0
40
6.392500000000
100
AcDbArc
50
360.000000000000
51
419.999999999999
0
ARC
5
9d4
100
AcDbEntity
8
0-0
6
CONTINUOUS
62
7
100
AcDbCircle
10
816.384654050408
20
220.675318856322
30
0.0
40
6.392500000000
100
AcDbArc
50
60.000000000000
51
120.000000000000
0
ARC
5
9d5
100
AcDbEntity
8
0-0
6
CONTINUOUS
62
7
100
AcDbCircle
10
816.384654050408
20
220.675318856322
30
0.0
40
18.000000000000
100
AcDbArc
50
119.366044205070
51
367.340078480237
0
ARC
5
9d6
100
AcDbEntity
8
0-0
6
CONTINUOUS
62
7
100
AcDbCircle
10
816.384654050408
20
220.675318856322
30
0.0
40
25.000000000000
100
AcDbArc
50
109.195234107995
51
385.079759629939
0
ARC
5
9d7
100
AcDbEntity
8
0-0
6
CONTINUOUS
62
7
100
AcDbCircle
10
819.884654115766
20
257.675318827938
30
0.0
40
3.000000048263
100
AcDbArc
50
156.421820918369
51
180.000001207418
0
ARC
5
9d8
100
AcDbEntity
8
0-0
6
CONTINUOUS
62
7
100
AcDbCircle
10
862.884654019240
20
257.675318827938
30
0.0
40
3.000000048263
100
AcDbArc
50
0.000000921759
51
23.578179081631
0
CIRCLE
5
9d9
100
AcDbEntity
8
0-0
6
CONTINUOUS
62
2
100
AcDbCircle
10
808.384654067503
20
143.441182342157
30
0.0
40
4.250000000000
0
CIRCLE
5
9da
100
AcDbEntity
8
0-0
6
CONTINUOUS
62
2
100
AcDbCircle
10
873.384654067503
20
143.441182342157
30
0.0
40
4.250000000000
0
CIRCLE
5
9db
100
AcDbEntity
8
0-0
6
CONTINUOUS
62
2
100
AcDbCircle
10
786.884654067502
20
56.941182342157
30
0.0
40
4.250000000000
0
CIRCLE
5
9dc
100
AcDbEntity
8
0-0
6
CONTINUOUS
62
2
100
AcDbCircle
10
786.884654067502
20
121.941174342157
30
0.0
40
4.250000000000
0
CIRCLE
5
9dd
100
AcDbEntity
8
0-0
6
CONTINUOUS
62
2
100
AcDbCircle
10
867.384654084596
20
62.941182342156
30
0.0
40
6.500000000000
0
CIRCLE
5
9de
100
AcDbEntity
8
0-0
6
CONTINUOUS
62
2
100
AcDbCircle
10
867.384654084596
20
62.941182342156
30
0.0
40
8.895000458000
0
CIRCLE
5
9df
100
AcDbEntity
8
0-0
6
CONTINUOUS
62
2
100
AcDbCircle
10
867.384654084596
20
114.941182342157
30
0.0
40
6.500000000000
0
CIRCLE
5
9e0
100
AcDbEntity
8
0-0
6
CONTINUOUS
62
2
100
AcDbCircle
10
867.384654084596
20
114.941182342157
30
0.0
40
8.895000458000
0
ARC
5
9e1
100
AcDbEntity
8
0-0
6
CONTINUOUS
62
7
100
AcDbCircle
10
841.384654084597
20
88.941182342157
30
0.0
40
24.500000000000
100
AcDbArc
50
230.851312357746
51
489.148687642252
0
ARC
5
9e2
100
AcDbEntity
8
0-0
6
CONTINUOUS
62
7
100
AcDbCircle
10
841.384654084597
20
88.941182342157
30
0.0
40
22.000000000000
100
AcDbArc
50
233.330713972126
51
486.669286027874
0
ARC
5
9e3
100
AcDbEntity
8
0-0
6
CONTINUOUS
62
7
100
AcDbCircle
10
841.384654084597
20
88.941182342157
30
0.0
40
19.500000000000
100
AcDbArc
50
227.642165468084
51
492.357834531916
0
ARC
5
9e4
100
AcDbEntity
8
0-0
6
CONTINUOUS
62
2
100
AcDbCircle
10
815.384654084597
20
114.941182342157
30
0.0
40
8.895000458000
100
AcDbArc
50
326.210338523071
51
592.390884740823
0
ARC
5
9e5
100
AcDbEntity
8
0-0
6
CONTINUOUS
62
2
100
AcDbCircle
10
815.384654084597
20
114.941182342157
30
0.0
40
6.500000000000
100
AcDbArc
50
343.394004331385
51
573.940750774828
0
ARC
5
9e6
100
AcDbEntity
8
0-0
6
CONTINUOUS
62
2
100
AcDbCircle
10
815.384654084597
20
62.941182342156
30
0.0
40
8.895000458000
100
AcDbArc
50
127.642764147650
51
393.323538118023
0
ARC
5
9e7
100
AcDbEntity
8
0-0
6
CONTINUOUS
62
2
100
AcDbCircle
10
815.384654084597
20
62.941182342156
30
0.0
40
6.500000000000
100
AcDbArc
50
146.696021192228
51
348.010761731174
0
CIRCLE
5
9e8
100
AcDbEntity
8
0-8
6
CONTINUOUS
62
4
100
AcDbCircle
10
765.893819214853
20
134.941182342157
30
0.0
40
6.000000000000
0
LINE
5
9e9
100
AcDbEntity
8
0-9
6
PHANTOM
62
4
100
AcDbLine
10
667.649701120828
20
184.375318876200
30
0.0
11
667.649701120828
21
179.375318876200
31
0.0
0
LINE
5
9ea
100
AcDbEntity
8
0-9
6
PHANTOM
62
4
100
AcDbLine
10
707.649701120828
20
179.375318876200
30
0.0
11
707.649701120828
21
184.375318876200
31
0.0
0
LINE
5
9eb
100
AcDbEntity
8
0-9
6
PHANTOM
62
4
100
AcDbLine
10
707.049701120827
20
179.375318876200
30
0.0
11
707.049701120827
21
176.875318876200
31
0.0
0
LINE
5
9ec
100
AcDbEntity
8
0-9
6
PHANTOM
62
4
100
AcDbLine
10
668.249701120828
20
176.875318876200
30
0.0
11
668.249701120828
21
179.375318876200
31
0.0
0
POLYLINE
5
9ed
100
AcDbEntity
8
0-9
6
PHANTOM
62
  4
100
AcDb2dPolyline
66
1
10
0.0
20
0.0
30
0.0
70
0
0
VERTEX
5
9ee
100
AcDbEntity
8
0-9
6
PHANTOM
62
  4
100
AcDbVertex
100
AcDb2dVertex
10
669.649701120827
20
176.875318876200
30
0.0
0
VERTEX
5
9ef
100
AcDbEntity
8
0-9
6
PHANTOM
62
  4
100
AcDbVertex
100
AcDb2dVertex
10
669.649701120827
20
173.875318876201
30
0.0
0
VERTEX
5
9f0
100
AcDbEntity
8
0-9
6
PHANTOM
62
  4
100
AcDbVertex
100
AcDb2dVertex
10
705.649701120828
20
173.875318876201
30
0.0
0
VERTEX
5
9f1
100
AcDbEntity
8
0-9
6
PHANTOM
62
  4
100
AcDbVertex
100
AcDb2dVertex
10
705.649701120828
20
176.875318876200
30
0.0
0
SEQEND
5
9f2
100
AcDbEntity
8
0-9
0
LINE
5
9f3
100
AcDbEntity
8
0-9
6
PHANTOM
62
4
100
AcDbLine
10
667.649701120828
20
179.375318876200
30
0.0
11
668.249701120828
21
179.375318876200
31
0.0
0
LINE
5
9f4
100
AcDbEntity
8
0-9
6
PHANTOM
62
4
100
AcDbLine
10
707.049701120827
20
179.375318876200
30
0.0
11
707.649701120828
21
179.375318876200
31
0.0
0
LINE
5
9f5
100
AcDbEntity
8
0-9
6
PHANTOM
62
4
100
AcDbLine
10
707.049701120827
20
176.875318876200
30
0.0
11
705.649701120828
21
176.875318876200
31
0.0
0
LINE
5
9f6
100
AcDbEntity
8
0-9
6
PHANTOM
62
4
100
AcDbLine
10
669.649701120827
20
176.875318876200
30
0.0
11
668.249701120828
21
176.875318876200
31
0.0
0
POLYLINE
5
9f7
100
AcDbEntity
8
0-9
6
PHANTOM
62
  4
100
AcDb2dPolyline
66
1
10
0.0
20
0.0
30
0.0
70
0
0
VERTEX
5
9f8
100
AcDbEntity
8
0-9
6
PHANTOM
62
  4
100
AcDbVertex
100
AcDb2dVertex
10
693.649701120828
20
324.575318876201
30
0.0
0
VERTEX
5
9f9
100
AcDbEntity
8
0-9
6
PHANTOM
62
  4
100
AcDbVertex
100
AcDb2dVertex
10
692.649701120828
20
325.575318876201
30
0.0
0
VERTEX
5
9fa
100
AcDbEntity
8
0-9
6
PHANTOM
62
  4
100
AcDbVertex
100
AcDb2dVertex
10
682.649701120828
20
325.575318876201
30
0.0
0
VERTEX
5
9fb
100
AcDbEntity
8
0-9
6
PHANTOM
62
  4
100
AcDbVertex
100
AcDb2dVertex
10
681.649701120827
20
324.575318876201
30
0.0
0
SEQEND
5
9fc
100
AcDbEntity
8
0-9
0
LINE
5
9fd
100
AcDbEntity
8
0-9
6
PHANTOM
62
4
100
AcDbLine
10
693.649701120828
20
297.357176838474
30
0.0
11
693.649701120828
21
324.575318876201
31
0.0
0
LINE
5
9fe
100
AcDbEntity
8
0-9
6
PHANTOM
62
4
100
AcDbLine
10
681.649701120827
20
324.575318876201
30
0.0
11
681.649701120827
21
297.357176838474
31
0.0
0
LINE
5
9ff
100
AcDbEntity
8
0-1
6
CENTER
62
4
100
AcDbLine
10
687.649701120828
20
173.875318876201
30
0.0
11
687.649701120828
21
325.575318876201
31
0.0
0
LINE
5
a00
100
AcDbEntity
8
0-1
6
CENTER
62
4
100
AcDbLine
10
765.884654067503
20
173.875319114619
30
0.0
11
765.884654067503
21
325.575319114620
31
0.0
0
LINE
5
a01
100
AcDbEntity
8
0-8
6
CONTINUOUS
62
4
100
AcDbLine
10
693.649701120828
20
287.875318876200
30
0.0
11
681.649701120827
21
287.875318876200
31
0.0
0
LINE
5
a02
100
AcDbEntity
8
0-8
6
CONTINUOUS
62
4
100
AcDbLine
10
682.399701120827
20
208.875318876201
30
0.0
11
682.399701120827
21
246.675318876201
31
0.0
0
LINE
5
a03
100
AcDbEntity
8
0-8
6
CONTINUOUS
62
4
100
AcDbLine
10
692.899701120828
20
208.875318876201
30
0.0
11
692.899701120828
21
246.675318876201
31
0.0
0
LINE
5
a04
100
AcDbEntity
8
0-8
6
CONTINUOUS
62
4
100
AcDbLine
10
692.899701120828
20
273.875318876201
30
0.0
11
692.899701120828
21
288.625318876200
31
0.0
0
LINE
5
a05
100
AcDbEntity
8
0-8
6
CONTINUOUS
62
4
100
AcDbLine
10
682.399701120827
20
273.875318876201
30
0.0
11
682.399701120827
21
288.625318876200
31
0.0
0
LINE
5
a06
100
AcDbEntity
8
0-9
6
PHANTOM
62
4
100
AcDbLine
10
676.680046006224
20
240.541681486420
30
0.0
11
679.649701120827
21
239.775318876201
31
0.0
0
LINE
5
a07
100
AcDbEntity
8
0-9
6
PHANTOM
62
4
100
AcDbLine
10
699.649701120827
20
239.775318876201
30
0.0
11
699.649701120827
21
239.375318876200
31
0.0
0
LINE
5
a08
100
AcDbEntity
8
0-9
6
PHANTOM
62
4
100
AcDbLine
10
695.649701120828
20
239.775318876201
30
0.0
11
698.619356235431
21
240.541681486420
31
0.0
0
LINE
5
a09
100
AcDbEntity
8
0-9
6
PHANTOM
62
4
100
AcDbLine
10
675.649701120828
20
239.775318876201
30
0.0
11
675.649701120828
21
239.375318876200
31
0.0
0
LINE
5
a0a
100
AcDbEntity
8
0-9
6
PHANTOM
62
4
100
AcDbLine
10
667.649701120828
20
236.375318876200
30
0.0
11
667.649701120828
21
231.375318876200
31
0.0
0
LINE
5
a0b
100
AcDbEntity
8
0-9
6
PHANTOM
62
4
100
AcDbLine
10
707.649701120828
20
231.375318876200
30
0.0
11
707.649701120828
21
236.375318876200
31
0.0
0
LINE
5
a0c
100
AcDbEntity
8
0-9
6
PHANTOM
62
4
100
AcDbLine
10
707.049701120827
20
231.375318876200
30
0.0
11
707.049701120827
21
228.875318876200
31
0.0
0
LINE
5
a0d
100
AcDbEntity
8
0-9
6
PHANTOM
62
4
100
AcDbLine
10
668.249701120828
20
228.875318876200
30
0.0
11
668.249701120828
21
231.375318876200
31
0.0
0
POLYLINE
5
a0e
100
AcDbEntity
8
0-9
6
PHANTOM
62
  4
100
AcDb2dPolyline
66
1
10
0.0
20
0.0
30
0.0
70
0
0
VERTEX
5
a0f
100
AcDbEntity
8
0-9
6
PHANTOM
62
  4
100
AcDbVertex
100
AcDb2dVertex
10
669.649701120827
20
228.875318876200
30
0.0
0
VERTEX
5
a10
100
AcDbEntity
8
0-9
6
PHANTOM
62
  4
100
AcDbVertex
100
AcDb2dVertex
10
669.649701120827
20
225.875318876201
30
0.0
0
VERTEX
5
a11
100
AcDbEntity
8
0-9
6
PHANTOM
62
  4
100
AcDbVertex
100
AcDb2dVertex
10
705.649701120828
20
225.875318876201
30
0.0
0
VERTEX
5
a12
100
AcDbEntity
8
0-9
6
PHANTOM
62
  4
100
AcDbVertex
100
AcDb2dVertex
10
705.649701120828
20
228.875318876200
30
0.0
0
SEQEND
5
a13
100
AcDbEntity
8
0-9
0
ARC
5
a14
100
AcDbEntity
8
0-9
6
PHANTOM
62
4
100
AcDbCircle
10
670.649701120828
20
236.375318876200
30
0.0
40
3.000000000000
100
AcDbArc
50
89.999999999999
51
180.000000000000
0
ARC
5
a15
100
AcDbEntity
8
0-9
6
PHANTOM
62
4
100
AcDbCircle
10
704.649701120827
20
236.375318876200
30
0.0
40
3.000000000000
100
AcDbArc
50
360.000000000000
51
450.000000000001
0
LINE
5
a16
100
AcDbEntity
8
0-9
6
PHANTOM
62
4
100
AcDbLine
10
675.649701120828
20
239.775318876201
30
0.0
11
679.649701120827
21
239.775318876201
31
0.0
0
LINE
5
a17
100
AcDbEntity
8
0-9
6
PHANTOM
62
4
100
AcDbLine
10
695.649701120828
20
239.775318876201
30
0.0
11
699.649701120827
21
239.775318876201
31
0.0
0
LINE
5
a18
100
AcDbEntity
8
0-9
6
PHANTOM
62
4
100
AcDbLine
10
670.649701121078
20
239.375318876200
30
0.0
11
675.649701120828
21
239.375318876200
31
0.0
0
LINE
5
a19
100
AcDbEntity
8
0-9
6
PHANTOM
62
4
100
AcDbLine
10
699.649701120827
20
239.375318876200
30
0.0
11
704.649701120827
21
239.375318876200
31
0.0
0
LINE
5
a1a
100
AcDbEntity
8
0-9
6
PHANTOM
62
4
100
AcDbLine
10
667.649701120828
20
231.375318876200
30
0.0
11
668.249701120828
21
231.375318876200
31
0.0
0
LINE
5
a1b
100
AcDbEntity
8
0-9
6
PHANTOM
62
4
100
AcDbLine
10
707.049701120827
20
231.375318876200
30
0.0
11
707.649701120828
21
231.375318876200
31
0.0
0
LINE
5
a1c
100
AcDbEntity
8
0-9
6
PHANTOM
62
4
100
AcDbLine
10
707.049701120827
20
228.875318876200
30
0.0
11
705.649701120828
21
228.875318876200
31
0.0
0
LINE
5
a1d
100
AcDbEntity
8
0-9
6
PHANTOM
62
4
100
AcDbLine
10
669.649701120827
20
228.875318876200
30
0.0
11
668.249701120828
21
228.875318876200
31
0.0
0
LINE
5
a1e
100
AcDbEntity
8
0-9
6
PHANTOM
62
4
100
AcDbLine
10
698.619356235431
20
240.541681486420
30
0.0
11
698.619356235431
21
245.975318876201
31
0.0
0
LINE
5
a1f
100
AcDbEntity
8
0-9
6
PHANTOM
62
4
100
AcDbLine
10
676.680046006224
20
245.975318876201
30
0.0
11
676.680046006224
21
240.541681486420
31
0.0
0
LINE
5
a20
100
AcDbEntity
8
0-9
6
PHANTOM
62
4
100
AcDbLine
10
745.884654067503
20
184.375318876200
30
0.0
11
745.884654067503
21
179.375318876200
31
0.0
0
LINE
5
a21
100
AcDbEntity
8
0-9
6
PHANTOM
62
4
100
AcDbLine
10
785.884654067503
20
179.375318876200
30
0.0
11
785.884654067503
21
184.375318876200
31
0.0
0
LINE
5
a22
100
AcDbEntity
8
0-9
6
PHANTOM
62
4
100
AcDbLine
10
785.284654067502
20
179.375318876200
30
0.0
11
785.284654067502
21
176.875318876200
31
0.0
0
LINE
5
a23
100
AcDbEntity
8
0-9
6
PHANTOM
62
4
100
AcDbLine
10
746.484654067503
20
176.875318876200
30
0.0
11
746.484654067503
21
179.375318876200
31
0.0
0
POLYLINE
5
a24
100
AcDbEntity
8
0-9
6
PHANTOM
62
  4
100
AcDb2dPolyline
66
1
10
0.0
20
0.0
30
0.0
70
0
0
VERTEX
5
a25
100
AcDbEntity
8
0-9
6
PHANTOM
62
  4
100
AcDbVertex
100
AcDb2dVertex
10
747.884654067502
20
176.875318876200
30
0.0
0
VERTEX
5
a26
100
AcDbEntity
8
0-9
6
PHANTOM
62
  4
100
AcDbVertex
100
AcDb2dVertex
10
747.884654067502
20
173.875318876201
30
0.0
0
VERTEX
5
a27
100
AcDbEntity
8
0-9
6
PHANTOM
62
  4
100
AcDbVertex
100
AcDb2dVertex
10
783.884654067504
20
173.875318876201
30
0.0
0
VERTEX
5
a28
100
AcDbEntity
8
0-9
6
PHANTOM
62
  4
100
AcDbVertex
100
AcDb2dVertex
10
783.884654067504
20
176.875318876200
30
0.0
0
SEQEND
5
a29
100
AcDbEntity
8
0-9
0
LINE
5
a2a
100
AcDbEntity
8
0-9
6
PHANTOM
62
4
100
AcDbLine
10
745.884654067503
20
179.375318876200
30
0.0
11
746.484654067503
21
179.375318876200
31
0.0
0
LINE
5
a2b
100
AcDbEntity
8
0-9
6
PHANTOM
62
4
100
AcDbLine
10
785.284654067502
20
179.375318876200
30
0.0
11
785.884654067503
21
179.375318876200
31
0.0
0
LINE
5
a2c
100
AcDbEntity
8
0-9
6
PHANTOM
62
4
100
AcDbLine
10
785.284654067502
20
176.875318876200
30
0.0
11
783.884654067504
21
176.875318876200
31
0.0
0
LINE
5
a2d
100
AcDbEntity
8
0-9
6
PHANTOM
62
4
100
AcDbLine
10
747.884654067502
20
176.875318876200
30
0.0
11
746.484654067503
21
176.875318876200
31
0.0
0
POLYLINE
5
a2e
100
AcDbEntity
8
0-9
6
PHANTOM
62
  4
100
AcDb2dPolyline
66
1
10
0.0
20
0.0
30
0.0
70
0
0
VERTEX
5
a2f
100
AcDbEntity
8
0-9
6
PHANTOM
62
  4
100
AcDbVertex
100
AcDb2dVertex
10
771.884654067503
20
324.575318876201
30
0.0
0
VERTEX
5
a30
100
AcDbEntity
8
0-9
6
PHANTOM
62
  4
100
AcDbVertex
100
AcDb2dVertex
10
770.884654067503
20
325.575318876201
30
0.0
0
VERTEX
5
a31
100
AcDbEntity
8
0-9
6
PHANTOM
62
  4
100
AcDbVertex
100
AcDb2dVertex
10
760.884654067503
20
325.575318876201
30
0.0
0
VERTEX
5
a32
100
AcDbEntity
8
0-9
6
PHANTOM
62
  4
100
AcDbVertex
100
AcDb2dVertex
10
759.884654067503
20
324.575318876201
30
0.0
0
SEQEND
5
a33
100
AcDbEntity
8
0-9
0
LINE
5
a34
100
AcDbEntity
8
0-9
6
PHANTOM
62
4
100
AcDbLine
10
771.884654067503
20
297.357176838474
30
0.0
11
771.884654067503
21
324.575318876201
31
0.0
0
LINE
5
a35
100
AcDbEntity
8
0-9
6
PHANTOM
62
4
100
AcDbLine
10
759.884654067503
20
324.575318876201
30
0.0
11
759.884654067503
21
297.357176838474
31
0.0
0
LINE
5
a36
100
AcDbEntity
8
0-8
6
CONTINUOUS
62
4
100
AcDbLine
10
771.884654067503
20
287.875318876200
30
0.0
11
759.884654067503
21
287.875318876200
31
0.0
0
LINE
5
a37
100
AcDbEntity
8
0-8
6
CONTINUOUS
62
4
100
AcDbLine
10
760.634654067503
20
208.875318876201
30
0.0
11
760.634654067503
21
246.675318876201
31
0.0
0
LINE
5
a38
100
AcDbEntity
8
0-8
6
CONTINUOUS
62
4
100
AcDbLine
10
771.134654067503
20
208.875318876201
30
0.0
11
771.134654067503
21
246.675318876201
31
0.0
0
LINE
5
a39
100
AcDbEntity
8
0-8
6
CONTINUOUS
62
4
100
AcDbLine
10
771.134654067503
20
273.875318876201
30
0.0
11
771.134654067503
21
288.625318876200
31
0.0
0
LINE
5
a3a
100
AcDbEntity
8
0-8
6
CONTINUOUS
62
4
100
AcDbLine
10
760.634654067503
20
273.875318876201
30
0.0
11
760.634654067503
21
288.625318876200
31
0.0
0
LINE
5
a3b
100
AcDbEntity
8
0-9
6
PHANTOM
62
4
100
AcDbLine
10
754.914998952900
20
240.541681486420
30
0.0
11
757.884654067502
21
239.775318876201
31
0.0
0
LINE
5
a3c
100
AcDbEntity
8
0-9
6
PHANTOM
62
4
100
AcDbLine
10
777.884654067502
20
239.775318876201
30
0.0
11
777.884654067502
21
239.375318876200
31
0.0
0
LINE
5
a3d
100
AcDbEntity
8
0-9
6
PHANTOM
62
4
100
AcDbLine
10
773.884654067504
20
239.775318876201
30
0.0
11
776.854309182106
21
240.541681486420
31
0.0
0
LINE
5
a3e
100
AcDbEntity
8
0-9
6
PHANTOM
62
4
100
AcDbLine
10
753.884654067504
20
239.775318876201
30
0.0
11
753.884654067504
21
239.375318876200
31
0.0
0
LINE
5
a3f
100
AcDbEntity
8
0-9
6
PHANTOM
62
4
100
AcDbLine
10
745.884654067503
20
236.375318876200
30
0.0
11
745.884654067503
21
231.375318876200
31
0.0
0
LINE
5
a40
100
AcDbEntity
8
0-9
6
PHANTOM
62
4
100
AcDbLine
10
785.884654067503
20
231.375318876200
30
0.0
11
785.884654067503
21
236.375318876200
31
0.0
0
LINE
5
a41
100
AcDbEntity
8
0-9
6
PHANTOM
62
4
100
AcDbLine
10
785.284654067502
20
231.375318876200
30
0.0
11
785.284654067502
21
228.875318876200
31
0.0
0
LINE
5
a42
100
AcDbEntity
8
0-9
6
PHANTOM
62
4
100
AcDbLine
10
746.484654067503
20
228.875318876200
30
0.0
11
746.484654067503
21
231.375318876200
31
0.0
0
POLYLINE
5
a43
100
AcDbEntity
8
0-9
6
PHANTOM
62
  4
100
AcDb2dPolyline
66
1
10
0.0
20
0.0
30
0.0
70
0
0
VERTEX
5
a44
100
AcDbEntity
8
0-9
6
PHANTOM
62
  4
100
AcDbVertex
100
AcDb2dVertex
10
747.884654067502
20
228.875318876200
30
0.0
0
VERTEX
5
a45
100
AcDbEntity
8
0-9
6
PHANTOM
62
  4
100
AcDbVertex
100
AcDb2dVertex
10
747.884654067502
20
225.875318876201
30
0.0
0
VERTEX
5
a46
100
AcDbEntity
8
0-9
6
PHANTOM
62
  4
100
AcDbVertex
100
AcDb2dVertex
10
783.884654067504
20
225.875318876201
30
0.0
0
VERTEX
5
a47
100
AcDbEntity
8
0-9
6
PHANTOM
62
  4
100
AcDbVertex
100
AcDb2dVertex
10
783.884654067504
20
228.875318876200
30
0.0
0
SEQEND
5
a48
100
AcDbEntity
8
0-9
0
ARC
5
a49
100
AcDbEntity
8
0-9
6
PHANTOM
62
4
100
AcDbCircle
10
748.884654067504
20
236.375318876200
30
0.0
40
3.000000000000
100
AcDbArc
50
89.999999999999
51
180.000000000000
0
ARC
5
a4a
100
AcDbEntity
8
0-9
6
PHANTOM
62
4
100
AcDbCircle
10
782.884654067502
20
236.375318876200
30
0.0
40
3.000000000000
100
AcDbArc
50
360.000000000000
51
450.000000000001
0
LINE
5
a4b
100
AcDbEntity
8
0-9
6
PHANTOM
62
4
100
AcDbLine
10
753.884654067504
20
239.775318876201
30
0.0
11
757.884654067502
21
239.775318876201
31
0.0
0
LINE
5
a4c
100
AcDbEntity
8
0-9
6
PHANTOM
62
4
100
AcDbLine
10
773.884654067504
20
239.775318876201
30
0.0
11
777.884654067502
21
239.775318876201
31
0.0
0
LINE
5
a4d
100
AcDbEntity
8
0-9
6
PHANTOM
62
4
100
AcDbLine
10
748.884654067754
20
239.375318876200
30
0.0
11
753.884654067504
21
239.375318876200
31
0.0
0
LINE
5
a4e
100
AcDbEntity
8
0-9
6
PHANTOM
62
4
100
AcDbLine
10
777.884654067502
20
239.375318876200
30
0.0
11
782.884654067502
21
239.375318876200
31
0.0
0
LINE
5
a4f
100
AcDbEntity
8
0-9
6
PHANTOM
62
4
100
AcDbLine
10
745.884654067503
20
231.375318876200
30
0.0
11
746.484654067503
21
231.375318876200
31
0.0
0
LINE
5
a50
100
AcDbEntity
8
0-9
6
PHANTOM
62
4
100
AcDbLine
10
785.284654067502
20
231.375318876200
30
0.0
11
785.884654067503
21
231.375318876200
31
0.0
0
LINE
5
a51
100
AcDbEntity
8
0-9
6
PHANTOM
62
4
100
AcDbLine
10
785.284654067502
20
228.875318876200
30
0.0
11
783.884654067504
21
228.875318876200
31
0.0
0
LINE
5
a52
100
AcDbEntity
8
0-9
6
PHANTOM
62
4
100
AcDbLine
10
747.884654067502
20
228.875318876200
30
0.0
11
746.484654067503
21
228.875318876200
31
0.0
0
LINE
5
a53
100
AcDbEntity
8
0-9
6
PHANTOM
62
4
100
AcDbLine
10
776.854309182106
20
240.541681486420
30
0.0
11
776.854309182106
21
245.975318876201
31
0.0
0
LINE
5
a54
100
AcDbEntity
8
0-9
6
PHANTOM
62
4
100
AcDbLine
10
754.914998952900
20
245.975318876201
30
0.0
11
754.914998952900
21
240.541681486420
31
0.0
0
LINE
5
a55
100
AcDbEntity
8
0-2
6
PHANTOM
62
2
100
AcDbLine
10
387.106779549046
20
379.122093762216
30
0.0
11
220.068122068781
21
379.122093762216
31
0.0
0
LINE
5
a56
100
AcDbEntity
8
0-2
6
PHANTOM
62
2
100
AcDbLine
10
220.068122068781
20
543.058540255632
30
0.0
11
220.068122068781
21
379.122093762216
31
0.0
0
LINE
5
a57
100
AcDbEntity
8
0-2
6
PHANTOM
62
2
100
AcDbLine
10
245.068122068781
20
543.058540255632
30
0.0
11
245.068122068781
21
379.122093762216
31
0.0
0
LINE
5
a58
100
AcDbEntity
8
0-2
6
PHANTOM
62
2
100
AcDbLine
10
387.106779549046
20
404.122093762216
30
0.0
11
220.068122068781
21
404.122093762216
31
0.0
0
LINE
5
a59
100
AcDbEntity
8
0-2
6
PHANTOM
62
2
100
AcDbLine
10
387.106779549046
20
395.222093762216
30
0.0
11
245.068122068781
21
395.222093762216
31
0.0
0
LINE
5
a5a
100
AcDbEntity
8
0-2
6
PHANTOM
62
2
100
AcDbLine
10
387.106779549046
20
388.022093762216
30
0.0
11
245.068122068781
21
388.022093762216
31
0.0
0
LINE
5
a5b
100
AcDbEntity
8
0-2
6
PHANTOM
62
2
100
AcDbLine
10
228.968122068781
20
546.160751242481
30
0.0
11
228.968122068781
21
404.122093762216
31
0.0
0
LINE
5
a5c
100
AcDbEntity
8
0-2
6
PHANTOM
62
2
100
AcDbLine
10
236.168122068781
20
546.160751242481
30
0.0
11
236.168122068781
21
404.122093762216
31
0.0
0
LINE
5
a5d
100
AcDbEntity
8
0-2
6
PHANTOM
62
2
100
AcDbLine
10
245.068122068781
20
330.540636718452
30
0.0
11
245.068122068781
21
272.881098396737
31
0.0
0
LINE
5
a5e
100
AcDbEntity
8
0-2
6
PHANTOM
62
2
100
AcDbLine
10
228.968122068781
20
330.540636718452
30
0.0
11
228.968122068781
21
272.881098396737
31
0.0
0
LINE
5
a5f
100
AcDbEntity
8
0-2
6
PHANTOM
62
2
100
AcDbLine
10
236.168122068781
20
330.540636718452
30
0.0
11
236.168122068781
21
272.881098396737
31
0.0
0
LINE
5
a60
100
AcDbEntity
8
0-2
6
PHANTOM
62
2
100
AcDbLine
10
383.356514030088
20
272.881098396737
30
0.0
11
220.068122068781
21
272.881098396737
31
0.0
0
LINE
5
a61
100
AcDbEntity
8
0-2
6
PHANTOM
62
2
100
AcDbLine
10
220.068122068781
20
330.540636718452
30
0.0
11
220.068122068781
21
272.881098396737
31
0.0
0
LINE
5
a62
100
AcDbEntity
8
0-2
6
PHANTOM
62
2
100
AcDbLine
10
383.356514030088
20
297.881098396737
30
0.0
11
245.068122068781
21
297.881098396737
31
0.0
0
LINE
5
a63
100
AcDbEntity
8
0-2
6
PHANTOM
62
2
100
AcDbLine
10
383.356514030088
20
288.981098396737
30
0.0
11
245.068122068781
21
288.981098396737
31
0.0
0
LINE
5
a64
100
AcDbEntity
8
0-2
6
PHANTOM
62
2
100
AcDbLine
10
383.356514030088
20
281.781098396737
30
0.0
11
245.068122068781
21
281.781098396737
31
0.0
0
LINE
5
a65
100
AcDbEntity
8
0-2
6
PHANTOM
62
2
100
AcDbLine
10
146.361370690782
20
330.540636718452
30
0.0
11
146.361370690782
21
272.881098396737
31
0.0
0
LINE
5
a66
100
AcDbEntity
8
0-2
6
PHANTOM
62
2
100
AcDbLine
10
162.461370690782
20
330.540636718452
30
0.0
11
162.461370690782
21
272.881098396737
31
0.0
0
LINE
5
a67
100
AcDbEntity
8
0-2
6
PHANTOM
62
2
100
AcDbLine
10
155.261370690782
20
330.540636718452
30
0.0
11
155.261370690782
21
272.881098396737
31
0.0
0
LINE
5
a68
100
AcDbEntity
8
0-2
6
PHANTOM
62
2
100
AcDbLine
10
8.072978729475
20
272.881098396737
30
0.0
11
171.361370690782
21
272.881098396737
31
0.0
0
LINE
5
a69
100
AcDbEntity
8
0-2
6
PHANTOM
62
2
100
AcDbLine
10
171.361370690782
20
330.540636718452
30
0.0
11
171.361370690782
21
272.881098396737
31
0.0
0
LINE
5
a6a
100
AcDbEntity
8
0-2
6
PHANTOM
62
2
100
AcDbLine
10
8.072978729475
20
297.881098396737
30
0.0
11
146.361370690782
21
297.881098396737
31
0.0
0
LINE
5
a6b
100
AcDbEntity
8
0-2
6
PHANTOM
62
2
100
AcDbLine
10
8.072978729475
20
288.981098396737
30
0.0
11
146.361370690782
21
288.981098396737
31
0.0
0
LINE
5
a6c
100
AcDbEntity
8
0-2
6
PHANTOM
62
2
100
AcDbLine
10
8.072978729475
20
281.781098396737
30
0.0
11
146.361370690782
21
281.781098396737
31
0.0
0
LINE
5
a6d
100
AcDbEntity
8
0-2
6
CONTINUOUS
62
7
100
AcDbLine
10
235.803173068782
20
277.542498396737
30
0.0
11
234.929509068781
21
277.860488396737
31
0.0
0
LINE
5
a6e
100
AcDbEntity
8
0-2
6
CONTINUOUS
62
7
100
AcDbLine
10
234.245469068781
20
277.981098396737
30
0.0
11
231.050776068781
21
277.981098396737
31
0.0
0
LINE
5
a6f
100
AcDbEntity
8
0-2
6
CONTINUOUS
62
7
100
AcDbLine
10
230.366736068781
20
277.860488396737
30
0.0
11
229.493072068782
21
277.542498396737
31
0.0
0
ARC
5
a70
100
AcDbEntity
8
0-2
6
CONTINUOUS
62
7
100
AcDbCircle
10
234.245469068781
20
275.981098396737
30
0.0
40
2.000000000000
100
AcDbArc
50
70.000000000000
51
90.000000000000
0
ARC
5
a71
100
AcDbEntity
8
0-2
6
CONTINUOUS
62
7
100
AcDbCircle
10
231.050776068781
20
275.981098396737
30
0.0
40
2.000000000000
100
AcDbArc
50
90.000000000000
51
110.000000000000
0
ARC
5
a72
100
AcDbEntity
8
0-2
6
CONTINUOUS
62
7
100
AcDbCircle
10
234.948122068782
20
275.193268396737
30
0.0
40
2.500000000000
100
AcDbArc
50
348.178227994578
51
430.000000000000
0
LINE
5
a73
100
AcDbEntity
8
0-2
6
CONTINUOUS
62
7
100
AcDbLine
10
236.219659975574
20
274.681098396737
30
0.0
11
237.395096096249
21
274.681098396737
31
0.0
0
ARC
5
a74
100
AcDbEntity
8
0-2
6
CONTINUOUS
62
7
100
AcDbCircle
10
230.348122068782
20
275.193268396737
30
0.0
40
2.500000000000
100
AcDbArc
50
110.000000000000
51
191.821772005421
0
LINE
5
a75
100
AcDbEntity
8
0-2
6
CONTINUOUS
62
7
100
AcDbLine
10
227.901148041314
20
274.681098396737
30
0.0
11
229.076585161989
21
274.681098396737
31
0.0
0
LINE
5
a76
100
AcDbEntity
8
0-2
6
CONTINUOUS
62
7
100
AcDbLine
10
229.398120975574
20
273.481098396737
30
0.0
11
229.076585161989
21
274.681098396737
31
0.0
0
LINE
5
a77
100
AcDbEntity
8
0-2
6
CONTINUOUS
62
7
100
AcDbLine
10
236.219659975574
20
274.681098396737
30
0.0
11
235.898124161989
21
273.481098396737
31
0.0
0
LINE
5
a78
100
AcDbEntity
8
0-2
6
CONTINUOUS
62
7
100
AcDbLine
10
229.398120975574
20
273.481098396737
30
0.0
11
235.898124161989
21
273.481098396737
31
0.0
0
CIRCLE
5
a79
100
AcDbEntity
8
0-2
6
CONTINUOUS
62
2
100
AcDbCircle
10
288.773122068781
20
391.702093762216
30
0.0
40
4.250000000000
0
CIRCLE
5
a7a
100
AcDbEntity
8
0-2
6
CONTINUOUS
62
2
100
AcDbCircle
10
288.773122068781
20
391.702093762216
30
0.0
40
2.500000000000
0
LINE
5
a7b
100
AcDbEntity
8
F-F_J_ADD
6
HIDDEN
62
253
100
AcDbLine
10
232.648122068781
20
272.071098394353
30
0.0
11
233.355228849949
21
272.778205175520
31
0.0
0
LINE
5
a7c
100
AcDbEntity
8
F-F_J_ADD
6
HIDDEN
62
253
100
AcDbLine
10
231.941015287576
20
272.778205175520
30
0.0
11
232.648122068762
21
272.071098394334
31
0.0
0
LINE
5
a7d
100
AcDbEntity
8
0-2
6
CONTINUOUS
62
4
100
AcDbLine
10
231.433836337466
20
263.571098155934
30
0.0
11
231.433836337466
21
268.071098394353
31
0.0
0
LINE
5
a7e
100
AcDbEntity
8
0-2
6
CONTINUOUS
62
4
100
AcDbLine
10
230.826693531413
20
263.571098155934
30
0.0
11
230.826693531413
21
268.071098394353
31
0.0
0
LINE
5
a7f
100
AcDbEntity
8
0-2
6
CONTINUOUS
62
4
100
AcDbLine
10
229.612407680888
20
263.571098155934
30
0.0
11
229.612407680888
21
268.071098394353
31
0.0
0
LINE
5
a80
100
AcDbEntity
8
0-2
6
CONTINUOUS
62
4
100
AcDbLine
10
229.005264994044
20
263.571098155934
30
0.0
11
229.005264994044
21
268.071098394353
31
0.0
0
LINE
5
a81
100
AcDbEntity
8
0-2
6
CONTINUOUS
62
4
100
AcDbLine
10
230.219550606150
20
263.571098155934
30
0.0
11
230.219550606150
21
268.071098394353
31
0.0
0
LINE
5
a82
100
AcDbEntity
8
0-2
6
CONTINUOUS
62
2
100
AcDbLine
10
236.898122068781
20
263.571098155934
30
0.0
11
236.398122068781
21
263.071098155934
31
0.0
0
LINE
5
a83
100
AcDbEntity
8
0-2
6
CONTINUOUS
62
2
100
AcDbLine
10
228.898122068781
20
263.071098155934
30
0.0
11
236.398122068781
21
263.071098155934
31
0.0
0
LINE
5
a84
100
AcDbEntity
8
0-2
6
CONTINUOUS
62
2
100
AcDbLine
10
228.898122068781
20
263.071098155934
30
0.0
11
228.398122068781
21
263.571098155934
31
0.0
0
POLYLINE
5
a85
100
AcDbEntity
8
0-2
6
CONTINUOUS
62
  2
100
AcDb2dPolyline
66
1
10
0.0
20
0.0
30
0.0
70
0
0
VERTEX
5
a86
100
AcDbEntity
8
0-2
6
CONTINUOUS
62
  2
100
AcDbVertex
100
AcDb2dVertex
10
236.898122068781
20
263.571098155934
30
0.0
0
VERTEX
5
a87
100
AcDbEntity
8
0-2
6
CONTINUOUS
62
  2
100
AcDbVertex
100
AcDb2dVertex
10
228.398122068781
20
263.571098155934
30
0.0
0
VERTEX
5
a88
100
AcDbEntity
8
0-2
6
CONTINUOUS
62
  2
100
AcDbVertex
100
AcDb2dVertex
10
228.398122068781
20
268.071098394353
30
0.0
0
SEQEND
5
a89
100
AcDbEntity
8
0-2
0
LINE
5
a8a
100
AcDbEntity
8
0-2
6
CONTINUOUS
62
2
100
AcDbLine
10
236.898122068781
20
268.071098394353
30
0.0
11
228.398122068781
21
268.071098394353
31
0.0
0
LINE
5
a8b
100
AcDbEntity
8
0-2
6
CONTINUOUS
62
2
100
AcDbLine
10
236.898122068781
20
263.571098155934
30
0.0
11
236.898122068781
21
268.071098394353
31
0.0
0
LINE
5
a8c
100
AcDbEntity
8
0-2
6
CONTINUOUS
62
2
100
AcDbLine
10
230.498121973414
20
278.071098394353
30
0.0
11
234.798122164149
21
278.071098394353
31
0.0
0
LINE
5
a8d
100
AcDbEntity
8
0-2
6
CONTINUOUS
62
2
100
AcDbLine
10
235.148122068781
20
277.721098012883
30
0.0
11
234.798122164149
21
278.071098394353
31
0.0
0
LINE
5
a8e
100
AcDbEntity
8
0-2
6
CONTINUOUS
62
2
100
AcDbLine
10
230.498121973414
20
278.071098394353
30
0.0
11
230.148122068781
21
277.721098012883
31
0.0
0
LINE
5
a8f
100
AcDbEntity
8
0-2
6
CONTINUOUS
62
2
100
AcDbLine
10
235.148122068781
20
277.721098012883
30
0.0
11
230.148122068781
21
277.721098012883
31
0.0
0
LINE
5
a90
100
AcDbEntity
8
0-2
6
CONTINUOUS
62
2
100
AcDbLine
10
238.578121897120
20
268.071098394353
30
0.0
11
238.578121897120
21
268.881098396737
31
0.0
0
POLYLINE
5
a91
100
AcDbEntity
8
0-2
6
CONTINUOUS
62
  2
100
AcDb2dPolyline
66
1
10
0.0
20
0.0
30
0.0
70
0
0
VERTEX
5
a92
100
AcDbEntity
8
0-2
6
CONTINUOUS
62
  2
100
AcDbVertex
100
AcDb2dVertex
10
238.578121897120
20
268.071098394353
30
0.0
0
VERTEX
5
a93
100
AcDbEntity
8
0-2
6
CONTINUOUS
62
  2
100
AcDbVertex
100
AcDb2dVertex
10
226.718122240443
20
268.071098394353
30
0.0
0
VERTEX
5
a94
100
AcDbEntity
8
0-2
6
CONTINUOUS
62
  2
100
AcDbVertex
100
AcDb2dVertex
10
226.718122240443
20
268.881098396737
30
0.0
0
SEQEND
5
a95
100
AcDbEntity
8
0-2
0
LINE
5
a96
100
AcDbEntity
8
0-2
6
CONTINUOUS
62
4
100
AcDbLine
10
234.798122164149
20
268.071098394353
30
0.0
11
234.798122164149
21
278.071098394353
31
0.0
0
LINE
5
a97
100
AcDbEntity
8
0-2
6
CONTINUOUS
62
4
100
AcDbLine
10
230.498121973414
20
268.071098394353
30
0.0
11
230.498121973414
21
278.071098394353
31
0.0
0
LINE
5
a98
100
AcDbEntity
8
0-2
6
CONTINUOUS
62
2
100
AcDbLine
10
235.148122068781
20
277.721098012883
30
0.0
11
235.148122068781
21
268.071098394353
31
0.0
0
LINE
5
a99
100
AcDbEntity
8
0-2
6
CONTINUOUS
62
2
100
AcDbLine
10
230.148122068781
20
277.721098012883
30
0.0
11
230.148122068781
21
268.071098394353
31
0.0
0
LINE
5
a9a
100
AcDbEntity
8
F-F_J_ADD
6
HIDDEN
62
253
100
AcDbLine
10
288.148122068781
20
272.071098394353
30
0.0
11
288.855228849949
21
272.778205175520
31
0.0
0
LINE
5
a9b
100
AcDbEntity
8
F-F_J_ADD
6
HIDDEN
62
253
100
AcDbLine
10
287.441015287575
20
272.778205175520
30
0.0
11
288.148122068762
21
272.071098394334
31
0.0
0
LINE
5
a9c
100
AcDbEntity
8
0-2
6
CONTINUOUS
62
4
100
AcDbLine
10
286.933836337465
20
263.571098155934
30
0.0
11
286.933836337465
21
268.071098394353
31
0.0
0
LINE
5
a9d
100
AcDbEntity
8
0-2
6
CONTINUOUS
62
4
100
AcDbLine
10
286.326693531412
20
263.571098155934
30
0.0
11
286.326693531412
21
268.071098394353
31
0.0
0
LINE
5
a9e
100
AcDbEntity
8
0-2
6
CONTINUOUS
62
4
100
AcDbLine
10
285.112407680887
20
263.571098155934
30
0.0
11
285.112407680887
21
268.071098394353
31
0.0
0
LINE
5
a9f
100
AcDbEntity
8
0-2
6
CONTINUOUS
62
4
100
AcDbLine
10
284.505264994043
20
263.571098155934
30
0.0
11
284.505264994043
21
268.071098394353
31
0.0
0
LINE
5
aa0
100
AcDbEntity
8
0-2
6
CONTINUOUS
62
4
100
AcDbLine
10
285.719550606150
20
263.571098155934
30
0.0
11
285.719550606150
21
268.071098394353
31
0.0
0
LINE
5
aa1
100
AcDbEntity
8
0-2
6
CONTINUOUS
62
2
100
AcDbLine
10
292.398122068781
20
263.571098155934
30
0.0
11
291.898122068781
21
263.071098155934
31
0.0
0
LINE
5
aa2
100
AcDbEntity
8
0-2
6
CONTINUOUS
62
2
100
AcDbLine
10
284.398122068781
20
263.071098155934
30
0.0
11
291.898122068781
21
263.071098155934
31
0.0
0
LINE
5
aa3
100
AcDbEntity
8
0-2
6
CONTINUOUS
62
2
100
AcDbLine
10
284.398122068781
20
263.071098155934
30
0.0
11
283.898122068781
21
263.571098155934
31
0.0
0
POLYLINE
5
aa4
100
AcDbEntity
8
0-2
6
CONTINUOUS
62
  2
100
AcDb2dPolyline
66
1
10
0.0
20
0.0
30
0.0
70
0
0
VERTEX
5
aa5
100
AcDbEntity
8
0-2
6
CONTINUOUS
62
  2
100
AcDbVertex
100
AcDb2dVertex
10
292.398122068781
20
263.571098155934
30
0.0
0
VERTEX
5
aa6
100
AcDbEntity
8
0-2
6
CONTINUOUS
62
  2
100
AcDbVertex
100
AcDb2dVertex
10
283.898122068781
20
263.571098155934
30
0.0
0
VERTEX
5
aa7
100
AcDbEntity
8
0-2
6
CONTINUOUS
62
  2
100
AcDbVertex
100
AcDb2dVertex
10
283.898122068781
20
268.071098394353
30
0.0
0
SEQEND
5
aa8
100
AcDbEntity
8
0-2
0
LINE
5
aa9
100
AcDbEntity
8
0-2
6
CONTINUOUS
62
2
100
AcDbLine
10
292.398122068781
20
268.071098394353
30
0.0
11
283.898122068781
21
268.071098394353
31
0.0
0
LINE
5
aaa
100
AcDbEntity
8
0-2
6
CONTINUOUS
62
2
100
AcDbLine
10
292.398122068781
20
263.571098155934
30
0.0
11
292.398122068781
21
268.071098394353
31
0.0
0
LINE
5
aab
100
AcDbEntity
8
0-2
6
CONTINUOUS
62
2
100
AcDbLine
10
285.998121973414
20
278.071098394353
30
0.0
11
290.298122164148
21
278.071098394353
31
0.0
0
LINE
5
aac
100
AcDbEntity
8
0-2
6
CONTINUOUS
62
2
100
AcDbLine
10
290.648122068781
20
277.721098012883
30
0.0
11
290.298122164148
21
278.071098394353
31
0.0
0
LINE
5
aad
100
AcDbEntity
8
0-2
6
CONTINUOUS
62
2
100
AcDbLine
10
285.998121973414
20
278.071098394353
30
0.0
11
285.648122068781
21
277.721098012883
31
0.0
0
LINE
5
aae
100
AcDbEntity
8
0-2
6
CONTINUOUS
62
2
100
AcDbLine
10
290.648122068781
20
277.721098012883
30
0.0
11
285.648122068781
21
277.721098012883
31
0.0
0
LINE
5
aaf
100
AcDbEntity
8
0-2
6
CONTINUOUS
62
2
100
AcDbLine
10
294.078121897120
20
268.071098394353
30
0.0
11
294.078121897120
21
268.881098396737
31
0.0
0
POLYLINE
5
ab0
100
AcDbEntity
8
0-2
6
CONTINUOUS
62
  2
100
AcDb2dPolyline
66
1
10
0.0
20
0.0
30
0.0
70
0
0
VERTEX
5
ab1
100
AcDbEntity
8
0-2
6
CONTINUOUS
62
  2
100
AcDbVertex
100
AcDb2dVertex
10
294.078121897120
20
268.071098394353
30
0.0
0
VERTEX
5
ab2
100
AcDbEntity
8
0-2
6
CONTINUOUS
62
  2
100
AcDbVertex
100
AcDb2dVertex
10
282.218122240442
20
268.071098394353
30
0.0
0
VERTEX
5
ab3
100
AcDbEntity
8
0-2
6
CONTINUOUS
62
  2
100
AcDbVertex
100
AcDb2dVertex
10
282.218122240442
20
268.881098396737
30
0.0
0
SEQEND
5
ab4
100
AcDbEntity
8
0-2
0
LINE
5
ab5
100
AcDbEntity
8
0-2
6
CONTINUOUS
62
4
100
AcDbLine
10
290.298122164148
20
268.071098394353
30
0.0
11
290.298122164148
21
278.071098394353
31
0.0
0
LINE
5
ab6
100
AcDbEntity
8
0-2
6
CONTINUOUS
62
4
100
AcDbLine
10
285.998121973414
20
268.071098394353
30
0.0
11
285.998121973414
21
278.071098394353
31
0.0
0
LINE
5
ab7
100
AcDbEntity
8
0-2
6
CONTINUOUS
62
2
100
AcDbLine
10
290.648122068781
20
277.721098012883
30
0.0
11
290.648122068781
21
268.071098394353
31
0.0
0
LINE
5
ab8
100
AcDbEntity
8
0-2
6
CONTINUOUS
62
2
100
AcDbLine
10
285.648122068781
20
277.721098012883
30
0.0
11
285.648122068781
21
268.071098394353
31
0.0
0
LINE
5
ab9
100
AcDbEntity
8
0-2
6
CONTINUOUS
62
7
100
AcDbLine
10
283.148122068781
20
273.481098396737
30
0.0
11
293.148122068781
21
273.481098396737
31
0.0
0
LINE
5
aba
100
AcDbEntity
8
0-2
6
CONTINUOUS
62
7
100
AcDbLine
10
283.148122068781
20
274.681098396737
30
0.0
11
293.148122068781
21
274.681098396737
31
0.0
0
LINE
5
abb
100
AcDbEntity
8
0-2
6
CONTINUOUS
62
7
100
AcDbLine
10
283.148122068781
20
277.981098396737
30
0.0
11
283.148122068781
21
273.481098396737
31
0.0
0
LINE
5
abc
100
AcDbEntity
8
0-2
6
CONTINUOUS
62
7
100
AcDbLine
10
293.148122068781
20
277.981098396737
30
0.0
11
283.148122068781
21
277.981098396737
31
0.0
0
LINE
5
abd
100
AcDbEntity
8
0-2
6
CONTINUOUS
62
7
100
AcDbLine
10
293.148122068781
20
277.981098396737
30
0.0
11
293.148122068781
21
273.481098396737
31
0.0
0
LINE
5
abe
100
AcDbEntity
8
F-F_J_ADD
6
HIDDEN
62
253
100
AcDbLine
10
323.148122068781
20
272.071098394353
30
0.0
11
323.855228849949
21
272.778205175520
31
0.0
0
LINE
5
abf
100
AcDbEntity
8
F-F_J_ADD
6
HIDDEN
62
253
100
AcDbLine
10
322.441015287575
20
272.778205175520
30
0.0
11
323.148122068762
21
272.071098394334
31
0.0
0
LINE
5
ac0
100
AcDbEntity
8
0-2
6
CONTINUOUS
62
4
100
AcDbLine
10
321.933836337465
20
263.571098155934
30
0.0
11
321.933836337465
21
268.071098394353
31
0.0
0
LINE
5
ac1
100
AcDbEntity
8
0-2
6
CONTINUOUS
62
4
100
AcDbLine
10
321.326693531412
20
263.571098155934
30
0.0
11
321.326693531412
21
268.071098394353
31
0.0
0
LINE
5
ac2
100
AcDbEntity
8
0-2
6
CONTINUOUS
62
4
100
AcDbLine
10
320.112407680887
20
263.571098155934
30
0.0
11
320.112407680887
21
268.071098394353
31
0.0
0
LINE
5
ac3
100
AcDbEntity
8
0-2
6
CONTINUOUS
62
4
100
AcDbLine
10
319.505264994043
20
263.571098155934
30
0.0
11
319.505264994043
21
268.071098394353
31
0.0
0
LINE
5
ac4
100
AcDbEntity
8
0-2
6
CONTINUOUS
62
4
100
AcDbLine
10
320.719550606150
20
263.571098155934
30
0.0
11
320.719550606150
21
268.071098394353
31
0.0
0
LINE
5
ac5
100
AcDbEntity
8
0-2
6
CONTINUOUS
62
2
100
AcDbLine
10
327.398122068781
20
263.571098155934
30
0.0
11
326.898122068781
21
263.071098155934
31
0.0
0
LINE
5
ac6
100
AcDbEntity
8
0-2
6
CONTINUOUS
62
2
100
AcDbLine
10
319.398122068781
20
263.071098155934
30
0.0
11
326.898122068781
21
263.071098155934
31
0.0
0
LINE
5
ac7
100
AcDbEntity
8
0-2
6
CONTINUOUS
62
2
100
AcDbLine
10
319.398122068781
20
263.071098155934
30
0.0
11
318.898122068781
21
263.571098155934
31
0.0
0
POLYLINE
5
ac8
100
AcDbEntity
8
0-2
6
CONTINUOUS
62
  2
100
AcDb2dPolyline
66
1
10
0.0
20
0.0
30
0.0
70
0
0
VERTEX
5
ac9
100
AcDbEntity
8
0-2
6
CONTINUOUS
62
  2
100
AcDbVertex
100
AcDb2dVertex
10
327.398122068781
20
263.571098155934
30
0.0
0
VERTEX
5
aca
100
AcDbEntity
8
0-2
6
CONTINUOUS
62
  2
100
AcDbVertex
100
AcDb2dVertex
10
318.898122068781
20
263.571098155934
30
0.0
0
VERTEX
5
acb
100
AcDbEntity
8
0-2
6
CONTINUOUS
62
  2
100
AcDbVertex
100
AcDb2dVertex
10
318.898122068781
20
268.071098394353
30
0.0
0
SEQEND
5
acc
100
AcDbEntity
8
0-2
0
LINE
5
acd
100
AcDbEntity
8
0-2
6
CONTINUOUS
62
2
100
AcDbLine
10
327.398122068781
20
268.071098394353
30
0.0
11
318.898122068781
21
268.071098394353
31
0.0
0
LINE
5
ace
100
AcDbEntity
8
0-2
6
CONTINUOUS
62
2
100
AcDbLine
10
327.398122068781
20
263.571098155934
30
0.0
11
327.398122068781
21
268.071098394353
31
0.0
0
LINE
5
acf
100
AcDbEntity
8
0-2
6
CONTINUOUS
62
2
100
AcDbLine
10
320.998121973414
20
278.071098394353
30
0.0
11
325.298122164148
21
278.071098394353
31
0.0
0
LINE
5
ad0
100
AcDbEntity
8
0-2
6
CONTINUOUS
62
2
100
AcDbLine
10
325.648122068781
20
277.721098012883
30
0.0
11
325.298122164148
21
278.071098394353
31
0.0
0
LINE
5
ad1
100
AcDbEntity
8
0-2
6
CONTINUOUS
62
2
100
AcDbLine
10
320.998121973414
20
278.071098394353
30
0.0
11
320.648122068781
21
277.721098012883
31
0.0
0
LINE
5
ad2
100
AcDbEntity
8
0-2
6
CONTINUOUS
62
2
100
AcDbLine
10
325.648122068781
20
277.721098012883
30
0.0
11
320.648122068781
21
277.721098012883
31
0.0
0
LINE
5
ad3
100
AcDbEntity
8
0-2
6
CONTINUOUS
62
2
100
AcDbLine
10
329.078121897120
20
268.071098394353
30
0.0
11
329.078121897120
21
268.881098396737
31
0.0
0
POLYLINE
5
ad4
100
AcDbEntity
8
0-2
6
CONTINUOUS
62
  2
100
AcDb2dPolyline
66
1
10
0.0
20
0.0
30
0.0
70
0
0
VERTEX
5
ad5
100
AcDbEntity
8
0-2
6
CONTINUOUS
62
  2
100
AcDbVertex
100
AcDb2dVertex
10
329.078121897120
20
268.071098394353
30
0.0
0
VERTEX
5
ad6
100
AcDbEntity
8
0-2
6
CONTINUOUS
62
  2
100
AcDbVertex
100
AcDb2dVertex
10
317.218122240442
20
268.071098394353
30
0.0
0
VERTEX
5
ad7
100
AcDbEntity
8
0-2
6
CONTINUOUS
62
  2
100
AcDbVertex
100
AcDb2dVertex
10
317.218122240442
20
268.881098396737
30
0.0
0
SEQEND
5
ad8
100
AcDbEntity
8
0-2
0
LINE
5
ad9
100
AcDbEntity
8
0-2
6
CONTINUOUS
62
4
100
AcDbLine
10
325.298122164148
20
268.071098394353
30
0.0
11
325.298122164148
21
278.071098394353
31
0.0
0
LINE
5
ada
100
AcDbEntity
8
0-2
6
CONTINUOUS
62
4
100
AcDbLine
10
320.998121973414
20
268.071098394353
30
0.0
11
320.998121973414
21
278.071098394353
31
0.0
0
LINE
5
adb
100
AcDbEntity
8
0-2
6
CONTINUOUS
62
2
100
AcDbLine
10
325.648122068781
20
277.721098012883
30
0.0
11
325.648122068781
21
268.071098394353
31
0.0
0
LINE
5
adc
100
AcDbEntity
8
0-2
6
CONTINUOUS
62
2
100
AcDbLine
10
320.648122068781
20
277.721098012883
30
0.0
11
320.648122068781
21
268.071098394353
31
0.0
0
LINE
5
add
100
AcDbEntity
8
0-2
6
CONTINUOUS
62
7
100
AcDbLine
10
318.148122068781
20
273.481098396737
30
0.0
11
328.148122068781
21
273.481098396737
31
0.0
0
LINE
5
ade
100
AcDbEntity
8
0-2
6
CONTINUOUS
62
7
100
AcDbLine
10
318.148122068781
20
274.681098396737
30
0.0
11
328.148122068781
21
274.681098396737
31
0.0
0
LINE
5
adf
100
AcDbEntity
8
0-2
6
CONTINUOUS
62
7
100
AcDbLine
10
318.148122068781
20
277.981098396737
30
0.0
11
318.148122068781
21
273.481098396737
31
0.0
0
LINE
5
ae0
100
AcDbEntity
8
0-2
6
CONTINUOUS
62
7
100
AcDbLine
10
328.148122068781
20
277.981098396737
30
0.0
11
318.148122068781
21
277.981098396737
31
0.0
0
LINE
5
ae1
100
AcDbEntity
8
0-2
6
CONTINUOUS
62
7
100
AcDbLine
10
328.148122068781
20
277.981098396737
30
0.0
11
328.148122068781
21
273.481098396737
31
0.0
0
LINE
5
ae2
100
AcDbEntity
8
F-F_J_ADD
6
HIDDEN
62
253
100
AcDbLine
10
103.441370688782
20
272.071098394353
30
0.0
11
104.148477469949
21
272.778205175520
31
0.0
0
LINE
5
ae3
100
AcDbEntity
8
F-F_J_ADD
6
HIDDEN
62
253
100
AcDbLine
10
102.734263907576
20
272.778205175520
30
0.0
11
103.441370688763
21
272.071098394334
31
0.0
0
LINE
5
ae4
100
AcDbEntity
8
0-2
6
CONTINUOUS
62
4
100
AcDbLine
10
102.227084957466
20
263.571098155934
30
0.0
11
102.227084957466
21
268.071098394353
31
0.0
0
LINE
5
ae5
100
AcDbEntity
8
0-2
6
CONTINUOUS
62
4
100
AcDbLine
10
101.619942151413
20
263.571098155934
30
0.0
11
101.619942151413
21
268.071098394353
31
0.0
0
LINE
5
ae6
100
AcDbEntity
8
0-2
6
CONTINUOUS
62
4
100
AcDbLine
10
100.405656300888
20
263.571098155934
30
0.0
11
100.405656300888
21
268.071098394353
31
0.0
0
LINE
5
ae7
100
AcDbEntity
8
0-2
6
CONTINUOUS
62
4
100
AcDbLine
10
99.798513614044
20
263.571098155934
30
0.0
11
99.798513614044
21
268.071098394353
31
0.0
0
LINE
5
ae8
100
AcDbEntity
8
0-2
6
CONTINUOUS
62
4
100
AcDbLine
10
101.012799226150
20
263.571098155934
30
0.0
11
101.012799226150
21
268.071098394353
31
0.0
0
LINE
5
ae9
100
AcDbEntity
8
0-2
6
CONTINUOUS
62
2
100
AcDbLine
10
107.691370688782
20
263.571098155934
30
0.0
11
107.191370688782
21
263.071098155934
31
0.0
0
LINE
5
aea
100
AcDbEntity
8
0-2
6
CONTINUOUS
62
2
100
AcDbLine
10
99.691370688782
20
263.071098155934
30
0.0
11
107.191370688782
21
263.071098155934
31
0.0
0
LINE
5
aeb
100
AcDbEntity
8
0-2
6
CONTINUOUS
62
2
100
AcDbLine
10
99.691370688782
20
263.071098155934
30
0.0
11
99.191370688782
21
263.571098155934
31
0.0
0
POLYLINE
5
aec
100
AcDbEntity
8
0-2
6
CONTINUOUS
62
  2
100
AcDb2dPolyline
66
1
10
0.0
20
0.0
30
0.0
70
0
0
VERTEX
5
aed
100
AcDbEntity
8
0-2
6
CONTINUOUS
62
  2
100
AcDbVertex
100
AcDb2dVertex
10
107.691370688782
20
263.571098155934
30
0.0
0
VERTEX
5
aee
100
AcDbEntity
8
0-2
6
CONTINUOUS
62
  2
100
AcDbVertex
100
AcDb2dVertex
10
99.191370688782
20
263.571098155934
30
0.0
0
VERTEX
5
aef
100
AcDbEntity
8
0-2
6
CONTINUOUS
62
  2
100
AcDbVertex
100
AcDb2dVertex
10
99.191370688782
20
268.071098394353
30
0.0
0
SEQEND
5
af0
100
AcDbEntity
8
0-2
0
LINE
5
af1
100
AcDbEntity
8
0-2
6
CONTINUOUS
62
2
100
AcDbLine
10
107.691370688782
20
268.071098394353
30
0.0
11
99.191370688782
21
268.071098394353
31
0.0
0
LINE
5
af2
100
AcDbEntity
8
0-2
6
CONTINUOUS
62
2
100
AcDbLine
10
107.691370688782
20
263.571098155934
30
0.0
11
107.691370688782
21
268.071098394353
31
0.0
0
LINE
5
af3
100
AcDbEntity
8
0-2
6
CONTINUOUS
62
2
100
AcDbLine
10
101.291370593414
20
278.071098394353
30
0.0
11
105.591370784149
21
278.071098394353
31
0.0
0
LINE
5
af4
100
AcDbEntity
8
0-2
6
CONTINUOUS
62
2
100
AcDbLine
10
105.941370688782
20
277.721098012883
30
0.0
11
105.591370784149
21
278.071098394353
31
0.0
0
LINE
5
af5
100
AcDbEntity
8
0-2
6
CONTINUOUS
62
2
100
AcDbLine
10
101.291370593414
20
278.071098394353
30
0.0
11
100.941370688782
21
277.721098012883
31
0.0
0
LINE
5
af6
100
AcDbEntity
8
0-2
6
CONTINUOUS
62
2
100
AcDbLine
10
105.941370688782
20
277.721098012883
30
0.0
11
100.941370688782
21
277.721098012883
31
0.0
0
LINE
5
af7
100
AcDbEntity
8
0-2
6
CONTINUOUS
62
2
100
AcDbLine
10
109.371370517120
20
268.071098394353
30
0.0
11
109.371370517120
21
268.881098396737
31
0.0
0
POLYLINE
5
af8
100
AcDbEntity
8
0-2
6
CONTINUOUS
62
  2
100
AcDb2dPolyline
66
1
10
0.0
20
0.0
30
0.0
70
0
0
VERTEX
5
af9
100
AcDbEntity
8
0-2
6
CONTINUOUS
62
  2
100
AcDbVertex
100
AcDb2dVertex
10
109.371370517120
20
268.071098394353
30
0.0
0
VERTEX
5
afa
100
AcDbEntity
8
0-2
6
CONTINUOUS
62
  2
100
AcDbVertex
100
AcDb2dVertex
10
97.511370860443
20
268.071098394353
30
0.0
0
VERTEX
5
afb
100
AcDbEntity
8
0-2
6
CONTINUOUS
62
  2
100
AcDbVertex
100
AcDb2dVertex
10
97.511370860443
20
268.881098396737
30
0.0
0
SEQEND
5
afc
100
AcDbEntity
8
0-2
0
LINE
5
afd
100
AcDbEntity
8
0-2
6
CONTINUOUS
62
4
100
AcDbLine
10
105.591370784149
20
268.071098394353
30
0.0
11
105.591370784149
21
278.071098394353
31
0.0
0
LINE
5
afe
100
AcDbEntity
8
0-2
6
CONTINUOUS
62
4
100
AcDbLine
10
101.291370593414
20
268.071098394353
30
0.0
11
101.291370593414
21
278.071098394353
31
0.0
0
LINE
5
aff
100
AcDbEntity
8
0-2
6
CONTINUOUS
62
2
100
AcDbLine
10
105.941370688782
20
277.721098012883
30
0.0
11
105.941370688782
21
268.071098394353
31
0.0
0
LINE
5
b00
100
AcDbEntity
8
0-2
6
CONTINUOUS
62
2
100
AcDbLine
10
100.941370688782
20
277.721098012883
30
0.0
11
100.941370688782
21
268.071098394353
31
0.0
0
LINE
5
b01
100
AcDbEntity
8
0-2
6
CONTINUOUS
62
7
100
AcDbLine
10
98.441370688782
20
273.481098396737
30
0.0
11
108.441370688782
21
273.481098396737
31
0.0
0
LINE
5
b02
100
AcDbEntity
8
0-2
6
CONTINUOUS
62
7
100
AcDbLine
10
98.441370688782
20
274.681098396737
30
0.0
11
108.441370688782
21
274.681098396737
31
0.0
0
LINE
5
b03
100
AcDbEntity
8
0-2
6
CONTINUOUS
62
7
100
AcDbLine
10
98.441370688782
20
277.981098396737
30
0.0
11
98.441370688782
21
273.481098396737
31
0.0
0
LINE
5
b04
100
AcDbEntity
8
0-2
6
CONTINUOUS
62
7
100
AcDbLine
10
108.441370688782
20
277.981098396737
30
0.0
11
98.441370688782
21
277.981098396737
31
0.0
0
LINE
5
b05
100
AcDbEntity
8
0-2
6
CONTINUOUS
62
7
100
AcDbLine
10
108.441370688782
20
277.981098396737
30
0.0
11
108.441370688782
21
273.481098396737
31
0.0
0
LINE
5
b06
100
AcDbEntity
8
F-F_J_ADD
6
HIDDEN
62
253
100
AcDbLine
10
68.441370688782
20
272.071098394353
30
0.0
11
69.148477469949
21
272.778205175520
31
0.0
0
LINE
5
b07
100
AcDbEntity
8
F-F_J_ADD
6
HIDDEN
62
253
100
AcDbLine
10
67.734263907576
20
272.778205175520
30
0.0
11
68.441370688763
21
272.071098394334
31
0.0
0
LINE
5
b08
100
AcDbEntity
8
0-2
6
CONTINUOUS
62
4
100
AcDbLine
10
67.227084957466
20
263.571098155934
30
0.0
11
67.227084957466
21
268.071098394353
31
0.0
0
LINE
5
b09
100
AcDbEntity
8
0-2
6
CONTINUOUS
62
4
100
AcDbLine
10
66.619942151413
20
263.571098155934
30
0.0
11
66.619942151413
21
268.071098394353
31
0.0
0
LINE
5
b0a
100
AcDbEntity
8
0-2
6
CONTINUOUS
62
4
100
AcDbLine
10
65.405656300888
20
263.571098155934
30
0.0
11
65.405656300888
21
268.071098394353
31
0.0
0
LINE
5
b0b
100
AcDbEntity
8
0-2
6
CONTINUOUS
62
4
100
AcDbLine
10
64.798513614044
20
263.571098155934
30
0.0
11
64.798513614044
21
268.071098394353
31
0.0
0
LINE
5
b0c
100
AcDbEntity
8
0-2
6
CONTINUOUS
62
4
100
AcDbLine
10
66.012799226150
20
263.571098155934
30
0.0
11
66.012799226150
21
268.071098394353
31
0.0
0
LINE
5
b0d
100
AcDbEntity
8
0-2
6
CONTINUOUS
62
2
100
AcDbLine
10
72.691370688782
20
263.571098155934
30
0.0
11
72.191370688782
21
263.071098155934
31
0.0
0
LINE
5
b0e
100
AcDbEntity
8
0-2
6
CONTINUOUS
62
2
100
AcDbLine
10
64.691370688782
20
263.071098155934
30
0.0
11
72.191370688782
21
263.071098155934
31
0.0
0
LINE
5
b0f
100
AcDbEntity
8
0-2
6
CONTINUOUS
62
2
100
AcDbLine
10
64.691370688782
20
263.071098155934
30
0.0
11
64.191370688782
21
263.571098155934
31
0.0
0
POLYLINE
5
b10
100
AcDbEntity
8
0-2
6
CONTINUOUS
62
  2
100
AcDb2dPolyline
66
1
10
0.0
20
0.0
30
0.0
70
0
0
VERTEX
5
b11
100
AcDbEntity
8
0-2
6
CONTINUOUS
62
  2
100
AcDbVertex
100
AcDb2dVertex
10
72.691370688782
20
263.571098155934
30
0.0
0
VERTEX
5
b12
100
AcDbEntity
8
0-2
6
CONTINUOUS
62
  2
100
AcDbVertex
100
AcDb2dVertex
10
64.191370688782
20
263.571098155934
30
0.0
0
VERTEX
5
b13
100
AcDbEntity
8
0-2
6
CONTINUOUS
62
  2
100
AcDbVertex
100
AcDb2dVertex
10
64.191370688782
20
268.071098394353
30
0.0
0
SEQEND
5
b14
100
AcDbEntity
8
0-2
0
LINE
5
b15
100
AcDbEntity
8
0-2
6
CONTINUOUS
62
2
100
AcDbLine
10
72.691370688782
20
268.071098394353
30
0.0
11
64.191370688782
21
268.071098394353
31
0.0
0
LINE
5
b16
100
AcDbEntity
8
0-2
6
CONTINUOUS
62
2
100
AcDbLine
10
72.691370688782
20
263.571098155934
30
0.0
11
72.691370688782
21
268.071098394353
31
0.0
0
LINE
5
b17
100
AcDbEntity
8
0-2
6
CONTINUOUS
62
2
100
AcDbLine
10
66.291370593414
20
278.071098394353
30
0.0
11
70.591370784149
21
278.071098394353
31
0.0
0
LINE
5
b18
100
AcDbEntity
8
0-2
6
CONTINUOUS
62
2
100
AcDbLine
10
70.941370688782
20
277.721098012883
30
0.0
11
70.591370784149
21
278.071098394353
31
0.0
0
LINE
5
b19
100
AcDbEntity
8
0-2
6
CONTINUOUS
62
2
100
AcDbLine
10
66.291370593414
20
278.071098394353
30
0.0
11
65.941370688782
21
277.721098012883
31
0.0
0
LINE
5
b1a
100
AcDbEntity
8
0-2
6
CONTINUOUS
62
2
100
AcDbLine
10
70.941370688782
20
277.721098012883
30
0.0
11
65.941370688782
21
277.721098012883
31
0.0
0
LINE
5
b1b
100
AcDbEntity
8
0-2
6
CONTINUOUS
62
2
100
AcDbLine
10
74.371370517120
20
268.071098394353
30
0.0
11
74.371370517120
21
268.881098396737
31
0.0
0
POLYLINE
5
b1c
100
AcDbEntity
8
0-2
6
CONTINUOUS
62
  2
100
AcDb2dPolyline
66
1
10
0.0
20
0.0
30
0.0
70
0
0
VERTEX
5
b1d
100
AcDbEntity
8
0-2
6
CONTINUOUS
62
  2
100
AcDbVertex
100
AcDb2dVertex
10
74.371370517120
20
268.071098394353
30
0.0
0
VERTEX
5
b1e
100
AcDbEntity
8
0-2
6
CONTINUOUS
62
  2
100
AcDbVertex
100
AcDb2dVertex
10
62.511370860443
20
268.071098394353
30
0.0
0
VERTEX
5
b1f
100
AcDbEntity
8
0-2
6
CONTINUOUS
62
  2
100
AcDbVertex
100
AcDb2dVertex
10
62.511370860443
20
268.881098396737
30
0.0
0
SEQEND
5
b20
100
AcDbEntity
8
0-2
0
LINE
5
b21
100
AcDbEntity
8
0-2
6
CONTINUOUS
62
4
100
AcDbLine
10
70.591370784149
20
268.071098394353
30
0.0
11
70.591370784149
21
278.071098394353
31
0.0
0
LINE
5
b22
100
AcDbEntity
8
0-2
6
CONTINUOUS
62
4
100
AcDbLine
10
66.291370593414
20
268.071098394353
30
0.0
11
66.291370593414
21
278.071098394353
31
0.0
0
LINE
5
b23
100
AcDbEntity
8
0-2
6
CONTINUOUS
62
2
100
AcDbLine
10
70.941370688782
20
277.721098012883
30
0.0
11
70.941370688782
21
268.071098394353
31
0.0
0
LINE
5
b24
100
AcDbEntity
8
0-2
6
CONTINUOUS
62
2
100
AcDbLine
10
65.941370688782
20
277.721098012883
30
0.0
11
65.941370688782
21
268.071098394353
31
0.0
0
LINE
5
b25
100
AcDbEntity
8
0-2
6
CONTINUOUS
62
7
100
AcDbLine
10
63.441370688782
20
273.481098396737
30
0.0
11
73.441370688782
21
273.481098396737
31
0.0
0
LINE
5
b26
100
AcDbEntity
8
0-2
6
CONTINUOUS
62
7
100
AcDbLine
10
63.441370688782
20
274.681098396737
30
0.0
11
73.441370688782
21
274.681098396737
31
0.0
0
LINE
5
b27
100
AcDbEntity
8
0-2
6
CONTINUOUS
62
7
100
AcDbLine
10
63.441370688782
20
277.981098396737
30
0.0
11
63.441370688782
21
273.481098396737
31
0.0
0
LINE
5
b28
100
AcDbEntity
8
0-2
6
CONTINUOUS
62
7
100
AcDbLine
10
73.441370688782
20
277.981098396737
30
0.0
11
63.441370688782
21
277.981098396737
31
0.0
0
LINE
5
b29
100
AcDbEntity
8
0-2
6
CONTINUOUS
62
7
100
AcDbLine
10
73.441370688782
20
277.981098396737
30
0.0
11
73.441370688782
21
273.481098396737
31
0.0
0
LINE
5
b2a
100
AcDbEntity
8
0-2
6
CONTINUOUS
62
7
100
AcDbLine
10
162.096421688782
20
277.542498396737
30
0.0
11
161.222757688781
21
277.860488396737
31
0.0
0
LINE
5
b2b
100
AcDbEntity
8
0-2
6
CONTINUOUS
62
7
100
AcDbLine
10
160.538717688781
20
277.981098396737
30
0.0
11
157.344024688781
21
277.981098396737
31
0.0
0
LINE
5
b2c
100
AcDbEntity
8
0-2
6
CONTINUOUS
62
7
100
AcDbLine
10
156.659984688781
20
277.860488396737
30
0.0
11
155.786320688782
21
277.542498396737
31
0.0
0
ARC
5
b2d
100
AcDbEntity
8
0-2
6
CONTINUOUS
62
7
100
AcDbCircle
10
160.538717688781
20
275.981098396737
30
0.0
40
2.000000000000
100
AcDbArc
50
70.000000000000
51
90.000000000000
0
ARC
5
b2e
100
AcDbEntity
8
0-2
6
CONTINUOUS
62
7
100
AcDbCircle
10
157.344024688781
20
275.981098396737
30
0.0
40
2.000000000000
100
AcDbArc
50
90.000000000000
51
110.000000000000
0
ARC
5
b2f
100
AcDbEntity
8
0-2
6
CONTINUOUS
62
7
100
AcDbCircle
10
161.241370688782
20
275.193268396737
30
0.0
40
2.500000000000
100
AcDbArc
50
348.178227994578
51
430.000000000000
0
LINE
5
b30
100
AcDbEntity
8
0-2
6
CONTINUOUS
62
7
100
AcDbLine
10
162.512908595574
20
274.681098396737
30
0.0
11
163.688344716249
21
274.681098396737
31
0.0
0
ARC
5
b31
100
AcDbEntity
8
0-2
6
CONTINUOUS
62
7
100
AcDbCircle
10
156.641370688782
20
275.193268396737
30
0.0
40
2.500000000000
100
AcDbArc
50
110.000000000000
51
191.821772005421
0
LINE
5
b32
100
AcDbEntity
8
0-2
6
CONTINUOUS
62
7
100
AcDbLine
10
154.194396661314
20
274.681098396737
30
0.0
11
155.369833781989
21
274.681098396737
31
0.0
0
LINE
5
b33
100
AcDbEntity
8
0-2
6
CONTINUOUS
62
7
100
AcDbLine
10
155.691369595574
20
273.481098396737
30
0.0
11
155.369833781989
21
274.681098396737
31
0.0
0
LINE
5
b34
100
AcDbEntity
8
0-2
6
CONTINUOUS
62
7
100
AcDbLine
10
162.512908595574
20
274.681098396737
30
0.0
11
162.191372781989
21
273.481098396737
31
0.0
0
LINE
5
b35
100
AcDbEntity
8
0-2
6
CONTINUOUS
62
7
100
AcDbLine
10
155.691369595574
20
273.481098396737
30
0.0
11
162.191372781989
21
273.481098396737
31
0.0
0
LINE
5
b36
100
AcDbEntity
8
F-F_J_ADD
6
HIDDEN
62
253
100
AcDbLine
10
158.941370688781
20
272.071098394353
30
0.0
11
159.648477469949
21
272.778205175520
31
0.0
0
LINE
5
b37
100
AcDbEntity
8
F-F_J_ADD
6
HIDDEN
62
253
100
AcDbLine
10
158.234263907576
20
272.778205175520
30
0.0
11
158.941370688762
21
272.071098394334
31
0.0
0
LINE
5
b38
100
AcDbEntity
8
0-2
6
CONTINUOUS
62
4
100
AcDbLine
10
157.727084957466
20
263.571098155934
30
0.0
11
157.727084957466
21
268.071098394353
31
0.0
0
LINE
5
b39
100
AcDbEntity
8
0-2
6
CONTINUOUS
62
4
100
AcDbLine
10
157.119942151413
20
263.571098155934
30
0.0
11
157.119942151413
21
268.071098394353
31
0.0
0
LINE
5
b3a
100
AcDbEntity
8
0-2
6
CONTINUOUS
62
4
100
AcDbLine
10
155.905656300888
20
263.571098155934
30
0.0
11
155.905656300888
21
268.071098394353
31
0.0
0
LINE
5
b3b
100
AcDbEntity
8
0-2
6
CONTINUOUS
62
4
100
AcDbLine
10
155.298513614044
20
263.571098155934
30
0.0
11
155.298513614044
21
268.071098394353
31
0.0
0
LINE
5
b3c
100
AcDbEntity
8
0-2
6
CONTINUOUS
62
4
100
AcDbLine
10
156.512799226150
20
263.571098155934
30
0.0
11
156.512799226150
21
268.071098394353
31
0.0
0
LINE
5
b3d
100
AcDbEntity
8
0-2
6
CONTINUOUS
62
2
100
AcDbLine
10
163.191370688781
20
263.571098155934
30
0.0
11
162.691370688781
21
263.071098155934
31
0.0
0
LINE
5
b3e
100
AcDbEntity
8
0-2
6
CONTINUOUS
62
2
100
AcDbLine
10
155.191370688781
20
263.071098155934
30
0.0
11
162.691370688781
21
263.071098155934
31
0.0
0
LINE
5
b3f
100
AcDbEntity
8
0-2
6
CONTINUOUS
62
2
100
AcDbLine
10
155.191370688781
20
263.071098155934
30
0.0
11
154.691370688781
21
263.571098155934
31
0.0
0
POLYLINE
5
b40
100
AcDbEntity
8
0-2
6
CONTINUOUS
62
  2
100
AcDb2dPolyline
66
1
10
0.0
20
0.0
30
0.0
70
0
0
VERTEX
5
b41
100
AcDbEntity
8
0-2
6
CONTINUOUS
62
  2
100
AcDbVertex
100
AcDb2dVertex
10
163.191370688781
20
263.571098155934
30
0.0
0
VERTEX
5
b42
100
AcDbEntity
8
0-2
6
CONTINUOUS
62
  2
100
AcDbVertex
100
AcDb2dVertex
10
154.691370688781
20
263.571098155934
30
0.0
0
VERTEX
5
b43
100
AcDbEntity
8
0-2
6
CONTINUOUS
62
  2
100
AcDbVertex
100
AcDb2dVertex
10
154.691370688781
20
268.071098394353
30
0.0
0
SEQEND
5
b44
100
AcDbEntity
8
0-2
0
LINE
5
b45
100
AcDbEntity
8
0-2
6
CONTINUOUS
62
2
100
AcDbLine
10
163.191370688781
20
268.071098394353
30
0.0
11
154.691370688781
21
268.071098394353
31
0.0
0
LINE
5
b46
100
AcDbEntity
8
0-2
6
CONTINUOUS
62
2
100
AcDbLine
10
163.191370688781
20
263.571098155934
30
0.0
11
163.191370688781
21
268.071098394353
31
0.0
0
LINE
5
b47
100
AcDbEntity
8
0-2
6
CONTINUOUS
62
2
100
AcDbLine
10
156.791370593414
20
278.071098394353
30
0.0
11
161.091370784149
21
278.071098394353
31
0.0
0
LINE
5
b48
100
AcDbEntity
8
0-2
6
CONTINUOUS
62
2
100
AcDbLine
10
161.441370688781
20
277.721098012883
30
0.0
11
161.091370784149
21
278.071098394353
31
0.0
0
LINE
5
b49
100
AcDbEntity
8
0-2
6
CONTINUOUS
62
2
100
AcDbLine
10
156.791370593414
20
278.071098394353
30
0.0
11
156.441370688781
21
277.721098012883
31
0.0
0
LINE
5
b4a
100
AcDbEntity
8
0-2
6
CONTINUOUS
62
2
100
AcDbLine
10
161.441370688781
20
277.721098012883
30
0.0
11
156.441370688781
21
277.721098012883
31
0.0
0
LINE
5
b4b
100
AcDbEntity
8
0-2
6
CONTINUOUS
62
2
100
AcDbLine
10
164.871370517120
20
268.071098394353
30
0.0
11
164.871370517120
21
268.881098396737
31
0.0
0
POLYLINE
5
b4c
100
AcDbEntity
8
0-2
6
CONTINUOUS
62
  2
100
AcDb2dPolyline
66
1
10
0.0
20
0.0
30
0.0
70
0
0
VERTEX
5
b4d
100
AcDbEntity
8
0-2
6
CONTINUOUS
62
  2
100
AcDbVertex
100
AcDb2dVertex
10
164.871370517120
20
268.071098394353
30
0.0
0
VERTEX
5
b4e
100
AcDbEntity
8
0-2
6
CONTINUOUS
62
  2
100
AcDbVertex
100
AcDb2dVertex
10
153.011370860443
20
268.071098394353
30
0.0
0
VERTEX
5
b4f
100
AcDbEntity
8
0-2
6
CONTINUOUS
62
  2
100
AcDbVertex
100
AcDb2dVertex
10
153.011370860443
20
268.881098396737
30
0.0
0
SEQEND
5
b50
100
AcDbEntity
8
0-2
0
LINE
5
b51
100
AcDbEntity
8
0-2
6
CONTINUOUS
62
4
100
AcDbLine
10
161.091370784149
20
268.071098394353
30
0.0
11
161.091370784149
21
278.071098394353
31
0.0
0
LINE
5
b52
100
AcDbEntity
8
0-2
6
CONTINUOUS
62
4
100
AcDbLine
10
156.791370593414
20
268.071098394353
30
0.0
11
156.791370593414
21
278.071098394353
31
0.0
0
LINE
5
b53
100
AcDbEntity
8
0-2
6
CONTINUOUS
62
2
100
AcDbLine
10
161.441370688781
20
277.721098012883
30
0.0
11
161.441370688781
21
268.071098394353
31
0.0
0
LINE
5
b54
100
AcDbEntity
8
0-2
6
CONTINUOUS
62
2
100
AcDbLine
10
156.441370688781
20
277.721098012883
30
0.0
11
156.441370688781
21
268.071098394353
31
0.0
0
LINE
5
b55
100
AcDbEntity
8
0-2
6
CENTER
62
4
100
AcDbLine
10
583.399357080777
20
383.378775689113
30
0.0
11
608.399357080777
21
383.378775689113
31
0.0
0
LINE
5
b56
100
AcDbEntity
8
0-2
6
CENTER
62
4
100
AcDbLine
10
608.399357080777
20
408.378775689113
30
0.0
11
583.399357080777
21
408.378775689113
31
0.0
0
LINE
5
b57
100
AcDbEntity
8
0-2
6
CENTER
62
4
100
AcDbLine
10
694.899357080778
20
469.878767689113
30
0.0
11
694.899357080778
21
494.878767689113
31
0.0
0
LINE
5
b58
100
AcDbEntity
8
0-2
6
CENTER
62
4
100
AcDbLine
10
669.899357080778
20
494.878767689113
30
0.0
11
669.899357080778
21
469.878767689113
31
0.0
0
LINE
5
b59
100
AcDbEntity
8
0-2
6
CENTER
62
4
100
AcDbLine
10
608.399357080777
20
383.378775689113
30
0.0
11
608.399357080777
21
494.878767689113
31
0.0
0
LINE
5
b5a
100
AcDbEntity
8
0-2
6
CENTER
62
4
100
AcDbLine
10
694.899357080778
20
494.878767689113
30
0.0
11
583.399357080777
21
494.878767689113
31
0.0
0
LINE
5
b5b
100
AcDbEntity
8
0-2
6
CENTER
62
4
100
AcDbLine
10
694.899357080778
20
469.878767689113
30
0.0
11
583.399357080777
21
469.878767689113
31
0.0
0
LINE
5
b5c
100
AcDbEntity
8
0-2
6
CENTER
62
4
100
AcDbLine
10
583.399357080777
20
383.378775689113
30
0.0
11
583.399357080777
21
494.878767689113
31
0.0
0
LINE
5
b5d
100
AcDbEntity
8
0-2
6
CENTER
62
4
100
AcDbLine
10
858.832434541583
20
469.878767689113
30
0.0
11
858.832434541583
21
494.878767689113
31
0.0
0
LINE
5
b5e
100
AcDbEntity
8
0-2
6
CENTER
62
4
100
AcDbLine
10
833.832434541583
20
494.878767689113
30
0.0
11
833.832434541583
21
469.878767689113
31
0.0
0
LINE
5
b5f
100
AcDbEntity
8
0-2
6
CENTER
62
4
100
AcDbLine
10
920.332434541583
20
383.378775689113
30
0.0
11
945.332434541583
21
383.378775689113
31
0.0
0
LINE
5
b60
100
AcDbEntity
8
0-2
6
CENTER
62
4
100
AcDbLine
10
945.332434541583
20
408.378775689113
30
0.0
11
920.332434541583
21
408.378775689113
31
0.0
0
LINE
5
b61
100
AcDbEntity
8
0-2
6
CENTER
62
4
100
AcDbLine
10
920.332434541583
20
383.378775689113
30
0.0
11
920.332434541583
21
494.878767689113
31
0.0
0
LINE
5
b62
100
AcDbEntity
8
0-2
6
CENTER
62
4
100
AcDbLine
10
833.832434541583
20
494.878767689113
30
0.0
11
945.332434541583
21
494.878767689113
31
0.0
0
LINE
5
b63
100
AcDbEntity
8
0-2
6
CENTER
62
4
100
AcDbLine
10
833.832434541583
20
469.878767689113
30
0.0
11
945.332434541583
21
469.878767689113
31
0.0
0
LINE
5
b64
100
AcDbEntity
8
0-2
6
CENTER
62
4
100
AcDbLine
10
945.332434541583
20
383.378775689113
30
0.0
11
945.332434541583
21
494.878767689113
31
0.0
0
LINE
5
b65
100
AcDbEntity
8
0-2
6
PHANTOM
62
4
100
AcDbLine
10
899.910718439365
20
298.875318876201
30
0.0
11
799.384654067502
21
298.875318876201
31
0.0
0
LINE
5
b66
100
AcDbEntity
8
0-2
6
PHANTOM
62
4
100
AcDbLine
10
799.384654067502
20
273.875318876201
30
0.0
11
899.910718439365
21
273.875318876201
31
0.0
0
LINE
5
b67
100
AcDbEntity
8
0-2
6
PHANTOM
62
4
100
AcDbLine
10
799.384654067502
20
324.589849962849
30
0.0
11
799.384654067502
21
273.875318876201
31
0.0
0
LINE
5
b68
100
AcDbEntity
8
0-2
6
PHANTOM
62
4
100
AcDbLine
10
654.149701120828
20
273.875318876201
30
0.0
11
654.149701120828
21
324.589849962849
31
0.0
0
LINE
5
b69
100
AcDbEntity
8
0-2
6
PHANTOM
62
4
100
AcDbLine
10
654.149701120828
20
298.875318876201
30
0.0
11
577.891239022589
21
298.875318876201
31
0.0
0
LINE
5
b6a
100
AcDbEntity
8
0-2
6
PHANTOM
62
4
100
AcDbLine
10
577.891239022589
20
273.875318876201
30
0.0
11
654.149701120828
21
273.875318876201
31
0.0
0
LINE
5
b6b
100
AcDbEntity
8
0-2
6
PHANTOM
62
4
100
AcDbLine
10
774.384654067502
20
273.875318876201
30
0.0
11
774.384654067502
21
324.589849962849
31
0.0
0
LINE
5
b6c
100
AcDbEntity
8
0-2
6
PHANTOM
62
4
100
AcDbLine
10
679.149701120828
20
324.589849962849
30
0.0
11
679.149701120828
21
273.875318876201
31
0.0
0
LINE
5
b6d
100
AcDbEntity
8
0-2
6
CENTER
62
4
100
AcDbLine
10
774.384654067502
20
44.441182342157
30
0.0
11
799.384654067502
21
44.441182342157
31
0.0
0
LINE
5
b6e
100
AcDbEntity
8
0-2
6
CENTER
62
4
100
AcDbLine
10
799.384654067502
20
69.441182342157
30
0.0
11
774.384654067502
21
69.441182342157
31
0.0
0
LINE
5
b6f
100
AcDbEntity
8
0-2
6
CENTER
62
4
100
AcDbLine
10
885.884654067503
20
130.941182342157
30
0.0
11
885.884654067503
21
155.941182342157
31
0.0
0
LINE
5
b70
100
AcDbEntity
8
0-2
6
CENTER
62
4
100
AcDbLine
10
860.884654067503
20
155.941182342157
30
0.0
11
860.884654067503
21
130.941182342157
31
0.0
0
LINE
5
b71
100
AcDbEntity
8
0-2
6
CENTER
62
4
100
AcDbLine
10
799.384654067502
20
44.441182342157
30
0.0
11
799.384654067502
21
155.941182342157
31
0.0
0
LINE
5
b72
100
AcDbEntity
8
0-2
6
CENTER
62
4
100
AcDbLine
10
885.884654067503
20
155.941182342157
30
0.0
11
774.384654067502
21
155.941182342157
31
0.0
0
LINE
5
b73
100
AcDbEntity
8
0-2
6
CENTER
62
4
100
AcDbLine
10
885.884654067503
20
130.941182342157
30
0.0
11
774.384654067502
21
130.941182342157
31
0.0
0
LINE
5
b74
100
AcDbEntity
8
0-2
6
CENTER
62
4
100
AcDbLine
10
774.384654067502
20
44.441182342157
30
0.0
11
774.384654067502
21
155.941182342157
31
0.0
0
LINE
5
b75
100
AcDbEntity
8
0-2
6
CENTER
62
4
100
AcDbLine
10
335.648122068781
20
125.506695620675
30
0.0
11
335.648122068781
21
150.506695620675
31
0.0
0
LINE
5
b76
100
AcDbEntity
8
0-2
6
CENTER
62
4
100
AcDbLine
10
310.648122068781
20
150.506695620675
30
0.0
11
310.648122068781
21
125.506695620675
31
0.0
0
LINE
5
b77
100
AcDbEntity
8
0-2
6
CENTER
62
4
100
AcDbLine
10
220.148122068781
20
35.006695620675
30
0.0
11
245.148122068781
21
35.006695620675
31
0.0
0
LINE
5
b78
100
AcDbEntity
8
0-2
6
CENTER
62
4
100
AcDbLine
10
245.148122068781
20
60.006695620675
30
0.0
11
220.148122068781
21
60.006695620675
31
0.0
0
LINE
5
b79
100
AcDbEntity
8
0-2
6
CENTER
62
4
100
AcDbLine
10
335.648122068781
20
125.506695620675
30
0.0
11
220.148122068781
21
125.506695620675
31
0.0
0
LINE
5
b7a
100
AcDbEntity
8
0-2
6
CENTER
62
4
100
AcDbLine
10
220.148122068781
20
35.006695620675
30
0.0
11
220.148122068781
21
150.506695620675
31
0.0
0
LINE
5
b7b
100
AcDbEntity
8
0-2
6
CENTER
62
4
100
AcDbLine
10
245.148122068781
20
35.006695620675
30
0.0
11
245.148122068781
21
150.506695620675
31
0.0
0
LINE
5
b7c
100
AcDbEntity
8
0-2
6
CENTER
62
4
100
AcDbLine
10
335.648122068781
20
150.506695620675
30
0.0
11
220.148122068781
21
150.506695620675
31
0.0
0
LINE
5
b7d
100
AcDbEntity
8
0-0
6
CENTER
62
4
100
AcDbLine
10
641.649701120828
20
195.675318856322
30
0.0
11
641.649701120828
21
273.175318876201
31
0.0
0
LINE
5
b7e
100
AcDbEntity
8
0-0
6
CENTER
62
4
100
AcDbLine
10
268.148122068781
20
141.281094384481
30
0.0
11
268.148122068781
21
142.748059846021
31
0.0
0
LINE
5
b7f
100
AcDbEntity
8
0-0
6
CONTINUOUS
62
7
100
AcDbLine
10
206.505214495193
20
115.056695620675
30
0.0
11
254.791029642369
21
115.056695620675
31
0.0
0
LINE
5
b80
100
AcDbEntity
8
0-0
6
CONTINUOUS
62
7
100
AcDbLine
10
206.505214495193
20
89.956695620674
30
0.0
11
254.791029642369
21
89.956695620674
31
0.0
0
ARC
5
b81
100
AcDbEntity
8
0-0
6
CONTINUOUS
62
7
100
AcDbCircle
10
206.505214495193
20
90.956695620675
30
0.0
40
1.000000000000
100
AcDbArc
50
188.487954070792
51
270.000000000000
0
ARC
5
b82
100
AcDbEntity
8
0-0
6
CONTINUOUS
62
7
100
AcDbCircle
10
283.899372047146
20
102.506695620675
30
0.0
40
79.251249978365
100
AcDbArc
50
171.512045929208
51
188.487954070792
0
ARC
5
b83
100
AcDbEntity
8
0-0
6
CONTINUOUS
62
7
100
AcDbCircle
10
206.505214495193
20
114.056695620675
30
0.0
40
1.000000000000
100
AcDbArc
50
90.000000000000
51
171.512045929208
0
ARC
5
b84
100
AcDbEntity
8
0-0
6
CONTINUOUS
62
7
100
AcDbCircle
10
254.791029642369
20
114.056695620675
30
0.0
40
1.000000000000
100
AcDbArc
50
8.487954070792
51
90.000000000000
0
ARC
5
b85
100
AcDbEntity
8
0-0
6
CONTINUOUS
62
7
100
AcDbCircle
10
177.396872090416
20
102.506695620675
30
0.0
40
79.251249978365
100
AcDbArc
50
351.512045929208
51
368.487954070792
0
ARC
5
b86
100
AcDbEntity
8
0-0
6
CONTINUOUS
62
7
100
AcDbCircle
10
254.791029642369
20
90.956695620675
30
0.0
40
1.000000000000
100
AcDbArc
50
270.000000000000
51
351.512045929208
0
ARC
5
b87
100
AcDbEntity
8
0-0
6
PHANTOM
62
4
100
AcDbCircle
10
268.148122068781
20
102.506695620675
30
0.0
40
16.500000000000
100
AcDbArc
50
243.876503630559
51
251.123496369441
0
ARC
5
b88
100
AcDbEntity
8
0-0
6
PHANTOM
62
4
100
AcDbCircle
10
260.662896199230
20
87.243295158071
30
0.0
40
0.500000000000
100
AcDbArc
50
63.876503630557
51
135.000000000000
0
LINE
5
b89
100
AcDbEntity
8
0-0
6
PHANTOM
62
4
100
AcDbLine
10
252.062414126636
20
97.506695620675
30
0.0
11
245.082996879440
21
97.506695620675
31
0.0
0
ARC
5
b8a
100
AcDbEntity
8
0-0
6
PHANTOM
62
4
100
AcDbCircle
10
245.082996879440
20
98.006695620675
30
0.0
40
0.500000000000
100
AcDbArc
50
191.039714414039
51
270.000000000000
0
LINE
5
b8b
100
AcDbEntity
8
0-0
6
PHANTOM
62
4
100
AcDbLine
10
260.309342808637
20
87.596848548665
30
0.0
11
255.374149544414
21
82.661655284442
31
0.0
0
ARC
5
b8c
100
AcDbEntity
8
0-0
6
PHANTOM
62
4
100
AcDbCircle
10
255.020596153820
20
83.015208675035
30
0.0
40
0.500000000000
100
AcDbArc
50
236.039714414039
51
315.000000000002
0
ARC
5
b8d
100
AcDbEntity
8
0-0
6
PHANTOM
62
4
100
AcDbCircle
10
287.639609014421
20
115.634221535635
30
0.0
40
0.500000000000
100
AcDbArc
50
315.000000000000
51
393.960285585961
0
ARC
5
b8e
100
AcDbEntity
8
0-0
6
PHANTOM
62
4
100
AcDbCircle
10
268.148122068781
20
102.506695620675
30
0.0
40
24.000000000000
100
AcDbArc
50
33.960285585967
51
56.039714414033
0
LINE
5
b8f
100
AcDbEntity
8
0-0
6
PHANTOM
62
4
100
AcDbLine
10
283.057969140791
20
110.345474880819
30
0.0
11
287.993162405014
21
115.280668145042
31
0.0
0
ARC
5
b90
100
AcDbEntity
8
0-0
6
PHANTOM
62
4
100
AcDbCircle
10
281.275647983742
20
121.998182566314
30
0.0
40
0.500000000000
100
AcDbArc
50
56.039714414039
51
135.000000000000
0
LINE
5
b91
100
AcDbEntity
8
0-0
6
PHANTOM
62
4
100
AcDbLine
10
275.986901328926
20
117.416542692685
30
0.0
11
280.922094593148
21
122.351735956907
31
0.0
0
ARC
5
b92
100
AcDbEntity
8
0-0
6
PHANTOM
62
4
100
AcDbCircle
10
273.648122068781
20
118.592403562820
30
0.0
40
0.500000000000
100
AcDbArc
50
180.000000000004
51
251.123496369443
0
ARC
5
b93
100
AcDbEntity
8
0-0
6
PHANTOM
62
4
100
AcDbCircle
10
268.148122068781
20
102.506695620675
30
0.0
40
16.500000000000
100
AcDbArc
50
63.876503630559
51
71.123496369441
0
ARC
5
b94
100
AcDbEntity
8
0-0
6
PHANTOM
62
4
100
AcDbCircle
10
275.633347938332
20
117.770096083278
30
0.0
40
0.500000000000
100
AcDbArc
50
243.876503630556
51
315.000000000000
0
ARC
5
b95
100
AcDbEntity
8
0-0
6
PHANTOM
62
4
100
AcDbCircle
10
291.213247258122
20
98.006695620675
30
0.0
40
0.500000000000
100
AcDbArc
50
270.000000000000
51
348.960285585961
0
ARC
5
b96
100
AcDbEntity
8
0-0
6
PHANTOM
62
4
100
AcDbCircle
10
268.148122068781
20
102.506695620675
30
0.0
40
24.000000000000
100
AcDbArc
50
348.960285585967
51
371.039714414033
0
LINE
5
b97
100
AcDbEntity
8
0-0
6
PHANTOM
62
4
100
AcDbLine
10
284.233830010926
20
97.506695620675
30
0.0
11
291.213247258122
21
97.506695620675
31
0.0
0
ARC
5
b98
100
AcDbEntity
8
0-0
6
PHANTOM
62
4
100
AcDbCircle
10
291.213247258122
20
107.006695620675
30
0.0
40
0.500000000000
100
AcDbArc
50
11.039714414039
51
90.000000000000
0
LINE
5
b99
100
AcDbEntity
8
0-0
6
PHANTOM
62
4
100
AcDbLine
10
284.233830010926
20
107.506695620675
30
0.0
11
291.213247258122
21
107.506695620675
31
0.0
0
ARC
5
b9a
100
AcDbEntity
8
0-0
6
PHANTOM
62
4
100
AcDbCircle
10
283.411522531384
20
109.991921490226
30
0.0
40
0.500000000000
100
AcDbArc
50
135.000000000004
51
206.123496369443
0
ARC
5
b9b
100
AcDbEntity
8
0-0
6
PHANTOM
62
4
100
AcDbCircle
10
268.148122068781
20
102.506695620675
30
0.0
40
16.500000000000
100
AcDbArc
50
18.876503630559
51
26.123496369441
0
ARC
5
b9c
100
AcDbEntity
8
0-0
6
PHANTOM
62
4
100
AcDbCircle
10
284.233830010926
20
108.006695620675
30
0.0
40
0.500000000000
100
AcDbArc
50
198.876503630556
51
270.000000000000
0
ARC
5
b9d
100
AcDbEntity
8
0-0
6
PHANTOM
62
4
100
AcDbCircle
10
281.275647983742
20
83.015208675035
30
0.0
40
0.500000000000
100
AcDbArc
50
225.000000000000
51
303.960285585961
0
ARC
5
b9e
100
AcDbEntity
8
0-0
6
PHANTOM
62
4
100
AcDbCircle
10
268.148122068781
20
102.506695620675
30
0.0
40
24.000000000000
100
AcDbArc
50
303.960285585967
51
326.039714414033
0
LINE
5
b9f
100
AcDbEntity
8
0-0
6
PHANTOM
62
4
100
AcDbLine
10
275.986901328926
20
87.596848548665
30
0.0
11
280.922094593148
21
82.661655284442
31
0.0
0
ARC
5
ba0
100
AcDbEntity
8
0-0
6
PHANTOM
62
4
100
AcDbCircle
10
287.639609014421
20
89.379169705714
30
0.0
40
0.500000000000
100
AcDbArc
50
326.039714414039
51
405.000000000000
0
LINE
5
ba1
100
AcDbEntity
8
0-0
6
PHANTOM
62
4
100
AcDbLine
10
283.057969140791
20
94.667916360530
30
0.0
11
287.993162405014
21
89.732723096307
31
0.0
0
ARC
5
ba2
100
AcDbEntity
8
0-0
6
PHANTOM
62
4
100
AcDbCircle
10
284.233830010926
20
97.006695620675
30
0.0
40
0.500000000000
100
AcDbArc
50
90.000000000004
51
161.123496369443
0
ARC
5
ba3
100
AcDbEntity
8
0-0
6
PHANTOM
62
4
100
AcDbCircle
10
268.148122068781
20
102.506695620675
30
0.0
40
16.500000000000
100
AcDbArc
50
333.876503630559
51
341.123496369441
0
ARC
5
ba4
100
AcDbEntity
8
0-0
6
PHANTOM
62
4
100
AcDbCircle
10
283.411522531384
20
95.021469751123
30
0.0
40
0.500000000000
100
AcDbArc
50
153.876503630556
51
225.000000000000
0
ARC
5
ba5
100
AcDbEntity
8
0-0
6
PHANTOM
62
4
100
AcDbCircle
10
263.648122068781
20
79.441570431333
30
0.0
40
0.500000000000
100
AcDbArc
50
180.000000000000
51
258.960285585961
0
ARC
5
ba6
100
AcDbEntity
8
0-0
6
PHANTOM
62
4
100
AcDbCircle
10
268.148122068781
20
102.506695620675
30
0.0
40
24.000000000000
100
AcDbArc
50
258.960285585967
51
281.039714414033
0
LINE
5
ba7
100
AcDbEntity
8
0-0
6
PHANTOM
62
4
100
AcDbLine
10
263.148122068781
20
86.420987678529
30
0.0
11
263.148122068781
21
79.441570431333
31
0.0
0
ARC
5
ba8
100
AcDbEntity
8
0-0
6
PHANTOM
62
4
100
AcDbCircle
10
272.648122068781
20
79.441570431333
30
0.0
40
0.500000000000
100
AcDbArc
50
281.039714414039
51
360.000000000000
0
LINE
5
ba9
100
AcDbEntity
8
0-0
6
PHANTOM
62
4
100
AcDbLine
10
273.148122068781
20
86.420987678529
30
0.0
11
273.148122068781
21
79.441570431333
31
0.0
0
ARC
5
baa
100
AcDbEntity
8
0-0
6
PHANTOM
62
4
100
AcDbCircle
10
275.633347938332
20
87.243295158071
30
0.0
40
0.500000000000
100
AcDbArc
50
45.000000000003
51
116.123496369443
0
ARC
5
bab
100
AcDbEntity
8
0-0
6
PHANTOM
62
4
100
AcDbCircle
10
268.148122068781
20
102.506695620675
30
0.0
40
16.500000000000
100
AcDbArc
50
288.876503630559
51
296.123496369441
0
ARC
5
bac
100
AcDbEntity
8
0-0
6
PHANTOM
62
4
100
AcDbCircle
10
273.648122068781
20
86.420987678529
30
0.0
40
0.500000000000
100
AcDbArc
50
108.876503630556
51
180.000000000000
0
ARC
5
bad
100
AcDbEntity
8
0-0
6
PHANTOM
62
4
100
AcDbCircle
10
248.656635123141
20
89.379169705714
30
0.0
40
0.500000000000
100
AcDbArc
50
135.000000000000
51
213.960285585961
0
ARC
5
bae
100
AcDbEntity
8
0-0
6
PHANTOM
62
4
100
AcDbCircle
10
268.148122068781
20
102.506695620675
30
0.0
40
24.000000000000
100
AcDbArc
50
213.960285585967
51
236.039714414033
0
LINE
5
baf
100
AcDbEntity
8
0-0
6
PHANTOM
62
4
100
AcDbLine
10
253.238274996771
20
94.667916360530
30
0.0
11
248.303081732548
21
89.732723096307
31
0.0
0
ARC
5
bb0
100
AcDbEntity
8
0-0
6
PHANTOM
62
4
100
AcDbCircle
10
262.648122068781
20
86.420987678529
30
0.0
40
0.500000000000
100
AcDbArc
50
0.000000000003
51
71.123496369443
0
ARC
5
bb1
100
AcDbEntity
8
0-0
6
PHANTOM
62
4
100
AcDbCircle
10
245.082996879440
20
107.006695620675
30
0.0
40
0.500000000000
100
AcDbArc
50
90.000000000000
51
168.960285585961
0
ARC
5
bb2
100
AcDbEntity
8
0-0
6
PHANTOM
62
4
100
AcDbCircle
10
268.148122068781
20
102.506695620675
30
0.0
40
24.000000000000
100
AcDbArc
50
168.960285585967
51
191.039714414033
0
LINE
5
bb3
100
AcDbEntity
8
0-0
6
PHANTOM
62
4
100
AcDbLine
10
252.062414126636
20
107.506695620675
30
0.0
11
245.082996879440
21
107.506695620675
31
0.0
0
ARC
5
bb4
100
AcDbEntity
8
0-0
6
PHANTOM
62
4
100
AcDbCircle
10
252.884721606178
20
95.021469751123
30
0.0
40
0.500000000000
100
AcDbArc
50
315.000000000003
51
386.123496369443
0
ARC
5
bb5
100
AcDbEntity
8
0-0
6
PHANTOM
62
4
100
AcDbCircle
10
268.148122068781
20
102.506695620675
30
0.0
40
16.500000000000
100
AcDbArc
50
198.876503630559
51
206.123496369441
0
ARC
5
bb6
100
AcDbEntity
8
0-0
6
PHANTOM
62
4
100
AcDbCircle
10
252.062414126636
20
97.006695620675
30
0.0
40
0.500000000000
100
AcDbArc
50
18.876503630556
51
90.000000000000
0
ARC
5
bb7
100
AcDbEntity
8
0-0
6
PHANTOM
62
4
100
AcDbCircle
10
255.020596153820
20
121.998182566314
30
0.0
40
0.500000000000
100
AcDbArc
50
45.000000000000
51
123.960285585961
0
ARC
5
bb8
100
AcDbEntity
8
0-0
6
PHANTOM
62
4
100
AcDbCircle
10
268.148122068781
20
102.506695620675
30
0.0
40
24.000000000000
100
AcDbArc
50
123.960285585967
51
146.039714414033
0
LINE
5
bb9
100
AcDbEntity
8
0-0
6
PHANTOM
62
4
100
AcDbLine
10
260.309342808637
20
117.416542692685
30
0.0
11
255.374149544414
21
122.351735956907
31
0.0
0
ARC
5
bba
100
AcDbEntity
8
0-0
6
PHANTOM
62
4
100
AcDbCircle
10
248.656635123141
20
115.634221535635
30
0.0
40
0.500000000000
100
AcDbArc
50
146.039714414039
51
225.000000000000
0
LINE
5
bbb
100
AcDbEntity
8
0-0
6
PHANTOM
62
4
100
AcDbLine
10
253.238274996771
20
110.345474880819
30
0.0
11
248.303081732548
21
115.280668145042
31
0.0
0
ARC
5
bbc
100
AcDbEntity
8
0-0
6
PHANTOM
62
4
100
AcDbCircle
10
252.062414126636
20
108.006695620675
30
0.0
40
0.500000000000
100
AcDbArc
50
270.000000000004
51
341.123496369443
0
ARC
5
bbd
100
AcDbEntity
8
0-0
6
PHANTOM
62
4
100
AcDbCircle
10
268.148122068781
20
102.506695620675
30
0.0
40
16.500000000000
100
AcDbArc
50
153.876503630559
51
161.123496369441
0
ARC
5
bbe
100
AcDbEntity
8
0-0
6
PHANTOM
62
4
100
AcDbCircle
10
252.884721606178
20
109.991921490226
30
0.0
40
0.500000000000
100
AcDbArc
50
333.876503630556
51
405.000000000000
0
ARC
5
bbf
100
AcDbEntity
8
0-0
6
PHANTOM
62
4
100
AcDbCircle
10
272.648122068781
20
125.571820810016
30
0.0
40
0.500000000000
100
AcDbArc
50
0.000000000000
51
78.960285585961
0
ARC
5
bc0
100
AcDbEntity
8
0-0
6
PHANTOM
62
4
100
AcDbCircle
10
268.148122068781
20
102.506695620675
30
0.0
40
24.000000000000
100
AcDbArc
50
78.960285585967
51
101.039714414033
0
LINE
5
bc1
100
AcDbEntity
8
0-0
6
PHANTOM
62
4
100
AcDbLine
10
273.148122068781
20
118.592403562820
30
0.0
11
273.148122068781
21
125.571820810016
31
0.0
0
ARC
5
bc2
100
AcDbEntity
8
0-0
6
PHANTOM
62
4
100
AcDbCircle
10
263.648122068781
20
125.571820810016
30
0.0
40
0.500000000000
100
AcDbArc
50
101.039714414039
51
180.000000000000
0
LINE
5
bc3
100
AcDbEntity
8
0-0
6
PHANTOM
62
4
100
AcDbLine
10
263.148122068781
20
118.592403562820
30
0.0
11
263.148122068781
21
125.571820810016
31
0.0
0
ARC
5
bc4
100
AcDbEntity
8
0-0
6
PHANTOM
62
4
100
AcDbCircle
10
260.662896199230
20
117.770096083278
30
0.0
40
0.500000000000
100
AcDbArc
50
225.000000000004
51
296.123496369443
0
ARC
5
bc5
100
AcDbEntity
8
0-0
6
PHANTOM
62
4
100
AcDbCircle
10
268.148122068781
20
102.506695620675
30
0.0
40
16.500000000000
100
AcDbArc
50
108.876503630559
51
116.123496369441
0
ARC
5
bc6
100
AcDbEntity
8
0-0
6
PHANTOM
62
4
100
AcDbCircle
10
262.648122068781
20
118.592403562820
30
0.0
40
0.500000000000
100
AcDbArc
50
288.876503630556
51
360.000000000000
0
LINE
5
bc7
100
AcDbEntity
8
0-0
6
CONTINUOUS
62
7
100
AcDbLine
10
218.148122068781
20
79.506695620675
30
0.0
11
218.148122068781
21
9.506695620675
31
0.0
0
LINE
5
bc8
100
AcDbEntity
8
0-0
6
CONTINUOUS
62
7
100
AcDbLine
10
226.882069999524
20
129.240643551417
30
0.0
11
249.269442412341
21
151.628015964234
31
0.0
0
LINE
5
bc9
100
AcDbEntity
8
0-0
6
CENTER
62
4
100
AcDbLine
10
230.648122068781
20
133.006695620675
30
0.0
11
230.648122068781
21
131.821633419650
31
0.0
0
LINE
5
bca
100
AcDbEntity
8
0-0
6
CONTINUOUS
62
2
100
AcDbLine
10
236.998122068781
20
79.506695620675
30
0.0
11
236.998122068781
21
78.006695620675
31
0.0
0
LINE
5
bcb
100
AcDbEntity
8
0-0
6
CONTINUOUS
62
2
100
AcDbLine
10
224.298122068781
20
78.006695620675
30
0.0
11
224.298122068781
21
79.506695620675
31
0.0
0
LINE
5
bcc
100
AcDbEntity
8
0-0
6
CONTINUOUS
62
2
100
AcDbLine
10
236.998122068781
20
78.006695620675
30
0.0
11
224.298122068781
21
78.006695620675
31
0.0
0
LINE
5
bcd
100
AcDbEntity
8
0-0
6
CONTINUOUS
62
2
100
AcDbLine
10
235.898122068781
20
78.006695620675
30
0.0
11
235.705969902919
21
77.165788041690
31
0.0
0
ARC
5
bce
100
AcDbEntity
8
0-0
6
CONTINUOUS
62
2
100
AcDbCircle
10
233.853712316889
20
77.589039437902
30
0.0
40
1.899999976158
100
AcDbArc
50
285.362472534180
51
347.128578067321
0
LINE
5
bcf
100
AcDbEntity
8
0-0
6
CONTINUOUS
62
2
100
AcDbLine
10
225.398122068781
20
78.006695620675
30
0.0
11
225.590274234643
21
77.165788041690
31
0.0
0
ARC
5
bd0
100
AcDbEntity
8
0-0
6
CONTINUOUS
62
2
100
AcDbCircle
10
227.442531820673
20
77.589039437902
30
0.0
40
1.899999976158
100
AcDbArc
50
192.871421932679
51
254.637527465820
0
ARC
5
bd1
100
AcDbEntity
8
0-0
6
CONTINUOUS
62
2
100
AcDbCircle
10
230.648122068781
20
89.256695621144
30
0.0
40
14.000000000000
100
AcDbArc
50
254.637527465820
51
285.362487792969
0
LINE
5
bd2
100
AcDbEntity
8
0-0
6
CONTINUOUS
62
2
100
AcDbLine
10
236.998122068781
20
125.506695620675
30
0.0
11
236.998122068781
21
127.006695620675
31
0.0
0
LINE
5
bd3
100
AcDbEntity
8
0-0
6
CONTINUOUS
62
2
100
AcDbLine
10
224.298122068781
20
127.006695620675
30
0.0
11
224.298122068781
21
125.506695620675
31
0.0
0
LINE
5
bd4
100
AcDbEntity
8
0-0
6
CONTINUOUS
62
2
100
AcDbLine
10
236.998122068781
20
127.006695620675
30
0.0
11
224.298122068781
21
127.006695620675
31
0.0
0
LINE
5
bd5
100
AcDbEntity
8
0-0
6
CONTINUOUS
62
2
100
AcDbLine
10
235.898122068781
20
127.006695620675
30
0.0
11
235.705969902919
21
127.847603199659
31
0.0
0
ARC
5
bd6
100
AcDbEntity
8
0-0
6
CONTINUOUS
62
2
100
AcDbCircle
10
233.853712316889
20
127.424351803448
30
0.0
40
1.899999976158
100
AcDbArc
50
12.871421932678
51
74.637527465820
0
LINE
5
bd7
100
AcDbEntity
8
0-0
6
CONTINUOUS
62
2
100
AcDbLine
10
225.398122068781
20
127.006695620675
30
0.0
11
225.590274234643
21
127.847603199659
31
0.0
0
ARC
5
bd8
100
AcDbEntity
8
0-0
6
CONTINUOUS
62
2
100
AcDbCircle
10
227.442531820673
20
127.424351803448
30
0.0
40
1.899999976158
100
AcDbArc
50
105.362472534180
51
167.128578067321
0
ARC
5
bd9
100
AcDbEntity
8
0-0
6
CONTINUOUS
62
2
100
AcDbCircle
10
230.648122068781
20
115.756695620205
30
0.0
40
14.000000000000
100
AcDbArc
50
74.637512207031
51
105.362472534180
0
ARC
5
bda
100
AcDbEntity
8
0-0
6
CONTINUOUS
62
7
100
AcDbCircle
10
268.148122068781
20
102.506695620675
30
0.0
40
26.000000000000
100
AcDbArc
50
274.212603764153
51
445.787396235847
0
ARC
5
bdb
100
AcDbEntity
8
0-0
6
CONTINUOUS
62
7
100
AcDbCircle
10
268.148122068781
20
102.506695620675
30
0.0
40
26.000000000000
100
AcDbArc
50
212.578970392804
51
265.787396235847
0
ARC
5
bdc
100
AcDbEntity
8
0-0
6
CONTINUOUS
62
7
100
AcDbCircle
10
268.148122068781
20
102.506695620675
30
0.0
40
28.000000000000
100
AcDbArc
50
274.991383090879
51
445.008616909121
0
ARC
5
bdd
100
AcDbEntity
8
0-0
6
CONTINUOUS
62
7
100
AcDbCircle
10
268.148122068781
20
102.506695620675
30
0.0
40
28.000000000000
100
AcDbArc
50
210.000000000000
51
265.008616909121
0
LINE
5
bde
100
AcDbEntity
8
0-0
6
CONTINUOUS
62
7
100
AcDbLine
10
269.398122068781
20
73.533647800330
30
0.0
11
269.398122068781
21
76.706695620675
31
0.0
0
LINE
5
bdf
100
AcDbEntity
8
0-0
6
CONTINUOUS
62
7
100
AcDbLine
10
266.898122068781
20
73.533647800330
30
0.0
11
266.898122068781
21
76.706695620675
31
0.0
0
LINE
5
be0
100
AcDbEntity
8
0-0
6
CONTINUOUS
62
7
100
AcDbLine
10
269.398122068781
20
76.706695620675
30
0.0
11
266.898122068781
21
76.706695620675
31
0.0
0
LINE
5
be1
100
AcDbEntity
8
0-0
6
CONTINUOUS
62
7
100
AcDbLine
10
269.648122068781
20
78.106695620675
30
0.0
11
266.648122068781
21
78.106695620675
31
0.0
0
LINE
5
be2
100
AcDbEntity
8
0-0
6
CONTINUOUS
62
7
100
AcDbLine
10
269.648122068781
20
78.106695620675
30
0.0
11
270.584287846127
21
74.612877375313
31
0.0
0
LINE
5
be3
100
AcDbEntity
8
0-0
6
CONTINUOUS
62
7
100
AcDbLine
10
266.648122068781
20
78.106695620675
30
0.0
11
265.711956291435
21
74.612877375313
31
0.0
0
LINE
5
be4
100
AcDbEntity
8
0-0
6
CONTINUOUS
62
7
100
AcDbLine
10
269.398122068781
20
131.479743441020
30
0.0
11
269.398122068781
21
128.306695620675
31
0.0
0
LINE
5
be5
100
AcDbEntity
8
0-0
6
CONTINUOUS
62
7
100
AcDbLine
10
266.898122068781
20
131.479743441020
30
0.0
11
266.898122068781
21
128.306695620675
31
0.0
0
LINE
5
be6
100
AcDbEntity
8
0-0
6
CONTINUOUS
62
7
100
AcDbLine
10
269.398122068781
20
128.306695620675
30
0.0
11
266.898122068781
21
128.306695620675
31
0.0
0
ARC
5
be7
100
AcDbEntity
8
0-0
6
CONTINUOUS
62
7
100
AcDbCircle
10
268.148122068781
20
102.506695620675
30
0.0
40
28.000000000000
100
AcDbArc
50
94.991383090879
51
144.690010086467
0
ARC
5
be8
100
AcDbEntity
8
0-0
6
CONTINUOUS
62
7
100
AcDbCircle
10
268.148122068781
20
102.506695620675
30
0.0
40
26.000000000000
100
AcDbArc
50
94.212603764153
51
147.421029607196
0
LINE
5
be9
100
AcDbEntity
8
0-0
6
CONTINUOUS
62
7
100
AcDbLine
10
269.648122068781
20
126.906695620675
30
0.0
11
266.648122068781
21
126.906695620675
31
0.0
0
LINE
5
bea
100
AcDbEntity
8
0-0
6
CONTINUOUS
62
7
100
AcDbLine
10
269.648122068781
20
126.906695620675
30
0.0
11
270.584287846127
21
130.400513866037
31
0.0
0
LINE
5
beb
100
AcDbEntity
8
0-0
6
CONTINUOUS
62
7
100
AcDbLine
10
266.648122068781
20
126.906695620675
30
0.0
11
265.711956291435
21
130.400513866037
31
0.0
0
ARC
5
bec
100
AcDbEntity
8
0-0
6
CONTINUOUS
62
7
100
AcDbCircle
10
268.148122068781
20
102.506695620675
30
0.0
40
28.000000000000
100
AcDbArc
50
144.690010086467
51
150.000000000000
0
LINE
5
bed
100
AcDbEntity
8
0-0
6
CONTINUOUS
62
7
100
AcDbLine
10
256.148122068781
20
88.506695620675
30
0.0
11
243.899410762817
21
88.506695620675
31
0.0
0
LINE
5
bee
100
AcDbEntity
8
0-0
6
CONTINUOUS
62
7
100
AcDbLine
10
256.148122068781
20
116.506695620675
30
0.0
11
243.899410762817
21
116.506695620675
31
0.0
0
ARC
5
bef
100
AcDbEntity
8
0-0
6
CONTINUOUS
62
7
100
AcDbCircle
10
256.148122068781
20
113.506695620675
30
0.0
40
3.000000000000
100
AcDbArc
50
0.000000000000
51
90.000000000000
0
LINE
5
bf0
100
AcDbEntity
8
0-0
6
CONTINUOUS
62
7
100
AcDbLine
10
259.148122068781
20
113.506695620675
30
0.0
11
259.148122068781
21
91.506695620675
31
0.0
0
ARC
5
bf1
100
AcDbEntity
8
0-0
6
CONTINUOUS
62
7
100
AcDbCircle
10
256.148122068781
20
91.506695620675
30
0.0
40
3.000000000000
100
AcDbArc
50
270.000000000000
51
360.000000000000
0
ARC
5
bf2
100
AcDbEntity
8
0-0
6
CONTINUOUS
62
7
100
AcDbCircle
10
268.148122068781
20
102.506695620675
30
0.0
40
29.000000000000
100
AcDbArc
50
208.865727415007
51
511.134272584993
0
ARC
5
bf3
100
AcDbEntity
8
0-0
6
CONTINUOUS
62
7
100
AcDbCircle
10
268.148122068781
20
102.506695620675
30
0.0
40
35.500000000000
100
AcDbArc
50
220.382503892346
51
499.617496107654
0
LINE
5
bf4
100
AcDbEntity
8
0-0
6
CONTINUOUS
62
7
100
AcDbLine
10
216.648122068781
20
125.506695620675
30
0.0
11
242.751271870381
21
125.506695620675
31
0.0
0
LINE
5
bf5
100
AcDbEntity
8
0-0
6
CONTINUOUS
62
7
100
AcDbLine
10
242.751271870381
20
116.506695620675
30
0.0
11
242.751271870381
21
125.506695620675
31
0.0
0
LINE
5
bf6
100
AcDbEntity
8
0-0
6
CONTINUOUS
62
7
100
AcDbLine
10
216.648122068781
20
116.506695620675
30
0.0
11
242.751271870381
21
116.506695620675
31
0.0
0
ARC
5
bf7
100
AcDbEntity
8
0-0
6
CONTINUOUS
62
7
100
AcDbCircle
10
216.648122068781
20
117.506695620675
30
0.0
40
1.000000000000
100
AcDbArc
50
180.000000000000
51
270.000000000000
0
LINE
5
bf8
100
AcDbEntity
8
0-0
6
CONTINUOUS
62
7
100
AcDbLine
10
215.648122068781
20
117.506695620675
30
0.0
11
215.648122068781
21
124.506695620675
31
0.0
0
ARC
5
bf9
100
AcDbEntity
8
0-0
6
CONTINUOUS
62
7
100
AcDbCircle
10
216.648122068781
20
124.506695620675
30
0.0
40
1.000000000000
100
AcDbArc
50
90.000000000000
51
180.000000000000
0
LINE
5
bfa
100
AcDbEntity
8
0-0
6
CONTINUOUS
62
7
100
AcDbLine
10
216.648122068781
20
79.506695620675
30
0.0
11
242.751271870381
21
79.506695620675
31
0.0
0
LINE
5
bfb
100
AcDbEntity
8
0-0
6
CONTINUOUS
62
7
100
AcDbLine
10
242.751271870381
20
88.506695620675
30
0.0
11
242.751271870381
21
79.506695620675
31
0.0
0
LINE
5
bfc
100
AcDbEntity
8
0-0
6
CONTINUOUS
62
7
100
AcDbLine
10
216.648122068781
20
88.506695620675
30
0.0
11
242.751271870381
21
88.506695620675
31
0.0
0
ARC
5
bfd
100
AcDbEntity
8
0-0
6
CONTINUOUS
62
7
100
AcDbCircle
10
216.648122068781
20
87.506695620675
30
0.0
40
1.000000000000
100
AcDbArc
50
90.000000000000
51
180.000000000000
0
LINE
5
bfe
100
AcDbEntity
8
0-0
6
CONTINUOUS
62
7
100
AcDbLine
10
215.648122068781
20
87.506695620675
30
0.0
11
215.648122068781
21
80.506695620675
31
0.0
0
ARC
5
bff
100
AcDbEntity
8
0-0
6
CONTINUOUS
62
7
100
AcDbCircle
10
216.648122068781
20
80.506695620675
30
0.0
40
1.000000000000
100
AcDbArc
50
180.000000000000
51
270.000000000000
0
CIRCLE
5
c00
100
AcDbEntity
8
0-0
6
CONTINUOUS
62
7
100
AcDbCircle
10
323.148122068781
20
138.006695620675
30
0.0
40
3.125000000000
0
LINE
5
c01
100
AcDbEntity
8
0-0
6
CONTINUOUS
62
7
100
AcDbLine
10
333.998122068781
20
132.906695620675
30
0.0
11
333.998122068781
21
128.106695620675
31
0.0
0
ARC
5
c02
100
AcDbEntity
8
0-0
6
CONTINUOUS
62
7
100
AcDbCircle
10
338.148122068781
20
132.906695620675
30
0.0
40
4.150000000000
100
AcDbArc
50
0.000000000000
51
180.000000000000
0
LINE
5
c03
100
AcDbEntity
8
0-0
6
CONTINUOUS
62
7
100
AcDbLine
10
342.298122068781
20
132.906695620675
30
0.0
11
342.298122068781
21
128.106695620675
31
0.0
0
ARC
5
c04
100
AcDbEntity
8
0-0
6
CONTINUOUS
62
7
100
AcDbCircle
10
338.148122068781
20
128.106695620675
30
0.0
40
4.150000000000
100
AcDbArc
50
180.000000000000
51
360.000000000000
0
LINE
5
c05
100
AcDbEntity
8
0-0
6
CONTINUOUS
62
7
100
AcDbLine
10
303.998122068781
20
132.906695620675
30
0.0
11
303.998122068781
21
128.106695620675
31
0.0
0
ARC
5
c06
100
AcDbEntity
8
0-0
6
CONTINUOUS
62
7
100
AcDbCircle
10
308.148122068781
20
132.906695620675
30
0.0
40
4.150000000000
100
AcDbArc
50
0.000000000000
51
180.000000000000
0
LINE
5
c07
100
AcDbEntity
8
0-0
6
CONTINUOUS
62
7
100
AcDbLine
10
312.298122068781
20
132.906695620675
30
0.0
11
312.298122068781
21
128.106695620675
31
0.0
0
ARC
5
c08
100
AcDbEntity
8
0-0
6
CONTINUOUS
62
7
100
AcDbCircle
10
308.148122068781
20
128.106695620675
30
0.0
40
4.150000000000
100
AcDbArc
50
180.000000000000
51
360.000000000000
0
CIRCLE
5
c09
100
AcDbEntity
8
0-0
6
CONTINUOUS
62
7
100
AcDbCircle
10
288.148122068781
20
138.006695620675
30
0.0
40
3.125000000000
0
CIRCLE
5
c0a
100
AcDbEntity
8
0-0
6
CONTINUOUS
62
7
100
AcDbCircle
10
232.648122068781
20
47.506695620675
30
0.0
40
3.125000000000
0
LINE
5
c0b
100
AcDbEntity
8
0-0
6
CONTINUOUS
62
7
100
AcDbLine
10
237.748122068781
20
36.656695620674
30
0.0
11
242.548122068781
21
36.656695620674
31
0.0
0
ARC
5
c0c
100
AcDbEntity
8
0-0
6
CONTINUOUS
62
7
100
AcDbCircle
10
237.748122068781
20
32.506695620675
30
0.0
40
4.150000000000
100
AcDbArc
50
90.000000000000
51
270.000000000000
0
LINE
5
c0d
100
AcDbEntity
8
0-0
6
CONTINUOUS
62
7
100
AcDbLine
10
237.748122068781
20
28.356695620675
30
0.0
11
242.548122068781
21
28.356695620675
31
0.0
0
ARC
5
c0e
100
AcDbEntity
8
0-0
6
CONTINUOUS
62
7
100
AcDbCircle
10
242.548122068781
20
32.506695620675
30
0.0
40
4.150000000000
100
AcDbArc
50
270.000000000000
51
450.000000000000
0
LINE
5
c0f
100
AcDbEntity
8
0-0
6
CONTINUOUS
62
7
100
AcDbLine
10
237.748122068781
20
66.656695620674
30
0.0
11
242.548122068781
21
66.656695620674
31
0.0
0
ARC
5
c10
100
AcDbEntity
8
0-0
6
CONTINUOUS
62
7
100
AcDbCircle
10
237.748122068781
20
62.506695620675
30
0.0
40
4.150000000000
100
AcDbArc
50
90.000000000000
51
270.000000000000
0
LINE
5
c11
100
AcDbEntity
8
0-0
6
CONTINUOUS
62
7
100
AcDbLine
10
237.748122068781
20
58.356695620675
30
0.0
11
242.548122068781
21
58.356695620675
31
0.0
0
ARC
5
c12
100
AcDbEntity
8
0-0
6
CONTINUOUS
62
7
100
AcDbCircle
10
242.548122068781
20
62.506695620675
30
0.0
40
4.150000000000
100
AcDbArc
50
270.000000000000
51
450.000000000000
0
LINE
5
c13
100
AcDbEntity
8
0-0
6
CONTINUOUS
62
7
100
AcDbLine
10
357.148122068781
20
126.163549870167
30
0.0
11
244.491267819289
21
13.506695620675
31
0.0
0
LINE
5
c14
100
AcDbEntity
8
0-0
6
CONTINUOUS
62
7
100
AcDbLine
10
357.148122068781
20
126.163549870167
30
0.0
11
357.148122068781
21
152.506695620675
31
0.0
0
LINE
5
c15
100
AcDbEntity
8
0-0
6
CONTINUOUS
62
7
100
AcDbLine
10
244.491267819289
20
13.506695620675
30
0.0
11
218.148122068781
21
13.506695620675
31
0.0
0
ARC
5
c16
100
AcDbEntity
8
0-0
6
CONTINUOUS
62
7
100
AcDbCircle
10
358.148122068781
20
125.749336307794
30
0.0
40
3.000000000000
100
AcDbArc
50
315.000000000000
51
360.000000000000
0
LINE
5
c17
100
AcDbEntity
8
0-0
6
CONTINUOUS
62
7
100
AcDbLine
10
360.269442412341
20
123.628015964234
30
0.0
11
247.026801725221
21
10.385375277115
31
0.0
0
ARC
5
c18
100
AcDbEntity
8
0-0
6
CONTINUOUS
62
7
100
AcDbCircle
10
244.905481381662
20
12.506695620675
30
0.0
40
3.000000000000
100
AcDbArc
50
270.000000000000
51
315.000000000000
0
LINE
5
c19
100
AcDbEntity
8
0-0
6
CONTINUOUS
62
7
100
AcDbLine
10
244.905481381662
20
9.506695620675
30
0.0
11
218.148122068781
21
9.506695620675
31
0.0
0
ARC
5
c1a
100
AcDbEntity
8
0-0
6
CONTINUOUS
62
7
100
AcDbCircle
10
251.390762755901
20
149.506695620675
30
0.0
40
3.000000000000
100
AcDbArc
50
90.000000000000
51
135.000000000000
0
LINE
5
c1b
100
AcDbEntity
8
0-0
6
CONTINUOUS
62
7
100
AcDbLine
10
251.390762755901
20
152.506695620675
30
0.0
11
361.148122068781
21
152.506695620675
31
0.0
0
LINE
5
c1c
100
AcDbEntity
8
0-0
6
CONTINUOUS
62
7
100
AcDbLine
10
361.148122068781
20
125.749336307794
30
0.0
11
361.148122068781
21
152.506695620675
31
0.0
0
LINE
5
c1d
100
AcDbEntity
8
0-0
6
CENTER
62
4
100
AcDbLine
10
232.648122068781
20
87.504001772014
30
0.0
11
232.648122068781
21
77.894669308668
31
0.0
0
CIRCLE
5
c1e
100
AcDbEntity
8
0-0
6
CONTINUOUS
62
7
100
AcDbCircle
10
232.648122068781
20
82.506695620674
30
0.0
40
3.125000000000
0
LINE
5
c1f
100
AcDbEntity
8
0-0
6
CENTER
62
4
100
AcDbLine
10
238.166689179217
20
82.506695620674
30
0.0
11
227.832124077128
21
82.506695620674
31
0.0
0
CIRCLE
5
c20
100
AcDbEntity
8
0-0
6
CONTINUOUS
62
7
100
AcDbCircle
10
765.893819214853
20
134.941182342157
30
0.0
40
20.009165147350
0
CIRCLE
5
c21
100
AcDbEntity
8
0-0
6
CONTINUOUS
62
7
100
AcDbCircle
10
765.893819214853
20
134.941182342157
30
0.0
40
19.409165147350
0
CIRCLE
5
c22
100
AcDbEntity
8
0-0
6
CONTINUOUS
62
7
100
AcDbCircle
10
765.893819214853
20
134.941182342157
30
0.0
40
18.009165147350
0
LINE
5
c23
100
AcDbEntity
8
0-0
6
CONTINUOUS
62
4
100
AcDbLine
10
667.649701120828
20
199.275318876201
30
0.0
11
707.649701120828
21
199.275318876201
31
0.0
0
LINE
5
c24
100
AcDbEntity
8
0-0
6
CONTINUOUS
62
7
100
AcDbLine
10
705.649701120828
20
188.875318876201
30
0.0
11
669.649701120828
21
188.875318876201
31
0.0
0
POLYLINE
5
c25
100
AcDbEntity
8
0-0
6
CONTINUOUS
62
  7
100
AcDb2dPolyline
66
1
10
0.0
20
0.0
30
0.0
70
0
0
VERTEX
5
c26
100
AcDbEntity
8
0-0
6
CONTINUOUS
62
  7
100
AcDbVertex
100
AcDb2dVertex
10
682.649701120828
20
288.875318876201
30
0.0
0
VERTEX
5
c27
100
AcDbEntity
8
0-0
6
CONTINUOUS
62
  7
100
AcDbVertex
100
AcDb2dVertex
10
692.649701120828
20
288.875318876201
30
0.0
0
VERTEX
5
c28
100
AcDbEntity
8
0-0
6
CONTINUOUS
62
  7
100
AcDbVertex
100
AcDb2dVertex
10
693.649701120828
20
287.875318876200
30
0.0
0
SEQEND
5
c29
100
AcDbEntity
8
0-0
0
LINE
5
c2a
100
AcDbEntity
8
0-0
6
CONTINUOUS
62
7
100
AcDbLine
10
681.649701120827
20
287.875318876200
30
0.0
11
682.649701120828
21
288.875318876201
31
0.0
0
LINE
5
c2b
100
AcDbEntity
8
0-0
6
CONTINUOUS
62
7
100
AcDbLine
10
707.649701120828
20
194.275318876201
30
0.0
11
667.649701120828
21
194.275318876201
31
0.0
0
LINE
5
c2c
100
AcDbEntity
8
0-0
6
CONTINUOUS
62
7
100
AcDbLine
10
705.649701120828
20
191.775318876201
30
0.0
11
705.649701120828
21
188.875318876201
31
0.0
0
LINE
5
c2d
100
AcDbEntity
8
0-0
6
CONTINUOUS
62
7
100
AcDbLine
10
669.649701120828
20
188.875318876201
30
0.0
11
669.649701120828
21
191.775318876201
31
0.0
0
LINE
5
c2e
100
AcDbEntity
8
0-0
6
CONTINUOUS
62
7
100
AcDbLine
10
670.649701121078
20
202.275318876201
30
0.0
11
704.649701120828
21
202.275318876201
31
0.0
0
POLYLINE
5
c2f
100
AcDbEntity
8
0-0
6
CONTINUOUS
62
  7
100
AcDb2dPolyline
66
1
10
0.0
20
0.0
30
0.0
70
0
0
VERTEX
5
c30
100
AcDbEntity
8
0-0
6
CONTINUOUS
62
  7
100
AcDbVertex
100
AcDb2dVertex
10
699.649701120828
20
202.275318876201
30
0.0
0
VERTEX
5
c31
100
AcDbEntity
8
0-0
6
CONTINUOUS
62
  7
100
AcDbVertex
100
AcDb2dVertex
10
699.649701120828
20
202.675318876201
30
0.0
0
VERTEX
5
c32
100
AcDbEntity
8
0-0
6
CONTINUOUS
62
  7
100
AcDbVertex
100
AcDb2dVertex
10
675.649701120828
20
202.675318876201
30
0.0
0
VERTEX
5
c33
100
AcDbEntity
8
0-0
6
CONTINUOUS
62
  7
100
AcDbVertex
100
AcDb2dVertex
10
675.649701120828
20
202.275318876201
30
0.0
0
SEQEND
5
c34
100
AcDbEntity
8
0-0
0
POLYLINE
5
c35
100
AcDbEntity
8
0-0
6
CONTINUOUS
62
  7
100
AcDb2dPolyline
66
1
10
0.0
20
0.0
30
0.0
70
0
0
VERTEX
5
c36
100
AcDbEntity
8
0-0
6
CONTINUOUS
62
  7
100
AcDbVertex
100
AcDb2dVertex
10
676.680046006225
20
203.441681486421
30
0.0
0
VERTEX
5
c37
100
AcDbEntity
8
0-0
6
CONTINUOUS
62
  7
100
AcDbVertex
100
AcDb2dVertex
10
677.371088280468
20
203.281271769598
30
0.0
0
VERTEX
5
c38
100
AcDbEntity
8
0-0
6
CONTINUOUS
62
  7
100
AcDbVertex
100
AcDb2dVertex
10
678.063546904810
20
203.160769778682
30
0.0
0
VERTEX
5
c39
100
AcDbEntity
8
0-0
6
CONTINUOUS
62
  7
100
AcDbVertex
100
AcDb2dVertex
10
678.755253376769
20
203.086483018010
30
0.0
0
VERTEX
5
c3a
100
AcDbEntity
8
0-0
6
CONTINUOUS
62
  7
100
AcDbVertex
100
AcDb2dVertex
10
679.446926450276
20
203.062448172703
30
0.0
0
VERTEX
5
c3b
100
AcDbEntity
8
0-0
6
CONTINUOUS
62
  7
100
AcDbVertex
100
AcDb2dVertex
10
680.130098792579
20
203.089471946158
30
0.0
0
VERTEX
5
c3c
100
AcDbEntity
8
0-0
6
CONTINUOUS
62
  7
100
AcDbVertex
100
AcDb2dVertex
10
680.811511151028
20
203.165092095615
30
0.0
0
VERTEX
5
c3d
100
AcDbEntity
8
0-0
6
CONTINUOUS
62
  7
100
AcDbVertex
100
AcDb2dVertex
10
681.489412767614
20
203.284470430787
30
0.0
0
VERTEX
5
c3e
100
AcDbEntity
8
0-0
6
CONTINUOUS
62
  7
100
AcDbVertex
100
AcDb2dVertex
10
682.164873563527
20
203.441681486421
30
0.0
0
VERTEX
5
c3f
100
AcDbEntity
8
0-0
6
CONTINUOUS
62
  7
100
AcDbVertex
100
AcDb2dVertex
10
684.575557534208
20
203.187578669647
30
0.0
0
VERTEX
5
c40
100
AcDbEntity
8
0-0
6
CONTINUOUS
62
  7
100
AcDbVertex
100
AcDb2dVertex
10
686.988657490286
20
203.068343677692
30
0.0
0
VERTEX
5
c41
100
AcDbEntity
8
0-0
6
CONTINUOUS
62
  7
100
AcDbVertex
100
AcDb2dVertex
10
689.377939765542
20
203.102653307166
30
0.0
0
VERTEX
5
c42
100
AcDbEntity
8
0-0
6
CONTINUOUS
62
  7
100
AcDbVertex
100
AcDb2dVertex
10
691.752456774229
20
203.281273063343
30
0.0
0
VERTEX
5
c43
100
AcDbEntity
8
0-0
6
CONTINUOUS
62
  7
100
AcDbVertex
100
AcDb2dVertex
10
693.134528678130
20
203.441681486421
30
0.0
0
VERTEX
5
c44
100
AcDbEntity
8
0-0
6
CONTINUOUS
62
  7
100
AcDbVertex
100
AcDb2dVertex
10
693.825570952374
20
203.281271769598
30
0.0
0
VERTEX
5
c45
100
AcDbEntity
8
0-0
6
CONTINUOUS
62
  7
100
AcDbVertex
100
AcDb2dVertex
10
694.518029576715
20
203.160769778682
30
0.0
0
VERTEX
5
c46
100
AcDbEntity
8
0-0
6
CONTINUOUS
62
  7
100
AcDbVertex
100
AcDb2dVertex
10
695.209736048673
20
203.086483018010
30
0.0
0
VERTEX
5
c47
100
AcDbEntity
8
0-0
6
CONTINUOUS
62
  7
100
AcDbVertex
100
AcDb2dVertex
10
695.901409122181
20
203.062448172703
30
0.0
0
VERTEX
5
c48
100
AcDbEntity
8
0-0
6
CONTINUOUS
62
  7
100
AcDbVertex
100
AcDb2dVertex
10
696.584581464483
20
203.089471946158
30
0.0
0
VERTEX
5
c49
100
AcDbEntity
8
0-0
6
CONTINUOUS
62
  7
100
AcDbVertex
100
AcDb2dVertex
10
697.265993822932
20
203.165092095615
30
0.0
0
VERTEX
5
c4a
100
AcDbEntity
8
0-0
6
CONTINUOUS
62
  7
100
AcDbVertex
100
AcDb2dVertex
10
697.943895439518
20
203.284470430787
30
0.0
0
VERTEX
5
c4b
100
AcDbEntity
8
0-0
6
CONTINUOUS
62
  7
100
AcDbVertex
100
AcDb2dVertex
10
698.619356235431
20
203.441681486421
30
0.0
0
VERTEX
5
c4c
100
AcDbEntity
8
0-0
6
CONTINUOUS
62
  7
100
AcDbVertex
100
AcDb2dVertex
10
695.649701120828
20
202.675318876201
30
0.0
0
SEQEND
5
c4d
100
AcDbEntity
8
0-0
0
LINE
5
c4e
100
AcDbEntity
8
0-0
6
CONTINUOUS
62
7
100
AcDbLine
10
693.134528678130
20
203.441681486421
30
0.0
11
693.134528678130
21
208.875318876201
31
0.0
0
POLYLINE
5
c4f
100
AcDbEntity
8
0-0
6
CONTINUOUS
62
  7
100
AcDb2dPolyline
66
1
10
0.0
20
0.0
30
0.0
70
0
0
VERTEX
5
c50
100
AcDbEntity
8
0-0
6
CONTINUOUS
62
  7
100
AcDbVertex
100
AcDb2dVertex
10
698.619356235431
20
208.875318876201
30
0.0
0
VERTEX
5
c51
100
AcDbEntity
8
0-0
6
CONTINUOUS
62
  7
100
AcDbVertex
100
AcDb2dVertex
10
676.680046006225
20
208.875318876201
30
0.0
0
VERTEX
5
c52
100
AcDbEntity
8
0-0
6
CONTINUOUS
62
  7
100
AcDbVertex
100
AcDb2dVertex
10
676.680046006225
20
203.441681486421
30
0.0
0
VERTEX
5
c53
100
AcDbEntity
8
0-0
6
CONTINUOUS
62
  7
100
AcDbVertex
100
AcDb2dVertex
10
679.649701120828
20
202.675318876201
30
0.0
0
SEQEND
5
c54
100
AcDbEntity
8
0-0
0
LINE
5
c55
100
AcDbEntity
8
0-0
6
CONTINUOUS
62
7
100
AcDbLine
10
682.164873563527
20
203.441681486421
30
0.0
11
682.164873563527
21
208.875318876201
31
0.0
0
LINE
5
c56
100
AcDbEntity
8
0-0
6
CONTINUOUS
62
7
100
AcDbLine
10
698.619356235431
20
208.875318876201
30
0.0
11
698.619356235431
21
203.441681486421
31
0.0
0
ARC
5
c57
100
AcDbEntity
8
0-0
6
CONTINUOUS
62
7
100
AcDbCircle
10
670.649701120828
20
199.275318876201
30
0.0
40
3.000000000000
100
AcDbArc
50
89.999999999999
51
180.000000000000
0
ARC
5
c58
100
AcDbEntity
8
0-0
6
CONTINUOUS
62
7
100
AcDbCircle
10
704.649701120828
20
199.275318876201
30
0.0
40
3.000000000000
100
AcDbArc
50
360.000000000000
51
450.000000000001
0
LINE
5
c59
100
AcDbEntity
8
0-0
6
CONTINUOUS
62
7
100
AcDbLine
10
667.649701120828
20
191.775318876201
30
0.0
11
667.649701120828
21
199.275318876201
31
0.0
0
LINE
5
c5a
100
AcDbEntity
8
0-0
6
CONTINUOUS
62
7
100
AcDbLine
10
667.649701120828
20
191.775318876201
30
0.0
11
707.649701120828
21
191.775318876201
31
0.0
0
LINE
5
c5b
100
AcDbEntity
8
0-0
6
CONTINUOUS
62
7
100
AcDbLine
10
707.649701120828
20
199.275318876201
30
0.0
11
707.649701120828
21
191.775318876201
31
0.0
0
LINE
5
c5c
100
AcDbEntity
8
0-0
6
CONTINUOUS
62
7
100
AcDbLine
10
679.422459604715
20
253.875318876201
30
0.0
11
695.876942636940
21
253.875318876201
31
0.0
0
ARC
5
c5d
100
AcDbEntity
8
0-0
6
CONTINUOUS
62
7
100
AcDbCircle
10
687.649701120828
20
240.079574695521
30
0.0
40
13.795743942261
100
AcDbArc
50
66.573394775391
51
113.426589965820
0
POLYLINE
5
c5e
100
AcDbEntity
8
0-0
6
CONTINUOUS
62
  7
100
AcDb2dPolyline
66
1
10
0.0
20
0.0
30
0.0
70
0
0
VERTEX
5
c5f
100
AcDbEntity
8
0-0
6
CONTINUOUS
62
  7
100
AcDbVertex
100
AcDb2dVertex
10
698.619225857071
20
252.738137092036
30
0.0
0
VERTEX
5
c60
100
AcDbEntity
8
0-0
6
CONTINUOUS
62
  7
100
AcDbVertex
100
AcDb2dVertex
10
697.951802074931
20
253.256392592740
30
0.0
0
VERTEX
5
c61
100
AcDbEntity
8
0-0
6
CONTINUOUS
62
  7
100
AcDbVertex
100
AcDb2dVertex
10
697.221334738698
20
253.624255046591
30
0.0
0
VERTEX
5
c62
100
AcDbEntity
8
0-0
6
CONTINUOUS
62
  7
100
AcDbVertex
100
AcDb2dVertex
10
696.450018728747
20
253.830547139075
30
0.0
0
VERTEX
5
c63
100
AcDbEntity
8
0-0
6
CONTINUOUS
62
  7
100
AcDbVertex
100
AcDb2dVertex
10
695.661290091738
20
253.869000789352
30
0.0
0
VERTEX
5
c64
100
AcDbEntity
8
0-0
6
CONTINUOUS
62
  7
100
AcDbVertex
100
AcDb2dVertex
10
694.879113948189
20
253.738447602716
30
0.0
0
VERTEX
5
c65
100
AcDbEntity
8
0-0
6
CONTINUOUS
62
  7
100
AcDbVertex
100
AcDb2dVertex
10
694.127256324422
20
253.442854371680
30
0.0
0
VERTEX
5
c66
100
AcDbEntity
8
0-0
6
CONTINUOUS
62
  7
100
AcDbVertex
100
AcDb2dVertex
10
693.428562033877
20
252.991202546992
30
0.0
0
VERTEX
5
c67
100
AcDbEntity
8
0-0
6
CONTINUOUS
62
  7
100
AcDbVertex
100
AcDb2dVertex
10
693.134660376512
20
252.738137990110
30
0.0
0
SEQEND
5
c68
100
AcDbEntity
8
0-0
0
POLYLINE
5
c69
100
AcDbEntity
8
0-0
6
CONTINUOUS
62
  7
100
AcDb2dPolyline
66
1
10
0.0
20
0.0
30
0.0
70
0
0
VERTEX
5
c6a
100
AcDbEntity
8
0-0
6
CONTINUOUS
62
  7
100
AcDbVertex
100
AcDb2dVertex
10
682.164742824845
20
252.738137092036
30
0.0
0
VERTEX
5
c6b
100
AcDbEntity
8
0-0
6
CONTINUOUS
62
  7
100
AcDbVertex
100
AcDb2dVertex
10
681.497319042706
20
253.256392592740
30
0.0
0
VERTEX
5
c6c
100
AcDbEntity
8
0-0
6
CONTINUOUS
62
  7
100
AcDbVertex
100
AcDb2dVertex
10
680.766851706472
20
253.624255046591
30
0.0
0
VERTEX
5
c6d
100
AcDbEntity
8
0-0
6
CONTINUOUS
62
  7
100
AcDbVertex
100
AcDb2dVertex
10
679.995535696522
20
253.830547139075
30
0.0
0
VERTEX
5
c6e
100
AcDbEntity
8
0-0
6
CONTINUOUS
62
  7
100
AcDbVertex
100
AcDb2dVertex
10
679.206807059512
20
253.869000789352
30
0.0
0
VERTEX
5
c6f
100
AcDbEntity
8
0-0
6
CONTINUOUS
62
  7
100
AcDbVertex
100
AcDb2dVertex
10
678.424630915963
20
253.738447602716
30
0.0
0
VERTEX
5
c70
100
AcDbEntity
8
0-0
6
CONTINUOUS
62
  7
100
AcDbVertex
100
AcDb2dVertex
10
677.672773292197
20
253.442854371680
30
0.0
0
VERTEX
5
c71
100
AcDbEntity
8
0-0
6
CONTINUOUS
62
  7
100
AcDbVertex
100
AcDb2dVertex
10
676.974079001652
20
252.991202546992
30
0.0
0
VERTEX
5
c72
100
AcDbEntity
8
0-0
6
CONTINUOUS
62
  7
100
AcDbVertex
100
AcDb2dVertex
10
676.680177344287
20
252.738137990110
30
0.0
0
SEQEND
5
c73
100
AcDbEntity
8
0-0
0
LINE
5
c74
100
AcDbEntity
8
0-0
6
CONTINUOUS
62
7
100
AcDbLine
10
682.164873602364
20
247.812500158244
30
0.0
11
682.164873602364
21
252.738137594157
31
0.0
0
LINE
5
c75
100
AcDbEntity
8
0-0
6
CONTINUOUS
62
7
100
AcDbLine
10
698.619356157754
20
252.738137594157
30
0.0
11
698.619356157754
21
247.812500158244
31
0.0
0
LINE
5
c76
100
AcDbEntity
8
0-0
6
CONTINUOUS
62
7
100
AcDbLine
10
695.876942636940
20
246.675318876201
30
0.0
11
679.422459604715
21
246.675318876201
31
0.0
0
LINE
5
c77
100
AcDbEntity
8
0-0
6
CONTINUOUS
62
7
100
AcDbLine
10
676.680046083901
20
247.812500158244
30
0.0
11
676.680046083901
21
252.738137594157
31
0.0
0
LINE
5
c78
100
AcDbEntity
8
0-0
6
CONTINUOUS
62
7
100
AcDbLine
10
693.134528639291
20
252.738137594157
30
0.0
11
693.134528639291
21
247.812500158244
31
0.0
0
ARC
5
c79
100
AcDbEntity
8
0-0
6
CONTINUOUS
62
7
100
AcDbCircle
10
687.649701120828
20
260.471063056880
30
0.0
40
13.795743942261
100
AcDbArc
50
246.573410034180
51
293.426605224609
0
POLYLINE
5
c7a
100
AcDbEntity
8
0-0
6
CONTINUOUS
62
  7
100
AcDb2dPolyline
66
1
10
0.0
20
0.0
30
0.0
70
0
0
VERTEX
5
c7b
100
AcDbEntity
8
0-0
6
CONTINUOUS
62
  7
100
AcDbVertex
100
AcDb2dVertex
10
693.134660376512
20
247.812499762291
30
0.0
0
VERTEX
5
c7c
100
AcDbEntity
8
0-0
6
CONTINUOUS
62
  7
100
AcDbVertex
100
AcDb2dVertex
10
693.802084270890
20
247.294244480163
30
0.0
0
VERTEX
5
c7d
100
AcDbEntity
8
0-0
6
CONTINUOUS
62
  7
100
AcDbVertex
100
AcDb2dVertex
10
694.532551686791
20
246.926382265534
30
0.0
0
VERTEX
5
c7e
100
AcDbEntity
8
0-0
6
CONTINUOUS
62
  7
100
AcDbVertex
100
AcDb2dVertex
10
695.303867741417
20
246.720090425649
30
0.0
0
VERTEX
5
c7f
100
AcDbEntity
8
0-0
6
CONTINUOUS
62
  7
100
AcDbVertex
100
AcDb2dVertex
10
696.092596386754
20
246.681637033674
30
0.0
0
VERTEX
5
c80
100
AcDbEntity
8
0-0
6
CONTINUOUS
62
  7
100
AcDbVertex
100
AcDb2dVertex
10
696.874772502030
20
246.812190476466
30
0.0
0
VERTEX
5
c81
100
AcDbEntity
8
0-0
6
CONTINUOUS
62
  7
100
AcDbVertex
100
AcDb2dVertex
10
697.626630061780
20
247.107783953729
30
0.0
0
VERTEX
5
c82
100
AcDbEntity
8
0-0
6
CONTINUOUS
62
  7
100
AcDbVertex
100
AcDb2dVertex
10
698.325324254512
20
247.559436007234
30
0.0
0
VERTEX
5
c83
100
AcDbEntity
8
0-0
6
CONTINUOUS
62
  7
100
AcDbVertex
100
AcDb2dVertex
10
698.619225857071
20
247.812500660366
30
0.0
0
SEQEND
5
c84
100
AcDbEntity
8
0-0
0
POLYLINE
5
c85
100
AcDbEntity
8
0-0
6
CONTINUOUS
62
  7
100
AcDb2dPolyline
66
1
10
0.0
20
0.0
30
0.0
70
0
0
VERTEX
5
c86
100
AcDbEntity
8
0-0
6
CONTINUOUS
62
  7
100
AcDbVertex
100
AcDb2dVertex
10
676.680177344287
20
247.812499762291
30
0.0
0
VERTEX
5
c87
100
AcDbEntity
8
0-0
6
CONTINUOUS
62
  7
100
AcDbVertex
100
AcDb2dVertex
10
677.347601238664
20
247.294244480163
30
0.0
0
VERTEX
5
c88
100
AcDbEntity
8
0-0
6
CONTINUOUS
62
  7
100
AcDbVertex
100
AcDb2dVertex
10
678.078068654565
20
246.926382265534
30
0.0
0
VERTEX
5
c89
100
AcDbEntity
8
0-0
6
CONTINUOUS
62
  7
100
AcDbVertex
100
AcDb2dVertex
10
678.849384709192
20
246.720090425649
30
0.0
0
VERTEX
5
c8a
100
AcDbEntity
8
0-0
6
CONTINUOUS
62
  7
100
AcDbVertex
100
AcDb2dVertex
10
679.638113354529
20
246.681637033674
30
0.0
0
VERTEX
5
c8b
100
AcDbEntity
8
0-0
6
CONTINUOUS
62
  7
100
AcDbVertex
100
AcDb2dVertex
10
680.420289469804
20
246.812190476466
30
0.0
0
VERTEX
5
c8c
100
AcDbEntity
8
0-0
6
CONTINUOUS
62
  7
100
AcDbVertex
100
AcDb2dVertex
10
681.172147029555
20
247.107783953729
30
0.0
0
VERTEX
5
c8d
100
AcDbEntity
8
0-0
6
CONTINUOUS
62
  7
100
AcDbVertex
100
AcDb2dVertex
10
681.870841222286
20
247.559436007234
30
0.0
0
VERTEX
5
c8e
100
AcDbEntity
8
0-0
6
CONTINUOUS
62
  7
100
AcDbVertex
100
AcDb2dVertex
10
682.164742824845
20
247.812500660366
30
0.0
0
SEQEND
5
c8f
100
AcDbEntity
8
0-0
0
LINE
5
c90
100
AcDbEntity
8
0-0
6
CONTINUOUS
62
7
100
AcDbLine
10
693.649701120828
20
246.675318876201
30
0.0
11
693.649701120828
21
208.875318876201
31
0.0
0
LINE
5
c91
100
AcDbEntity
8
0-0
6
CONTINUOUS
62
7
100
AcDbLine
10
681.649701120827
20
246.675318876201
30
0.0
11
681.649701120827
21
208.875318876201
31
0.0
0
LINE
5
c92
100
AcDbEntity
8
0-0
6
CONTINUOUS
62
7
100
AcDbLine
10
693.649701120828
20
287.875318876200
30
0.0
11
693.649701120828
21
273.875318876201
31
0.0
0
LINE
5
c93
100
AcDbEntity
8
0-0
6
CONTINUOUS
62
7
100
AcDbLine
10
681.649701120827
20
287.875318876200
30
0.0
11
681.649701120827
21
273.875318876201
31
0.0
0
LINE
5
c94
100
AcDbEntity
8
0-0
6
CONTINUOUS
62
4
100
AcDbLine
10
745.884654067503
20
199.275318876201
30
0.0
11
785.884654067503
21
199.275318876201
31
0.0
0
LINE
5
c95
100
AcDbEntity
8
0-0
6
CONTINUOUS
62
7
100
AcDbLine
10
783.884654067504
20
188.875318876201
30
0.0
11
747.884654067503
21
188.875318876201
31
0.0
0
POLYLINE
5
c96
100
AcDbEntity
8
0-0
6
CONTINUOUS
62
  7
100
AcDb2dPolyline
66
1
10
0.0
20
0.0
30
0.0
70
0
0
VERTEX
5
c97
100
AcDbEntity
8
0-0
6
CONTINUOUS
62
  7
100
AcDbVertex
100
AcDb2dVertex
10
760.884654067503
20
288.875318876201
30
0.0
0
VERTEX
5
c98
100
AcDbEntity
8
0-0
6
CONTINUOUS
62
  7
100
AcDbVertex
100
AcDb2dVertex
10
770.884654067503
20
288.875318876201
30
0.0
0
VERTEX
5
c99
100
AcDbEntity
8
0-0
6
CONTINUOUS
62
  7
100
AcDbVertex
100
AcDb2dVertex
10
771.884654067503
20
287.875318876200
30
0.0
0
SEQEND
5
c9a
100
AcDbEntity
8
0-0
0
LINE
5
c9b
100
AcDbEntity
8
0-0
6
CONTINUOUS
62
7
100
AcDbLine
10
759.884654067503
20
287.875318876200
30
0.0
11
760.884654067503
21
288.875318876201
31
0.0
0
LINE
5
c9c
100
AcDbEntity
8
0-0
6
CONTINUOUS
62
7
100
AcDbLine
10
785.884654067503
20
194.275318876201
30
0.0
11
745.884654067503
21
194.275318876201
31
0.0
0
LINE
5
c9d
100
AcDbEntity
8
0-0
6
CONTINUOUS
62
7
100
AcDbLine
10
783.884654067504
20
191.775318876201
30
0.0
11
783.884654067504
21
188.875318876201
31
0.0
0
LINE
5
c9e
100
AcDbEntity
8
0-0
6
CONTINUOUS
62
7
100
AcDbLine
10
747.884654067503
20
188.875318876201
30
0.0
11
747.884654067503
21
191.775318876201
31
0.0
0
LINE
5
c9f
100
AcDbEntity
8
0-0
6
CONTINUOUS
62
7
100
AcDbLine
10
748.884654067754
20
202.275318876201
30
0.0
11
782.884654067503
21
202.275318876201
31
0.0
0
POLYLINE
5
ca0
100
AcDbEntity
8
0-0
6
CONTINUOUS
62
  7
100
AcDb2dPolyline
66
1
10
0.0
20
0.0
30
0.0
70
0
0
VERTEX
5
ca1
100
AcDbEntity
8
0-0
6
CONTINUOUS
62
  7
100
AcDbVertex
100
AcDb2dVertex
10
777.884654067503
20
202.275318876201
30
0.0
0
VERTEX
5
ca2
100
AcDbEntity
8
0-0
6
CONTINUOUS
62
  7
100
AcDbVertex
100
AcDb2dVertex
10
777.884654067503
20
202.675318876201
30
0.0
0
VERTEX
5
ca3
100
AcDbEntity
8
0-0
6
CONTINUOUS
62
  7
100
AcDbVertex
100
AcDb2dVertex
10
753.884654067504
20
202.675318876201
30
0.0
0
VERTEX
5
ca4
100
AcDbEntity
8
0-0
6
CONTINUOUS
62
  7
100
AcDbVertex
100
AcDb2dVertex
10
753.884654067504
20
202.275318876201
30
0.0
0
SEQEND
5
ca5
100
AcDbEntity
8
0-0
0
POLYLINE
5
ca6
100
AcDbEntity
8
0-0
6
CONTINUOUS
62
  7
100
AcDb2dPolyline
66
1
10
0.0
20
0.0
30
0.0
70
0
0
VERTEX
5
ca7
100
AcDbEntity
8
0-0
6
CONTINUOUS
62
  7
100
AcDbVertex
100
AcDb2dVertex
10
754.914998952901
20
203.441681486421
30
0.0
0
VERTEX
5
ca8
100
AcDbEntity
8
0-0
6
CONTINUOUS
62
  7
100
AcDbVertex
100
AcDb2dVertex
10
755.606041227144
20
203.281271769598
30
0.0
0
VERTEX
5
ca9
100
AcDbEntity
8
0-0
6
CONTINUOUS
62
  7
100
AcDbVertex
100
AcDb2dVertex
10
756.298499851486
20
203.160769778682
30
0.0
0
VERTEX
5
caa
100
AcDbEntity
8
0-0
6
CONTINUOUS
62
  7
100
AcDbVertex
100
AcDb2dVertex
10
756.990206323444
20
203.086483018010
30
0.0
0
VERTEX
5
cab
100
AcDbEntity
8
0-0
6
CONTINUOUS
62
  7
100
AcDbVertex
100
AcDb2dVertex
10
757.681879396952
20
203.062448172703
30
0.0
0
VERTEX
5
cac
100
AcDbEntity
8
0-0
6
CONTINUOUS
62
  7
100
AcDbVertex
100
AcDb2dVertex
10
758.365051739254
20
203.089471946158
30
0.0
0
VERTEX
5
cad
100
AcDbEntity
8
0-0
6
CONTINUOUS
62
  7
100
AcDbVertex
100
AcDb2dVertex
10
759.046464097703
20
203.165092095615
30
0.0
0
VERTEX
5
cae
100
AcDbEntity
8
0-0
6
CONTINUOUS
62
  7
100
AcDbVertex
100
AcDb2dVertex
10
759.724365714289
20
203.284470430787
30
0.0
0
VERTEX
5
caf
100
AcDbEntity
8
0-0
6
CONTINUOUS
62
  7
100
AcDbVertex
100
AcDb2dVertex
10
760.399826510202
20
203.441681486421
30
0.0
0
VERTEX
5
cb0
100
AcDbEntity
8
0-0
6
CONTINUOUS
62
  7
100
AcDbVertex
100
AcDb2dVertex
10
762.810510480883
20
203.187578669647
30
0.0
0
VERTEX
5
cb1
100
AcDbEntity
8
0-0
6
CONTINUOUS
62
  7
100
AcDbVertex
100
AcDb2dVertex
10
765.223610436962
20
203.068343677692
30
0.0
0
VERTEX
5
cb2
100
AcDbEntity
8
0-0
6
CONTINUOUS
62
  7
100
AcDbVertex
100
AcDb2dVertex
10
767.612892712217
20
203.102653307166
30
0.0
0
VERTEX
5
cb3
100
AcDbEntity
8
0-0
6
CONTINUOUS
62
  7
100
AcDbVertex
100
AcDb2dVertex
10
769.987409720904
20
203.281273063343
30
0.0
0
VERTEX
5
cb4
100
AcDbEntity
8
0-0
6
CONTINUOUS
62
  7
100
AcDbVertex
100
AcDb2dVertex
10
771.369481624805
20
203.441681486421
30
0.0
0
VERTEX
5
cb5
100
AcDbEntity
8
0-0
6
CONTINUOUS
62
  7
100
AcDbVertex
100
AcDb2dVertex
10
772.060523899049
20
203.281271769598
30
0.0
0
VERTEX
5
cb6
100
AcDbEntity
8
0-0
6
CONTINUOUS
62
  7
100
AcDbVertex
100
AcDb2dVertex
10
772.752982523390
20
203.160769778682
30
0.0
0
VERTEX
5
cb7
100
AcDbEntity
8
0-0
6
CONTINUOUS
62
  7
100
AcDbVertex
100
AcDb2dVertex
10
773.444688995348
20
203.086483018010
30
0.0
0
VERTEX
5
cb8
100
AcDbEntity
8
0-0
6
CONTINUOUS
62
  7
100
AcDbVertex
100
AcDb2dVertex
10
774.136362068856
20
203.062448172703
30
0.0
0
VERTEX
5
cb9
100
AcDbEntity
8
0-0
6
CONTINUOUS
62
  7
100
AcDbVertex
100
AcDb2dVertex
10
774.819534411158
20
203.089471946158
30
0.0
0
VERTEX
5
cba
100
AcDbEntity
8
0-0
6
CONTINUOUS
62
  7
100
AcDbVertex
100
AcDb2dVertex
10
775.500946769607
20
203.165092095615
30
0.0
0
VERTEX
5
cbb
100
AcDbEntity
8
0-0
6
CONTINUOUS
62
  7
100
AcDbVertex
100
AcDb2dVertex
10
776.178848386194
20
203.284470430787
30
0.0
0
VERTEX
5
cbc
100
AcDbEntity
8
0-0
6
CONTINUOUS
62
  7
100
AcDbVertex
100
AcDb2dVertex
10
776.854309182106
20
203.441681486421
30
0.0
0
VERTEX
5
cbd
100
AcDbEntity
8
0-0
6
CONTINUOUS
62
  7
100
AcDbVertex
100
AcDb2dVertex
10
773.884654067504
20
202.675318876201
30
0.0
0
SEQEND
5
cbe
100
AcDbEntity
8
0-0
0
LINE
5
cbf
100
AcDbEntity
8
0-0
6
CONTINUOUS
62
7
100
AcDbLine
10
771.369481624805
20
203.441681486421
30
0.0
11
771.369481624805
21
208.875318876201
31
0.0
0
POLYLINE
5
cc0
100
AcDbEntity
8
0-0
6
CONTINUOUS
62
  7
100
AcDb2dPolyline
66
1
10
0.0
20
0.0
30
0.0
70
0
0
VERTEX
5
cc1
100
AcDbEntity
8
0-0
6
CONTINUOUS
62
  7
100
AcDbVertex
100
AcDb2dVertex
10
776.854309182106
20
208.875318876201
30
0.0
0
VERTEX
5
cc2
100
AcDbEntity
8
0-0
6
CONTINUOUS
62
  7
100
AcDbVertex
100
AcDb2dVertex
10
754.914998952901
20
208.875318876201
30
0.0
0
VERTEX
5
cc3
100
AcDbEntity
8
0-0
6
CONTINUOUS
62
  7
100
AcDbVertex
100
AcDb2dVertex
10
754.914998952901
20
203.441681486421
30
0.0
0
VERTEX
5
cc4
100
AcDbEntity
8
0-0
6
CONTINUOUS
62
  7
100
AcDbVertex
100
AcDb2dVertex
10
757.884654067503
20
202.675318876201
30
0.0
0
SEQEND
5
cc5
100
AcDbEntity
8
0-0
0
LINE
5
cc6
100
AcDbEntity
8
0-0
6
CONTINUOUS
62
7
100
AcDbLine
10
760.399826510202
20
203.441681486421
30
0.0
11
760.399826510202
21
208.875318876201
31
0.0
0
LINE
5
cc7
100
AcDbEntity
8
0-0
6
CONTINUOUS
62
7
100
AcDbLine
10
776.854309182106
20
208.875318876201
30
0.0
11
776.854309182106
21
203.441681486421
31
0.0
0
ARC
5
cc8
100
AcDbEntity
8
0-0
6
CONTINUOUS
62
7
100
AcDbCircle
10
748.884654067504
20
199.275318876201
30
0.0
40
3.000000000000
100
AcDbArc
50
89.999999999999
51
180.000000000000
0
ARC
5
cc9
100
AcDbEntity
8
0-0
6
CONTINUOUS
62
7
100
AcDbCircle
10
782.884654067503
20
199.275318876201
30
0.0
40
3.000000000000
100
AcDbArc
50
360.000000000000
51
450.000000000001
0
LINE
5
cca
100
AcDbEntity
8
0-0
6
CONTINUOUS
62
7
100
AcDbLine
10
745.884654067503
20
191.775318876201
30
0.0
11
745.884654067503
21
199.275318876201
31
0.0
0
LINE
5
ccb
100
AcDbEntity
8
0-0
6
CONTINUOUS
62
7
100
AcDbLine
10
745.884654067503
20
191.775318876201
30
0.0
11
785.884654067503
21
191.775318876201
31
0.0
0
LINE
5
ccc
100
AcDbEntity
8
0-0
6
CONTINUOUS
62
7
100
AcDbLine
10
785.884654067503
20
199.275318876201
30
0.0
11
785.884654067503
21
191.775318876201
31
0.0
0
LINE
5
ccd
100
AcDbEntity
8
0-0
6
CONTINUOUS
62
7
100
AcDbLine
10
757.657412551390
20
253.875318876201
30
0.0
11
774.111895583616
21
253.875318876201
31
0.0
0
ARC
5
cce
100
AcDbEntity
8
0-0
6
CONTINUOUS
62
7
100
AcDbCircle
10
765.884654067503
20
240.079574695521
30
0.0
40
13.795743942261
100
AcDbArc
50
66.573394775391
51
113.426589965820
0
POLYLINE
5
ccf
100
AcDbEntity
8
0-0
6
CONTINUOUS
62
  7
100
AcDb2dPolyline
66
1
10
0.0
20
0.0
30
0.0
70
0
0
VERTEX
5
cd0
100
AcDbEntity
8
0-0
6
CONTINUOUS
62
  7
100
AcDbVertex
100
AcDb2dVertex
10
776.854178803746
20
252.738137092036
30
0.0
0
VERTEX
5
cd1
100
AcDbEntity
8
0-0
6
CONTINUOUS
62
  7
100
AcDbVertex
100
AcDb2dVertex
10
776.186755021607
20
253.256392592740
30
0.0
0
VERTEX
5
cd2
100
AcDbEntity
8
0-0
6
CONTINUOUS
62
  7
100
AcDbVertex
100
AcDb2dVertex
10
775.456287685373
20
253.624255046591
30
0.0
0
VERTEX
5
cd3
100
AcDbEntity
8
0-0
6
CONTINUOUS
62
  7
100
AcDbVertex
100
AcDb2dVertex
10
774.684971675423
20
253.830547139075
30
0.0
0
VERTEX
5
cd4
100
AcDbEntity
8
0-0
6
CONTINUOUS
62
  7
100
AcDbVertex
100
AcDb2dVertex
10
773.896243038413
20
253.869000789352
30
0.0
0
VERTEX
5
cd5
100
AcDbEntity
8
0-0
6
CONTINUOUS
62
  7
100
AcDbVertex
100
AcDb2dVertex
10
773.114066894864
20
253.738447602716
30
0.0
0
VERTEX
5
cd6
100
AcDbEntity
8
0-0
6
CONTINUOUS
62
  7
100
AcDbVertex
100
AcDb2dVertex
10
772.362209271098
20
253.442854371680
30
0.0
0
VERTEX
5
cd7
100
AcDbEntity
8
0-0
6
CONTINUOUS
62
  7
100
AcDbVertex
100
AcDb2dVertex
10
771.663514980553
20
252.991202546992
30
0.0
0
VERTEX
5
cd8
100
AcDbEntity
8
0-0
6
CONTINUOUS
62
  7
100
AcDbVertex
100
AcDb2dVertex
10
771.369613323188
20
252.738137990110
30
0.0
0
SEQEND
5
cd9
100
AcDbEntity
8
0-0
0
POLYLINE
5
cda
100
AcDbEntity
8
0-0
6
CONTINUOUS
62
  7
100
AcDb2dPolyline
66
1
10
0.0
20
0.0
30
0.0
70
0
0
VERTEX
5
cdb
100
AcDbEntity
8
0-0
6
CONTINUOUS
62
  7
100
AcDbVertex
100
AcDb2dVertex
10
760.399695771521
20
252.738137092036
30
0.0
0
VERTEX
5
cdc
100
AcDbEntity
8
0-0
6
CONTINUOUS
62
  7
100
AcDbVertex
100
AcDb2dVertex
10
759.732271989381
20
253.256392592740
30
0.0
0
VERTEX
5
cdd
100
AcDbEntity
8
0-0
6
CONTINUOUS
62
  7
100
AcDbVertex
100
AcDb2dVertex
10
759.001804653147
20
253.624255046591
30
0.0
0
VERTEX
5
cde
100
AcDbEntity
8
0-0
6
CONTINUOUS
62
  7
100
AcDbVertex
100
AcDb2dVertex
10
758.230488643197
20
253.830547139075
30
0.0
0
VERTEX
5
cdf
100
AcDbEntity
8
0-0
6
CONTINUOUS
62
  7
100
AcDbVertex
100
AcDb2dVertex
10
757.441760006188
20
253.869000789352
30
0.0
0
VERTEX
5
ce0
100
AcDbEntity
8
0-0
6
CONTINUOUS
62
  7
100
AcDbVertex
100
AcDb2dVertex
10
756.659583862639
20
253.738447602716
30
0.0
0
VERTEX
5
ce1
100
AcDbEntity
8
0-0
6
CONTINUOUS
62
  7
100
AcDbVertex
100
AcDb2dVertex
10
755.907726238872
20
253.442854371680
30
0.0
0
VERTEX
5
ce2
100
AcDbEntity
8
0-0
6
CONTINUOUS
62
  7
100
AcDbVertex
100
AcDb2dVertex
10
755.209031948327
20
252.991202546992
30
0.0
0
VERTEX
5
ce3
100
AcDbEntity
8
0-0
6
CONTINUOUS
62
  7
100
AcDbVertex
100
AcDb2dVertex
10
754.915130290962
20
252.738137990110
30
0.0
0
SEQEND
5
ce4
100
AcDbEntity
8
0-0
0
LINE
5
ce5
100
AcDbEntity
8
0-0
6
CONTINUOUS
62
7
100
AcDbLine
10
760.399826549040
20
247.812500158244
30
0.0
11
760.399826549040
21
252.738137594157
31
0.0
0
LINE
5
ce6
100
AcDbEntity
8
0-0
6
CONTINUOUS
62
7
100
AcDbLine
10
776.854309104430
20
252.738137594157
30
0.0
11
776.854309104430
21
247.812500158244
31
0.0
0
LINE
5
ce7
100
AcDbEntity
8
0-0
6
CONTINUOUS
62
7
100
AcDbLine
10
774.111895583616
20
246.675318876201
30
0.0
11
757.657412551390
21
246.675318876201
31
0.0
0
LINE
5
ce8
100
AcDbEntity
8
0-0
6
CONTINUOUS
62
7
100
AcDbLine
10
754.914999030576
20
247.812500158244
30
0.0
11
754.914999030576
21
252.738137594157
31
0.0
0
LINE
5
ce9
100
AcDbEntity
8
0-0
6
CONTINUOUS
62
7
100
AcDbLine
10
771.369481585966
20
252.738137594157
30
0.0
11
771.369481585966
21
247.812500158244
31
0.0
0
ARC
5
cea
100
AcDbEntity
8
0-0
6
CONTINUOUS
62
7
100
AcDbCircle
10
765.884654067503
20
260.471063056880
30
0.0
40
13.795743942261
100
AcDbArc
50
246.573410034180
51
293.426605224609
0
POLYLINE
5
ceb
100
AcDbEntity
8
0-0
6
CONTINUOUS
62
  7
100
AcDb2dPolyline
66
1
10
0.0
20
0.0
30
0.0
70
0
0
VERTEX
5
cec
100
AcDbEntity
8
0-0
6
CONTINUOUS
62
  7
100
AcDbVertex
100
AcDb2dVertex
10
771.369613323188
20
247.812499762291
30
0.0
0
VERTEX
5
ced
100
AcDbEntity
8
0-0
6
CONTINUOUS
62
  7
100
AcDbVertex
100
AcDb2dVertex
10
772.037037217565
20
247.294244480163
30
0.0
0
VERTEX
5
cee
100
AcDbEntity
8
0-0
6
CONTINUOUS
62
  7
100
AcDbVertex
100
AcDb2dVertex
10
772.767504633466
20
246.926382265534
30
0.0
0
VERTEX
5
cef
100
AcDbEntity
8
0-0
6
CONTINUOUS
62
  7
100
AcDbVertex
100
AcDb2dVertex
10
773.538820688093
20
246.720090425649
30
0.0
0
VERTEX
5
cf0
100
AcDbEntity
8
0-0
6
CONTINUOUS
62
  7
100
AcDbVertex
100
AcDb2dVertex
10
774.327549333430
20
246.681637033674
30
0.0
0
VERTEX
5
cf1
100
AcDbEntity
8
0-0
6
CONTINUOUS
62
  7
100
AcDbVertex
100
AcDb2dVertex
10
775.109725448705
20
246.812190476466
30
0.0
0
VERTEX
5
cf2
100
AcDbEntity
8
0-0
6
CONTINUOUS
62
  7
100
AcDbVertex
100
AcDb2dVertex
10
775.861583008456
20
247.107783953729
30
0.0
0
VERTEX
5
cf3
100
AcDbEntity
8
0-0
6
CONTINUOUS
62
  7
100
AcDbVertex
100
AcDb2dVertex
10
776.560277201187
20
247.559436007234
30
0.0
0
VERTEX
5
cf4
100
AcDbEntity
8
0-0
6
CONTINUOUS
62
  7
100
AcDbVertex
100
AcDb2dVertex
10
776.854178803746
20
247.812500660366
30
0.0
0
SEQEND
5
cf5
100
AcDbEntity
8
0-0
0
POLYLINE
5
cf6
100
AcDbEntity
8
0-0
6
CONTINUOUS
62
  7
100
AcDb2dPolyline
66
1
10
0.0
20
0.0
30
0.0
70
0
0
VERTEX
5
cf7
100
AcDbEntity
8
0-0
6
CONTINUOUS
62
  7
100
AcDbVertex
100
AcDb2dVertex
10
754.915130290962
20
247.812499762291
30
0.0
0
VERTEX
5
cf8
100
AcDbEntity
8
0-0
6
CONTINUOUS
62
  7
100
AcDbVertex
100
AcDb2dVertex
10
755.582554185340
20
247.294244480163
30
0.0
0
VERTEX
5
cf9
100
AcDbEntity
8
0-0
6
CONTINUOUS
62
  7
100
AcDbVertex
100
AcDb2dVertex
10
756.313021601241
20
246.926382265534
30
0.0
0
VERTEX
5
cfa
100
AcDbEntity
8
0-0
6
CONTINUOUS
62
  7
100
AcDbVertex
100
AcDb2dVertex
10
757.084337655867
20
246.720090425649
30
0.0
0
VERTEX
5
cfb
100
AcDbEntity
8
0-0
6
CONTINUOUS
62
  7
100
AcDbVertex
100
AcDb2dVertex
10
757.873066301204
20
246.681637033674
30
0.0
0
VERTEX
5
cfc
100
AcDbEntity
8
0-0
6
CONTINUOUS
62
  7
100
AcDbVertex
100
AcDb2dVertex
10
758.655242416479
20
246.812190476466
30
0.0
0
VERTEX
5
cfd
100
AcDbEntity
8
0-0
6
CONTINUOUS
62
  7
100
AcDbVertex
100
AcDb2dVertex
10
759.407099976230
20
247.107783953729
30
0.0
0
VERTEX
5
cfe
100
AcDbEntity
8
0-0
6
CONTINUOUS
62
  7
100
AcDbVertex
100
AcDb2dVertex
10
760.105794168961
20
247.559436007234
30
0.0
0
VERTEX
5
cff
100
AcDbEntity
8
0-0
6
CONTINUOUS
62
  7
100
AcDbVertex
100
AcDb2dVertex
10
760.399695771521
20
247.812500660366
30
0.0
0
SEQEND
5
d00
100
AcDbEntity
8
0-0
0
LINE
5
d01
100
AcDbEntity
8
0-0
6
CONTINUOUS
62
7
100
AcDbLine
10
771.884654067503
20
246.675318876201
30
0.0
11
771.884654067503
21
208.875318876201
31
0.0
0
LINE
5
d02
100
AcDbEntity
8
0-0
6
CONTINUOUS
62
7
100
AcDbLine
10
759.884654067503
20
246.675318876201
30
0.0
11
759.884654067503
21
208.875318876201
31
0.0
0
LINE
5
d03
100
AcDbEntity
8
0-0
6
CONTINUOUS
62
7
100
AcDbLine
10
771.884654067503
20
287.875318876200
30
0.0
11
771.884654067503
21
273.875318876201
31
0.0
0
LINE
5
d04
100
AcDbEntity
8
0-0
6
CONTINUOUS
62
7
100
AcDbLine
10
759.884654067503
20
287.875318876200
30
0.0
11
759.884654067503
21
273.875318876201
31
0.0
0
CIRCLE
5
d05
100
AcDbEntity
8
0-0
6
CONTINUOUS
62
7
100
AcDbCircle
10
765.893819214853
20
134.941182342157
30
0.0
40
5.050000000000
0
CIRCLE
5
d06
100
AcDbEntity
8
0-0
6
CONTINUOUS
62
7
100
AcDbCircle
10
765.893819214853
20
134.941182342157
30
0.0
40
8.000000000000
0
TEXT
5
d07
100
AcDbEntity
8
0-0
62
7
370
-3
100
AcDbText
10
0.172
20
0.660
30
0.0
40
3.618
1
CAAJ25
41
0.379
50
0.000
100
AcDbText
0
LINE
5
d08
100
AcDbEntity
8
F-F_J_ADD
6
HIDDEN
62
253
100
AcDbLine
10
520.000000000000
20
0.000000000000
30
0.0
11
520.000000000000
21
550.000000000000
31
0.0
0
LINE
5
d09
100
AcDbEntity
8
F-F_J_ADD
6
HIDDEN
62
253
100
AcDbLine
10
0.000000000000
20
550.000000000000
30
0.0
11
995.000000000000
21
550.000000000000
31
0.0
0
LINE
5
d0a
100
AcDbEntity
8
F-F_J_ADD
6
HIDDEN
62
253
100
AcDbLine
10
0.000000000000
20
0.000000000000
30
0.0
11
995.000000000000
21
0.000000000000
31
0.0
0
LINE
5
d0b
100
AcDbEntity
8
F-F_J_ADD
6
HIDDEN
62
253
100
AcDbLine
10
995.000000000000
20
550.000000000000
30
0.0
11
995.000000000000
21
0.000000000000
31
0.0
0
LINE
5
d0c
100
AcDbEntity
8
F-F_J_ADD
6
HIDDEN
62
253
100
AcDbLine
10
0.000000000000
20
0.000000000000
30
0.0
11
0.000000000000
21
550.000000000000
31
0.0
0
TEXT
5
d0d
100
AcDbEntity
8
0-0
62
7
370
-3
100
AcDbText
10
520.200
20
0.768
30
0.0
40
4.208
1
AS25B-M12
41
0.525
50
0.000
100
AcDbText
0
ENDSEC
 0
SECTION
  2
OBJECTS
 0
DICTIONARY
  5
C
100
AcDbDictionary
  3
ACAD_GROUP
350
D
  3
ACAD_MLINESTYLE
350
E
 0
DICTIONARY
  5
D
102
{ACAD_REACTORS
102
}
100
AcDbDictionary
 0
DICTIONARY
  5
E
102
{ACAD_REACTORS
102
}
100
AcDbDictionary
  3
STANDARD
350
13
0
MLINESTYLE
  5
13
102
{ACAD_REACTORS
102
}
100
AcDbMlineStyle
  2
STANDARD
 70
    0
3

62
256
51
90.0
52
90.0
71
0
0
ACDBPLACEHOLDER
  5
14
102
{ACAD_REACTORS
102
}
0
ENDSEC
0
EOF
