0
SECTION
2
HEADER
9
$ACADVER
1
AC1015
9
$ACADMAINTVER
 70
6
9
$DWGCODEPAGE
3
ANSI_932
9
$EXTMIN
10
0.000
20
0.000
30
0.0
9
$EXTMAX
10
1189.000
20
841.000
30
0.0
9
$LIMMIN
10
0.000
20
0.000
9
$LIMMAX
10
1189.000
20
841.000
9
$DIMSCALE
40
1.000000
9
$LTSCALE
40
2.000
9
$PDMODE
70
0
9
$PDSIZE
40
40.0
9
$HANDSEED
5
621de
9
$UNITMODE
70
0
9
$VISRETAIN
70
0
9
$PLINEGEN
70
0
9
$PSLTSCALE
70
1
9
$TREEDEPTH
70
3020
9
$CMLSTYLE
2
STANDARD
9
$CMLJUST
70
0
9
$CMLSCALE
40
1.0
9
$PROXYGRAPHICS
70
1
9
$MEASUREMENT
70
0
9
$CELWEIGHT
370
-1
9
$ENDCAPS
280
0
9
$JOINSTYLE
280
0
9
$LWDISPLAY
290
0
9
$INSUNITS
70
0
9
$HYPERLINKBASE
1

9
$STYLESHEET
1

9
$XEDIT
290
1
9
$CEPSNTYPE
380
0
9
$PSTYLEMODE
290
1
9
$FINGERPRINTGUID
2
{5F082321-0195-11D3-BDFB-0060B0CD5109}
9
$VERSIONGUID
2
{12943756-294D-11D3-98C2-0060B087942D}
9
$EXTNAMES
290
1
9
$PSVPSCALE
40
0.0
9
$OLESTARTUP
290
0
0
ENDSEC
0
SECTION
  2
CLASSES
0
ENDSEC
0
SECTION
2
TABLES
0
TABLE
2
VPORT
5
190
100
AcDbSymbolTable
70
2
0
VPORT
5
191
100
AcDbSymbolTableRecord
100
AcDbViewportTableRecord
2
*ACTIVE
70
0
10
0.0
20
0.0
11
1.0
21
1.0
12
594.500
22
420.500
13
0.0
23
0.0
14
1.0
24
1.0
15
0.0
25
0.0
16
0.0
26
0.0
36
1.0
17
0.0
27
0.0
37
0.0
40
861.594
41
2.0
42
50.0
43
0.0
44
0.0
50
0.0
51
0.0
71
0
72
1000
73
1
74
1
75
0
76
0
77
0
78
0
0
ENDTAB
0
TABLE
2
LTYPE
5
1f4
100
AcDbSymbolTable
70
9
0
LTYPE
5
1f5
100
AcDbSymbolTableRecord
100
AcDbLinetypeTableRecord
2
BYBLOCK
70
 64
3

72
 65
73
  0
40
0.0
0
LTYPE
5
1f6
100
AcDbSymbolTableRecord
100
AcDbLinetypeTableRecord
2
BYLAYER
70
 64
3

72
 65
73
  0
40
0.0
0
LTYPE
5
1f7
100
AcDbSymbolTableRecord
100
AcDbLinetypeTableRecord
2
CONTINUOUS
70
64
3
SolidLine
72
65
73
0
40
0.0
0
LTYPE
5
1f8
100
AcDbSymbolTableRecord
100
AcDbLinetypeTableRecord
2
DOT
70
64
3
--  --  --  --  --  --  --  --     
72
65
73
2
40
3.000
49
1.000
74
0
49
-2.000
74
0
0
LTYPE
5
1f9
100
AcDbSymbolTableRecord
100
AcDbLinetypeTableRecord
2
DASHED
70
64
3
----    ----    ----    ----    
72
65
73
2
40
5.000
49
2.000
74
0
49
-3.000
74
0
0
LTYPE
5
1fa
100
AcDbSymbolTableRecord
100
AcDbLinetypeTableRecord
2
DASHED2
70
64
3
------  ------  ------  ------ 
72
65
73
2
40
10.000
49
4.000
74
0
49
-6.000
74
0
0
LTYPE
5
1fb
100
AcDbSymbolTableRecord
100
AcDbLinetypeTableRecord
2
CENTER
70
64
3
----- - ----- - ----- - ----- - 
72
65
73
4
40
10.000
49
6.000
74
0
49
-3.000
74
0
49
1.000
74
0
49
-3.000
74
0
0
LTYPE
5
1fc
100
AcDbSymbolTableRecord
100
AcDbLinetypeTableRecord
2
CENTER2
70
64
3
----------  --  ----------  -- 
72
65
73
4
40
17.000
49
12.000
74
0
49
-5.000
74
0
49
2.000
74
0
49
-5.000
74
0
0
LTYPE
5
1fd
100
AcDbSymbolTableRecord
100
AcDbLinetypeTableRecord
2
PHANTOM
70
64
3
--- - - --- - - --- - - --- - -
72
65
73
6
40
13.000
49
5.000
74
0
49
-3.000
74
0
49
1.000
74
0
49
-3.000
74
0
49
1.000
74
0
49
-3.000
74
0
0
LTYPE
5
1fe
100
AcDbSymbolTableRecord
100
AcDbLinetypeTableRecord
2
PHANTOM2
70
64
3
--------  -  -  --------  -  -
72
65
73
6
40
20.000
49
6.000
74
0
49
-5.000
74
0
49
2.000
74
0
49
-5.000
74
0
49
2.000
74
0
49
-5.000
74
0
0
LTYPE
5
1ff
100
AcDbSymbolTableRecord
100
AcDbLinetypeTableRecord
2
HIDDEN
70
64
3
-   -   -   -   -   -   -   -   
72
65
73
2
40
3.000
49
0.500
74
0
49
-2.500
74
0
0
ENDTAB
0
TABLE
2
STYLE
5
200
100
AcDbSymbolTable
70
1
0
STYLE
5
201
100
AcDbSymbolTableRecord
100
AcDbTextStyleTableRecord
2
STANDARD
70
0
40
0.0
41
1.0
50
0.0
71
0
42
0.0
3
txt.shx
4
extfont.shx
0
STYLE
5
202
100
AcDbSymbolTableRecord
100
AcDbTextStyleTableRecord
2
TATEGAKI
70
4
40
0.0
41
1.0
50
0.0
71
0
42
0.0
3
txt.shx
4
extfont.shx
0
STYLE
5
203
100
AcDbSymbolTableRecord
100
AcDbTextStyleTableRecord
2
DIM
70
0
40
0.0
41
0.75
50
0.0
71
0
42
0.0
3
txt.shx
4
extfont.shx
0
STYLE
5
204
100
AcDbSymbolTableRecord
100
AcDbTextStyleTableRecord
2
_Gothic_
70
0
40
1.0
41
1.0
50
0.0
71
0
42
10.0
3

4

1001
ACAD
1000
MS Gothic
1071
32817
0
STYLE
5
205
100
AcDbSymbolTableRecord
100
AcDbTextStyleTableRecord
2
_TateGothic_
70
4
40
0.0
41
1.0
50
0.0
71
0
42
0.0
3
@MS Gothic
4

0
ENDTAB
0
TABLE
2
VIEW
5
206
100
AcDbSymbolTable
70
0
0
ENDTAB
0
TABLE
2
UCS
5
207
100
AcDbSymbolTable
70
0
0
ENDTAB
0
TABLE
2
APPID
5
208
100
AcDbSymbolTable
70
1
0
APPID
5
209
100
AcDbSymbolTableRecord
100
AcDbRegAppTableRecord
2
ACAD
70
0
0
ENDTAB
0
TABLE
2
DIMSTYLE
5
403
330
0
100
AcDbSymbolTable
70
1
100
AcDbDimStyleTable
71
0
0
DIMSTYLE
105
404
330
402
100
AcDbSymbolTableRecord
100
AcDbDimStyleTableRecord
2
JAC_DIM
70
0
41
2.000
42
0.000
44
0.0
73
0
74
0
77
1
78
8
79
2
140
0.000
170
0
171
2
172
0
173
0
174
0
175
0
176
0
177
0
178
0
270
2
271
0
272
0
273
2
274
2
340
201
275
0
280
0
281
0
282
0
283
0
284
0
285
0
286
0
287
3
288
0
0
ENDTAB
0
TABLE
2
BLOCK_RECORD
5
405
100
AcDbSymbolTable
70
0
0
BLOCK_RECORD
5
406
100
AcDbSymbolTableRecord
100
AcDbBlockTableRecord
2
*MODEL_SPACE
0
BLOCK_RECORD
5
407
100
AcDbSymbolTableRecord
100
AcDbBlockTableRecord
2
*PAPER_SPACE
0
BLOCK_RECORD
5
408
100
AcDbSymbolTableRecord
100
AcDbBlockTableRecord
2
_JACCONVERT_
0
ENDTAB
0
TABLE
2
LAYER
5
409
100
AcDbSymbolTable
70
10
0
LAYER
5
40a
100
AcDbSymbolTableRecord
100
AcDbLayerTableRecord
2
0
70
0
62
7
6
CONTINUOUS
370
-3
390
14
0
LAYER
5
40b
100
AcDbSymbolTableRecord
100
AcDbLayerTableRecord
2
0-0
70
0
62
7
6
CONTINUOUS
370
-3
390
14
0
LAYER
5
40c
100
AcDbSymbolTableRecord
100
AcDbLayerTableRecord
2
0-1
70
0
62
7
6
CONTINUOUS
370
-3
390
14
0
LAYER
5
40d
100
AcDbSymbolTableRecord
100
AcDbLayerTableRecord
2
0-F
70
0
62
7
6
CONTINUOUS
370
-3
390
14
0
LAYER
5
40e
100
AcDbSymbolTableRecord
100
AcDbLayerTableRecord
2
F-F_J_ADD
70
0
62
-7
6
CONTINUOUS
290
0
370
-3
390
14
0
ENDTAB
0
ENDSEC
0
SECTION
2
BLOCKS
0
BLOCK
5
40f
100
AcDbEntity
67
1
8
0
100
AcDbBlockBegin
2
*MODEL_SPACE
70
0
10
0.0
20
0.0
30
0.0
3
*MODEL_SPACE
1

0
ENDBLK
5
410
100
AcDbEntity
8
0
100
AcDbBlockEnd
0
BLOCK
5
411
100
AcDbEntity
67
1
8
0
100
AcDbBlockBegin
2
*PAPER_SPACE
70
0
10
0.0
20
0.0
30
0.0
3
*PAPER_SPACE
1

0
ENDBLK
5
412
100
AcDbEntity
67
1
8
0
100
AcDbBlockEnd
0
BLOCK
5
413
100
AcDbEntity
8
0
100
AcDbBlockBegin
2
_JACCONVERT_
70
2
10
0.0
20
0.0
30
0.0
3
_JACCONVERT_
1
_JACCONVERT_
0
ATTDEF
5
414
100
AcDbEntity
8
0
62
0
100
AcDbText
10
0.0
20
0.0
30
0.0
40
1.0
1
User:UnSettingUp
100
AcDbAttributeDefinition
3

2
USER
70
8
0
ATTDEF
5
415
100
AcDbEntity
8
0
62
0
100
AcDbText
10
0.0
20
2.0
30
0.0
40
1.0
1
Date:23/07/14 16:41
100
AcDbAttributeDefinition
3

2
REVDATE
70
8
0
ATTDEF
5
416
100
AcDbEntity
8
0
62
0
100
AcDbText
10
0.0
20
4.0
30
0.0
40
1.0
1
File:106_LECO25_foot_caster.dxf
100
AcDbAttributeDefinition
3

2
FNAME
70
8
0
ATTDEF
5
417
100
AcDbEntity
8
0
62
0
100
AcDbText
10
0.0
20
6.0
30
0.0
40
1.0
1
JacConvert Version3.11 copyright (c) 2001-2016 K.Nakahara
100
AcDbAttributeDefinition
3

2
VER
70
8
0
ENDBLK
5
418
100
AcDbEntity
67
1
8
0
100
AcDbBlockEnd
0
ENDSEC
0
SECTION
2
ENTITIES
0
LINE
5
419
100
AcDbEntity
8
0-0
6
CONTINUOUS
62
7
100
AcDbLine
10
107.000000000000
20
123.500000000000
30
0.0
11
123.000000000000
21
123.500000000000
31
0.0
0
LINE
5
41a
100
AcDbEntity
8
0-0
6
CONTINUOUS
62
7
100
AcDbLine
10
118.500000000000
20
142.500000000000
30
0.0
11
120.000000000000
21
141.000000000000
31
0.0
0
POLYLINE
5
41b
100
AcDbEntity
8
0-0
6
CONTINUOUS
62
  7
100
AcDb2dPolyline
66
1
10
0.0
20
0.0
30
0.0
70
0
0
VERTEX
5
41c
100
AcDbEntity
8
0-0
6
CONTINUOUS
62
  7
100
AcDbVertex
100
AcDb2dVertex
10
110.000000000000
20
141.000000000000
30
0.0
0
VERTEX
5
41d
100
AcDbEntity
8
0-0
6
CONTINUOUS
62
  7
100
AcDbVertex
100
AcDb2dVertex
10
111.500000000000
20
142.500000000000
30
0.0
0
VERTEX
5
41e
100
AcDbEntity
8
0-0
6
CONTINUOUS
62
  7
100
AcDbVertex
100
AcDb2dVertex
10
118.500000000000
20
142.500000000000
30
0.0
0
SEQEND
5
41f
100
AcDbEntity
8
0-0
0
LINE
5
420
100
AcDbEntity
8
0-0
6
CONTINUOUS
62
7
100
AcDbLine
10
120.000000000000
20
141.000000000000
30
0.0
11
120.000000000000
21
123.500000000000
31
0.0
0
LINE
5
421
100
AcDbEntity
8
0-0
6
CONTINUOUS
62
7
100
AcDbLine
10
110.000000000000
20
123.500000000000
30
0.0
11
110.000000000000
21
141.000000000000
31
0.0
0
LINE
5
422
100
AcDbEntity
8
0-0
6
CONTINUOUS
62
7
100
AcDbLine
10
107.000000000000
20
119.000000000000
30
0.0
11
123.000001000000
21
119.000000000000
31
0.0
0
LINE
5
423
100
AcDbEntity
8
0-0
6
CONTINUOUS
62
7
100
AcDbLine
10
18.787440072839
20
112.500000000000
30
0.0
11
18.787440072839
21
87.500000000000
31
0.0
0
LINE
5
424
100
AcDbEntity
8
0-0
6
CONTINUOUS
62
7
100
AcDbLine
10
23.743501072839
20
80.000000000000
30
0.0
11
29.037440072839
21
80.000000000000
31
0.0
0
LINE
5
425
100
AcDbEntity
8
0-0
6
CONTINUOUS
62
7
100
AcDbLine
10
29.537440072839
20
80.500000000000
30
0.0
11
29.537440072839
21
119.500000000000
31
0.0
0
LINE
5
426
100
AcDbEntity
8
0-0
6
CONTINUOUS
62
7
100
AcDbLine
10
29.037440072839
20
120.000000000000
30
0.0
11
23.743501072839
21
120.000000000000
31
0.0
0
LINE
5
427
100
AcDbEntity
8
0-0
6
CONTINUOUS
62
7
100
AcDbLine
10
30.787440072839
20
118.450972000000
30
0.0
11
30.787440072839
21
93.058380000000
31
0.0
0
LINE
5
428
100
AcDbEntity
8
0-0
6
CONTINUOUS
62
7
100
AcDbLine
10
31.087440072838
20
93.000000000000
30
0.0
11
47.987440072839
21
93.000000000000
31
0.0
0
LINE
5
429
100
AcDbEntity
8
0-0
6
CONTINUOUS
62
7
100
AcDbLine
10
48.287440072839
20
93.058380000000
30
0.0
11
48.287440072839
21
118.450972000000
31
0.0
0
POLYLINE
5
42a
100
AcDbEntity
8
0-0
6
CONTINUOUS
62
  7
100
AcDb2dPolyline
66
1
10
0.0
20
0.0
30
0.0
70
0
0
VERTEX
5
42b
100
AcDbEntity
8
0-0
6
CONTINUOUS
62
  7
100
AcDbVertex
100
AcDb2dVertex
10
48.037440072839
20
117.329786000000
30
0.0
0
VERTEX
5
42c
100
AcDbEntity
8
0-0
6
CONTINUOUS
62
  7
100
AcDbVertex
100
AcDb2dVertex
10
48.037440072839
20
104.500000000000
30
0.0
0
VERTEX
5
42d
100
AcDbEntity
8
0-0
6
CONTINUOUS
62
  7
100
AcDbVertex
100
AcDb2dVertex
10
45.187440072838
20
104.500000000000
30
0.0
0
SEQEND
5
42e
100
AcDbEntity
8
0-0
0
LINE
5
42f
100
AcDbEntity
8
0-0
6
CONTINUOUS
62
7
100
AcDbLine
10
45.187440072838
20
104.000000000000
30
0.0
11
45.187440072838
21
113.825382000000
31
0.0
0
LINE
5
430
100
AcDbEntity
8
0-0
6
CONTINUOUS
62
7
100
AcDbLine
10
46.037440072839
20
113.825382000000
30
0.0
11
33.037440072839
21
113.825382000000
31
0.0
0
POLYLINE
5
431
100
AcDbEntity
8
0-0
6
CONTINUOUS
62
  7
100
AcDb2dPolyline
66
1
10
0.0
20
0.0
30
0.0
70
0
0
VERTEX
5
432
100
AcDbEntity
8
0-0
6
CONTINUOUS
62
  7
100
AcDbVertex
100
AcDb2dVertex
10
33.887440072838
20
113.825382000000
30
0.0
0
VERTEX
5
433
100
AcDbEntity
8
0-0
6
CONTINUOUS
62
  7
100
AcDbVertex
100
AcDb2dVertex
10
33.887440072838
20
104.000000000000
30
0.0
0
VERTEX
5
434
100
AcDbEntity
8
0-0
6
CONTINUOUS
62
  7
100
AcDbVertex
100
AcDb2dVertex
10
30.787440072839
20
104.000000000000
30
0.0
0
SEQEND
5
435
100
AcDbEntity
8
0-0
0
LINE
5
436
100
AcDbEntity
8
0-0
6
CONTINUOUS
62
7
100
AcDbLine
10
30.787440072839
20
103.700000000000
30
0.0
11
29.537440072839
21
103.700000000000
31
0.0
0
LINE
5
437
100
AcDbEntity
8
0-0
6
CONTINUOUS
62
7
100
AcDbLine
10
29.537440072839
20
102.500000000000
30
0.0
11
30.787440072839
21
102.500000000000
31
0.0
0
LINE
5
438
100
AcDbEntity
8
0-0
6
CONTINUOUS
62
7
100
AcDbLine
10
30.287440072839
20
102.500000000000
30
0.0
11
30.287440072839
21
93.800000000000
31
0.0
0
POLYLINE
5
439
100
AcDbEntity
8
0-0
6
CONTINUOUS
62
  7
100
AcDb2dPolyline
66
1
10
0.0
20
0.0
30
0.0
70
0
0
VERTEX
5
43a
100
AcDbEntity
8
0-0
6
CONTINUOUS
62
  7
100
AcDbVertex
100
AcDb2dVertex
10
34.312440072838
20
91.900000000000
30
0.0
0
VERTEX
5
43b
100
AcDbEntity
8
0-0
6
CONTINUOUS
62
  7
100
AcDbVertex
100
AcDb2dVertex
10
34.312440072838
20
90.900000000000
30
0.0
0
VERTEX
5
43c
100
AcDbEntity
8
0-0
6
CONTINUOUS
62
  7
100
AcDbVertex
100
AcDb2dVertex
10
44.762440072839
20
90.900000000000
30
0.0
0
VERTEX
5
43d
100
AcDbEntity
8
0-0
6
CONTINUOUS
62
  7
100
AcDbVertex
100
AcDb2dVertex
10
44.762440072839
20
91.900000000000
30
0.0
0
VERTEX
5
43e
100
AcDbEntity
8
0-0
6
CONTINUOUS
62
  7
100
AcDbVertex
100
AcDb2dVertex
10
34.312440072838
20
91.900000000000
30
0.0
0
SEQEND
5
43f
100
AcDbEntity
8
0-0
0
LINE
5
440
100
AcDbEntity
8
0-0
6
CONTINUOUS
62
7
100
AcDbLine
10
36.537440072839
20
91.900000000000
30
0.0
11
36.537440072839
21
93.000000000000
31
0.0
0
POLYLINE
5
441
100
AcDbEntity
8
0-0
6
CONTINUOUS
62
  7
100
AcDb2dPolyline
66
1
10
0.0
20
0.0
30
0.0
70
0
0
VERTEX
5
442
100
AcDbEntity
8
0-0
6
CONTINUOUS
62
  7
100
AcDbVertex
100
AcDb2dVertex
10
36.037440072839
20
90.900000000000
30
0.0
0
VERTEX
5
443
100
AcDbEntity
8
0-0
6
CONTINUOUS
62
  7
100
AcDbVertex
100
AcDb2dVertex
10
36.037440072839
20
86.900000000000
30
0.0
0
VERTEX
5
444
100
AcDbEntity
8
0-0
6
CONTINUOUS
62
  7
100
AcDbVertex
100
AcDb2dVertex
10
43.037440072839
20
86.900000000000
30
0.0
0
VERTEX
5
445
100
AcDbEntity
8
0-0
6
CONTINUOUS
62
  7
100
AcDbVertex
100
AcDb2dVertex
10
43.037440072839
20
90.900000000000
30
0.0
0
SEQEND
5
446
100
AcDbEntity
8
0-0
0
LINE
5
447
100
AcDbEntity
8
0-0
6
CONTINUOUS
62
7
100
AcDbLine
10
42.537440072839
20
91.900000000000
30
0.0
11
42.537440072839
21
93.000000000000
31
0.0
0
LINE
5
448
100
AcDbEntity
8
0-0
6
CONTINUOUS
62
7
100
AcDbLine
10
39.537440072839
20
90.900000000000
30
0.0
11
39.537440072839
21
87.400000000000
31
0.0
0
LINE
5
449
100
AcDbEntity
8
0-0
6
CONTINUOUS
62
7
100
AcDbLine
10
43.037440072839
20
142.500000000000
30
0.0
11
44.537440072839
21
141.000000000000
31
0.0
0
LINE
5
44a
100
AcDbEntity
8
0-0
6
CONTINUOUS
62
7
100
AcDbLine
10
34.537440072839
20
141.000000000000
30
0.0
11
34.537440072839
21
123.500000000000
31
0.0
0
LINE
5
44b
100
AcDbEntity
8
0-0
6
CONTINUOUS
62
7
100
AcDbLine
10
36.037440072839
20
142.500000000000
30
0.0
11
43.037440072839
21
142.500000000000
31
0.0
0
LINE
5
44c
100
AcDbEntity
8
0-0
6
CONTINUOUS
62
7
100
AcDbLine
10
44.537440072839
20
123.500000000000
30
0.0
11
44.537440072839
21
141.000000000000
31
0.0
0
LINE
5
44d
100
AcDbEntity
8
0-0
6
CONTINUOUS
62
7
100
AcDbLine
10
36.037440072839
20
142.500000000000
30
0.0
11
34.537440072839
21
141.000000000000
31
0.0
0
POLYLINE
5
44e
100
AcDbEntity
8
0-0
6
CONTINUOUS
62
  7
100
AcDb2dPolyline
66
1
10
0.0
20
0.0
30
0.0
70
0
0
VERTEX
5
44f
100
AcDbEntity
8
0-0
6
CONTINUOUS
62
  7
100
AcDbVertex
100
AcDb2dVertex
10
46.537440072839
20
123.500000000000
30
0.0
0
VERTEX
5
450
100
AcDbEntity
8
0-0
6
CONTINUOUS
62
  7
100
AcDbVertex
100
AcDb2dVertex
10
46.537440072839
20
119.000000000000
30
0.0
0
VERTEX
5
451
100
AcDbEntity
8
0-0
6
CONTINUOUS
62
  7
100
AcDbVertex
100
AcDb2dVertex
10
32.537440072839
20
119.000000000000
30
0.0
0
VERTEX
5
452
100
AcDbEntity
8
0-0
6
CONTINUOUS
62
  7
100
AcDbVertex
100
AcDb2dVertex
10
32.537440072839
20
123.500000000000
30
0.0
0
VERTEX
5
453
100
AcDbEntity
8
0-0
6
CONTINUOUS
62
  7
100
AcDbVertex
100
AcDb2dVertex
10
46.537440072839
20
123.500000000000
30
0.0
0
SEQEND
5
454
100
AcDbEntity
8
0-0
0
LINE
5
455
100
AcDbEntity
8
0-0
6
CONTINUOUS
62
7
100
AcDbLine
10
46.537440072839
20
118.829786000000
30
0.0
11
32.537440072839
21
118.829786000000
31
0.0
0
POLYLINE
5
456
100
AcDbEntity
8
0-0
6
CONTINUOUS
62
  7
100
AcDb2dPolyline
66
1
10
0.0
20
0.0
30
0.0
70
0
0
VERTEX
5
457
100
AcDbEntity
8
0-0
6
CONTINUOUS
62
  7
100
AcDbVertex
100
AcDb2dVertex
10
31.037440072839
20
117.329786000000
30
0.0
0
VERTEX
5
458
100
AcDbEntity
8
0-0
6
CONTINUOUS
62
  7
100
AcDbVertex
100
AcDb2dVertex
10
31.037440072839
20
104.500000000000
30
0.0
0
VERTEX
5
459
100
AcDbEntity
8
0-0
6
CONTINUOUS
62
  7
100
AcDbVertex
100
AcDb2dVertex
10
33.887440072838
20
104.500000000000
30
0.0
0
SEQEND
5
45a
100
AcDbEntity
8
0-0
0
LINE
5
45b
100
AcDbEntity
8
0-0
6
CONTINUOUS
62
7
100
AcDbLine
10
33.887440072838
20
107.000000000000
30
0.0
11
45.187440072838
21
107.000000000000
31
0.0
0
LINE
5
45c
100
AcDbEntity
8
0-0
6
CONTINUOUS
62
7
100
AcDbLine
10
45.187440072838
20
104.000000000000
30
0.0
11
48.287440072839
21
104.000000000000
31
0.0
0
LINE
5
45d
100
AcDbEntity
8
0-0
6
CONTINUOUS
62
7
100
AcDbLine
10
48.287440072839
20
103.700000000000
30
0.0
11
49.537440072839
21
103.700000000000
31
0.0
0
LINE
5
45e
100
AcDbEntity
8
0-0
6
CONTINUOUS
62
7
100
AcDbLine
10
49.537440072839
20
102.500000000000
30
0.0
11
48.287440072839
21
102.500000000000
31
0.0
0
LINE
5
45f
100
AcDbEntity
8
0-0
6
CONTINUOUS
62
7
100
AcDbLine
10
48.787440072839
20
102.500000000000
30
0.0
11
48.787440072839
21
93.800000000000
31
0.0
0
LINE
5
460
100
AcDbEntity
8
0-0
6
CONTINUOUS
62
7
100
AcDbLine
10
48.287440072839
20
106.500000000000
30
0.0
11
49.537440072839
21
106.500000000000
31
0.0
0
LINE
5
461
100
AcDbEntity
8
0-0
6
CONTINUOUS
62
7
100
AcDbLine
10
45.187440072838
20
112.000000000000
30
0.0
11
33.887440072838
21
112.000000000000
31
0.0
0
LINE
5
462
100
AcDbEntity
8
0-0
6
CONTINUOUS
62
7
100
AcDbLine
10
32.537440072839
20
114.325382000000
30
0.0
11
32.537440072839
21
115.238677000000
31
0.0
0
LINE
5
463
100
AcDbEntity
8
0-0
6
CONTINUOUS
62
7
100
AcDbLine
10
33.037440072839
20
115.738677000000
30
0.0
11
46.037440072839
21
115.738677000000
31
0.0
0
LINE
5
464
100
AcDbEntity
8
0-0
6
CONTINUOUS
62
7
100
AcDbLine
10
46.537440072839
20
115.238677000000
30
0.0
11
46.537440072839
21
114.325382000000
31
0.0
0
LINE
5
465
100
AcDbEntity
8
0-0
6
CONTINUOUS
62
7
100
AcDbLine
10
49.537440072839
20
119.500000000000
30
0.0
11
49.537440072839
21
80.500000000000
31
0.0
0
LINE
5
466
100
AcDbEntity
8
0-0
6
CONTINUOUS
62
7
100
AcDbLine
10
50.037440072839
20
80.000000000000
30
0.0
11
55.331379072839
21
80.000000000000
31
0.0
0
LINE
5
467
100
AcDbEntity
8
0-0
6
CONTINUOUS
62
7
100
AcDbLine
10
60.287440072839
20
87.500000000000
30
0.0
11
60.287440072839
21
112.500000000000
31
0.0
0
LINE
5
468
100
AcDbEntity
8
0-0
6
CONTINUOUS
62
7
100
AcDbLine
10
55.331379072839
20
120.000000000000
30
0.0
11
50.037440072839
21
120.000000000000
31
0.0
0
LINE
5
469
100
AcDbEntity
8
0-0
6
CONTINUOUS
62
7
100
AcDbLine
10
73.021853000000
20
114.539255000000
30
0.0
11
73.123782000000
21
114.059714000000
31
0.0
0
LINE
5
46a
100
AcDbEntity
8
0-0
6
CONTINUOUS
62
7
100
AcDbLine
10
87.500000000000
20
156.399725849585
30
0.0
11
112.500000000000
21
156.399725849585
31
0.0
0
LINE
5
46b
100
AcDbEntity
8
0-0
6
CONTINUOUS
62
7
100
AcDbLine
10
120.000000000000
20
161.355786849584
30
0.0
11
120.000000000000
21
166.649725849585
31
0.0
0
LINE
5
46c
100
AcDbEntity
8
0-0
6
CONTINUOUS
62
7
100
AcDbLine
10
119.500000000000
20
167.149725849585
30
0.0
11
80.500000000000
21
167.149725849585
31
0.0
0
LINE
5
46d
100
AcDbEntity
8
0-0
6
CONTINUOUS
62
7
100
AcDbLine
10
80.000000000000
20
166.649725849585
30
0.0
11
80.000000000000
21
161.355786849584
31
0.0
0
LINE
5
46e
100
AcDbEntity
8
0-0
6
CONTINUOUS
62
7
100
AcDbLine
10
81.549028000000
20
168.399725849585
30
0.0
11
118.450972000000
21
168.399725849585
31
0.0
0
LINE
5
46f
100
AcDbEntity
8
0-0
6
CONTINUOUS
62
7
100
AcDbLine
10
120.154440000000
20
170.149725849585
30
0.0
11
109.845560000000
21
170.149725849585
31
0.0
0
LINE
5
470
100
AcDbEntity
8
0-0
6
CONTINUOUS
62
7
100
AcDbLine
10
106.000000000000
20
167.899725849585
30
0.0
11
93.800000000000
21
167.899725849585
31
0.0
0
LINE
5
471
100
AcDbEntity
8
0-0
6
CONTINUOUS
62
7
100
AcDbLine
10
91.000000000000
20
168.399725849585
30
0.0
11
91.000000000000
21
167.149725849585
31
0.0
0
LINE
5
472
100
AcDbEntity
8
0-0
6
CONTINUOUS
62
7
100
AcDbLine
10
89.150564000000
20
168.649725849585
30
0.0
11
76.000000000000
21
168.649725849585
31
0.0
0
LINE
5
473
100
AcDbEntity
8
0-0
6
CONTINUOUS
62
7
100
AcDbLine
10
73.000000000000
20
171.649725849585
30
0.0
11
73.000000000000
21
182.649725849585
31
0.0
0
LINE
5
474
100
AcDbEntity
8
0-0
6
CONTINUOUS
62
7
100
AcDbLine
10
76.000000000000
20
185.649725849585
30
0.0
11
89.150564000000
21
185.649725849585
31
0.0
0
LINE
5
475
100
AcDbEntity
8
0-0
6
CONTINUOUS
62
7
100
AcDbLine
10
91.000000000000
20
185.899725849585
30
0.0
11
91.000000000000
21
187.149725849585
31
0.0
0
LINE
5
476
100
AcDbEntity
8
0-0
6
CONTINUOUS
62
7
100
AcDbLine
10
93.800000000000
20
186.399725849585
30
0.0
11
106.000000000000
21
186.399725849585
31
0.0
0
LINE
5
477
100
AcDbEntity
8
0-0
6
CONTINUOUS
62
7
100
AcDbLine
10
109.845560000000
20
184.149725849585
30
0.0
11
120.154440000000
21
184.149725849585
31
0.0
0
LINE
5
478
100
AcDbEntity
8
0-0
6
CONTINUOUS
62
7
100
AcDbLine
10
118.450972000000
20
185.899725849585
30
0.0
11
81.549028000000
21
185.899725849585
31
0.0
0
LINE
5
479
100
AcDbEntity
8
0-0
6
CONTINUOUS
62
7
100
AcDbLine
10
80.500000000000
20
187.149725849585
30
0.0
11
119.500000000000
21
187.149725849585
31
0.0
0
LINE
5
47a
100
AcDbEntity
8
0-0
6
CONTINUOUS
62
7
100
AcDbLine
10
120.000000000000
20
187.649725849585
30
0.0
11
120.000000000000
21
192.943664849585
31
0.0
0
LINE
5
47b
100
AcDbEntity
8
0-0
6
CONTINUOUS
62
7
100
AcDbLine
10
112.500000000000
20
197.899725849585
30
0.0
11
87.500000000000
21
197.899725849585
31
0.0
0
LINE
5
47c
100
AcDbEntity
8
0-0
6
CONTINUOUS
62
7
100
AcDbLine
10
87.000000000000
20
187.149725849585
30
0.0
11
87.000000000000
21
185.899725849585
31
0.0
0
LINE
5
47d
100
AcDbEntity
8
0-0
6
CONTINUOUS
62
7
100
AcDbLine
10
85.000000000000
20
185.899725849585
30
0.0
11
85.000000000000
21
187.149725849585
31
0.0
0
LINE
5
47e
100
AcDbEntity
8
0-0
6
CONTINUOUS
62
7
100
AcDbLine
10
80.000000000000
20
187.649725849585
30
0.0
11
80.000000000000
21
192.943664849585
31
0.0
0
LINE
5
47f
100
AcDbEntity
8
0-0
6
CONTINUOUS
62
7
100
AcDbLine
10
90.577840000000
20
182.649725849585
30
0.0
11
90.577840000000
21
171.649725849585
31
0.0
0
LINE
5
480
100
AcDbEntity
8
0-0
6
CONTINUOUS
62
7
100
AcDbLine
10
92.150564000000
20
171.649725849585
30
0.0
11
92.150564000000
21
182.649725849585
31
0.0
0
LINE
5
481
100
AcDbEntity
8
0-0
6
CONTINUOUS
62
7
100
AcDbLine
10
87.000000000000
20
168.399725849585
30
0.0
11
87.000000000000
21
167.149725849585
31
0.0
0
LINE
5
482
100
AcDbEntity
8
0-0
6
CONTINUOUS
62
7
100
AcDbLine
10
85.000000000000
20
167.149725849585
30
0.0
11
85.000000000000
21
168.399725849585
31
0.0
0
LINE
5
483
100
AcDbEntity
8
0-0
6
CONTINUOUS
62
7
100
AcDbLine
10
162.637792264462
20
87.400000000000
30
0.0
11
162.637792264462
21
90.900000000000
31
0.0
0
POLYLINE
5
484
100
AcDbEntity
8
0-0
6
CONTINUOUS
62
  7
100
AcDb2dPolyline
66
1
10
0.0
20
0.0
30
0.0
70
0
0
VERTEX
5
485
100
AcDbEntity
8
0-0
6
CONTINUOUS
62
  7
100
AcDbVertex
100
AcDb2dVertex
10
163.387792264461
20
90.900000000000
30
0.0
0
VERTEX
5
486
100
AcDbEntity
8
0-0
6
CONTINUOUS
62
  7
100
AcDbVertex
100
AcDb2dVertex
10
163.387792264461
20
91.900000000000
30
0.0
0
VERTEX
5
487
100
AcDbEntity
8
0-0
6
CONTINUOUS
62
  7
100
AcDbVertex
100
AcDb2dVertex
10
167.862792264461
20
91.900000000000
30
0.0
0
VERTEX
5
488
100
AcDbEntity
8
0-0
6
CONTINUOUS
62
  7
100
AcDbVertex
100
AcDb2dVertex
10
167.862792264461
20
90.900000000000
30
0.0
0
VERTEX
5
489
100
AcDbEntity
8
0-0
6
CONTINUOUS
62
  7
100
AcDbVertex
100
AcDb2dVertex
10
157.412792264461
20
90.900000000000
30
0.0
0
VERTEX
5
48a
100
AcDbEntity
8
0-0
6
CONTINUOUS
62
  7
100
AcDbVertex
100
AcDb2dVertex
10
157.412792264461
20
91.900000000000
30
0.0
0
VERTEX
5
48b
100
AcDbEntity
8
0-0
6
CONTINUOUS
62
  7
100
AcDbVertex
100
AcDb2dVertex
10
161.887792264461
20
91.900000000000
30
0.0
0
VERTEX
5
48c
100
AcDbEntity
8
0-0
6
CONTINUOUS
62
  7
100
AcDbVertex
100
AcDb2dVertex
10
161.887792264461
20
90.900000000000
30
0.0
0
SEQEND
5
48d
100
AcDbEntity
8
0-0
0
POLYLINE
5
48e
100
AcDbEntity
8
0-0
6
CONTINUOUS
62
  7
100
AcDb2dPolyline
66
1
10
0.0
20
0.0
30
0.0
70
0
0
VERTEX
5
48f
100
AcDbEntity
8
0-0
6
CONTINUOUS
62
  7
100
AcDbVertex
100
AcDb2dVertex
10
159.137792264461
20
90.900000000000
30
0.0
0
VERTEX
5
490
100
AcDbEntity
8
0-0
6
CONTINUOUS
62
  7
100
AcDbVertex
100
AcDb2dVertex
10
159.137792264461
20
86.900000000000
30
0.0
0
VERTEX
5
491
100
AcDbEntity
8
0-0
6
CONTINUOUS
62
  7
100
AcDbVertex
100
AcDb2dVertex
10
166.137792264461
20
86.900000000000
30
0.0
0
VERTEX
5
492
100
AcDbEntity
8
0-0
6
CONTINUOUS
62
  7
100
AcDbVertex
100
AcDb2dVertex
10
166.137792264461
20
90.900000000000
30
0.0
0
SEQEND
5
493
100
AcDbEntity
8
0-0
0
LINE
5
494
100
AcDbEntity
8
0-0
6
CONTINUOUS
62
7
100
AcDbLine
10
165.637792264461
20
91.900000000000
30
0.0
11
165.637792264461
21
93.350000000000
31
0.0
0
LINE
5
495
100
AcDbEntity
8
0-0
6
CONTINUOUS
62
7
100
AcDbLine
10
165.637792264461
20
93.000000000000
30
0.0
11
171.087792264461
21
93.000000000000
31
0.0
0
LINE
5
496
100
AcDbEntity
8
0-0
6
CONTINUOUS
62
7
100
AcDbLine
10
171.387792264462
20
93.058380000000
30
0.0
11
171.387792264462
21
118.450972000000
31
0.0
0
LINE
5
497
100
AcDbEntity
8
0-0
6
CONTINUOUS
62
7
100
AcDbLine
10
172.637792264462
20
119.500000000000
30
0.0
11
172.637792264462
21
80.500000000000
31
0.0
0
LINE
5
498
100
AcDbEntity
8
0-0
6
CONTINUOUS
62
7
100
AcDbLine
10
173.137792264462
20
80.000000000000
30
0.0
11
178.348610264462
21
80.000000000000
31
0.0
0
LINE
5
499
100
AcDbEntity
8
0-0
6
CONTINUOUS
62
7
100
AcDbLine
10
183.387792264461
20
87.708261000000
30
0.0
11
183.387792264461
21
112.291739000000
31
0.0
0
LINE
5
49a
100
AcDbEntity
8
0-0
6
CONTINUOUS
62
7
100
AcDbLine
10
178.348610264462
20
120.000000000000
30
0.0
11
173.137792264462
21
120.000000000000
31
0.0
0
POLYLINE
5
49b
100
AcDbEntity
8
0-0
6
CONTINUOUS
62
  7
100
AcDb2dPolyline
66
1
10
0.0
20
0.0
30
0.0
70
0
0
VERTEX
5
49c
100
AcDbEntity
8
0-0
6
CONTINUOUS
62
  7
100
AcDbVertex
100
AcDb2dVertex
10
169.637792264461
20
119.000000000000
30
0.0
0
VERTEX
5
49d
100
AcDbEntity
8
0-0
6
CONTINUOUS
62
  7
100
AcDbVertex
100
AcDb2dVertex
10
169.637792264461
20
123.500000000000
30
0.0
0
VERTEX
5
49e
100
AcDbEntity
8
0-0
6
CONTINUOUS
62
  7
100
AcDbVertex
100
AcDb2dVertex
10
155.637792264461
20
123.500000000000
30
0.0
0
VERTEX
5
49f
100
AcDbEntity
8
0-0
6
CONTINUOUS
62
  7
100
AcDbVertex
100
AcDb2dVertex
10
155.637792264461
20
119.000000000000
30
0.0
0
VERTEX
5
4a0
100
AcDbEntity
8
0-0
6
CONTINUOUS
62
  7
100
AcDbVertex
100
AcDb2dVertex
10
169.637792264461
20
119.000000000000
30
0.0
0
SEQEND
5
4a1
100
AcDbEntity
8
0-0
0
POLYLINE
5
4a2
100
AcDbEntity
8
0-0
6
CONTINUOUS
62
  7
100
AcDb2dPolyline
66
1
10
0.0
20
0.0
30
0.0
70
0
0
VERTEX
5
4a3
100
AcDbEntity
8
0-0
6
CONTINUOUS
62
  7
100
AcDbVertex
100
AcDb2dVertex
10
167.637792264461
20
123.500000000000
30
0.0
0
VERTEX
5
4a4
100
AcDbEntity
8
0-0
6
CONTINUOUS
62
  7
100
AcDbVertex
100
AcDb2dVertex
10
167.637792264461
20
141.000000000000
30
0.0
0
VERTEX
5
4a5
100
AcDbEntity
8
0-0
6
CONTINUOUS
62
  7
100
AcDbVertex
100
AcDb2dVertex
10
166.137792264461
20
142.500000000000
30
0.0
0
VERTEX
5
4a6
100
AcDbEntity
8
0-0
6
CONTINUOUS
62
  7
100
AcDbVertex
100
AcDb2dVertex
10
159.137792264461
20
142.500000000000
30
0.0
0
VERTEX
5
4a7
100
AcDbEntity
8
0-0
6
CONTINUOUS
62
  7
100
AcDbVertex
100
AcDb2dVertex
10
157.637792264461
20
141.000000000000
30
0.0
0
SEQEND
5
4a8
100
AcDbEntity
8
0-0
0
LINE
5
4a9
100
AcDbEntity
8
0-0
6
CONTINUOUS
62
7
100
AcDbLine
10
157.637792264461
20
123.500000000000
30
0.0
11
157.637792264461
21
141.000000000000
31
0.0
0
LINE
5
4aa
100
AcDbEntity
8
0-0
6
CONTINUOUS
62
7
100
AcDbLine
10
153.887792264462
20
118.450972000000
30
0.0
11
153.887792264462
21
93.058380000000
31
0.0
0
LINE
5
4ab
100
AcDbEntity
8
0-0
6
CONTINUOUS
62
7
100
AcDbLine
10
154.187792264461
20
93.000000000000
30
0.0
11
159.637792264461
21
93.000000000000
31
0.0
0
LINE
5
4ac
100
AcDbEntity
8
0-0
6
CONTINUOUS
62
7
100
AcDbLine
10
159.637792264461
20
93.350000000000
30
0.0
11
159.637792264461
21
91.900000000000
31
0.0
0
LINE
5
4ad
100
AcDbEntity
8
0-0
6
CONTINUOUS
62
7
100
AcDbLine
10
155.151710264461
20
93.350000000000
30
0.0
11
170.123875264461
21
93.350000000000
31
0.0
0
LINE
5
4ae
100
AcDbEntity
8
0-0
6
CONTINUOUS
62
7
100
AcDbLine
10
171.887792264461
20
93.800000000000
30
0.0
11
171.887792264461
21
106.200000000000
31
0.0
0
LINE
5
4af
100
AcDbEntity
8
0-0
6
CONTINUOUS
62
7
100
AcDbLine
10
171.829412264461
20
106.500000000000
30
0.0
11
172.021767264461
21
106.500000000000
31
0.0
0
LINE
5
4b0
100
AcDbEntity
8
0-0
6
CONTINUOUS
62
7
100
AcDbLine
10
153.446173264461
20
106.500000000000
30
0.0
11
153.253818264461
21
106.500000000000
31
0.0
0
LINE
5
4b1
100
AcDbEntity
8
0-0
6
CONTINUOUS
62
7
100
AcDbLine
10
153.387792264461
20
106.200000000000
30
0.0
11
153.387792264461
21
93.800000000000
31
0.0
0
LINE
5
4b2
100
AcDbEntity
8
0-0
6
CONTINUOUS
62
7
100
AcDbLine
10
152.637792264462
20
80.500000000000
30
0.0
11
152.637792264462
21
119.500000000000
31
0.0
0
LINE
5
4b3
100
AcDbEntity
8
0-0
6
CONTINUOUS
62
7
100
AcDbLine
10
152.137792264462
20
120.000000000000
30
0.0
11
146.926975264461
21
120.000000000000
31
0.0
0
LINE
5
4b4
100
AcDbEntity
8
0-0
6
CONTINUOUS
62
7
100
AcDbLine
10
141.887792264462
20
112.291739000000
30
0.0
11
141.887792264462
21
87.708261000000
31
0.0
0
LINE
5
4b5
100
AcDbEntity
8
0-0
6
CONTINUOUS
62
7
100
AcDbLine
10
146.926975264461
20
80.000000000000
30
0.0
11
152.137792264462
21
80.000000000000
31
0.0
0
LINE
5
4b6
100
AcDbEntity
8
0-0
6
CONTINUOUS
62
7
100
AcDbLine
10
121.548896000000
20
93.350000000000
30
0.0
11
118.862066000000
21
93.350000000000
31
0.0
0
LINE
5
4b7
100
AcDbEntity
8
0-0
6
CONTINUOUS
62
7
100
AcDbLine
10
30.787440072839
20
106.500000000000
30
0.0
11
29.537440072839
21
106.500000000000
31
0.0
0
CIRCLE
5
4b8
100
AcDbEntity
8
0-0
6
CONTINUOUS
62
7
100
AcDbCircle
10
115.000000000000
20
177.149725849585
30
0.0
40
4.188000000000
0
CIRCLE
5
4b9
100
AcDbEntity
8
0-0
6
CONTINUOUS
62
7
100
AcDbCircle
10
115.000000000000
20
177.149725849585
30
0.0
40
5.000000000000
0
ARC
5
4ba
100
AcDbEntity
8
0-0
6
CONTINUOUS
62
7
100
AcDbCircle
10
116.000000000000
20
161.355786849584
30
0.0
40
4.000000000000
100
AcDbArc
50
285.700754000000
51
360.000000000000
0
ARC
5
4bb
100
AcDbEntity
8
0-0
6
CONTINUOUS
62
7
100
AcDbCircle
10
84.000000000000
20
161.355786849584
30
0.0
40
4.000000000000
100
AcDbArc
50
180.000000000000
51
254.299246000000
0
ARC
5
4bc
100
AcDbEntity
8
0-0
6
CONTINUOUS
62
7
100
AcDbCircle
10
100.000000000000
20
218.274725849585
30
0.0
40
63.125000000000
100
AcDbArc
50
254.299246000000
51
285.700754000000
0
ARC
5
4bd
100
AcDbEntity
8
0-0
6
CONTINUOUS
62
7
100
AcDbCircle
10
116.000000000000
20
192.943664849585
30
0.0
40
4.000000000000
100
AcDbArc
50
0.000000000000
51
74.299246000000
0
ARC
5
4be
100
AcDbEntity
8
0-0
6
CONTINUOUS
62
7
100
AcDbCircle
10
84.000000000000
20
192.943664849585
30
0.0
40
4.000000000000
100
AcDbArc
50
105.700754000000
51
180.000000000000
0
ARC
5
4bf
100
AcDbEntity
8
0-0
6
CONTINUOUS
62
7
100
AcDbCircle
10
100.000000000000
20
136.024725849585
30
0.0
40
63.125000000000
100
AcDbArc
50
74.299246000000
51
105.700754000000
0
ARC
5
4c0
100
AcDbEntity
8
0-0
6
CONTINUOUS
62
7
100
AcDbCircle
10
76.000000000000
20
182.649725849585
30
0.0
40
3.000000000000
100
AcDbArc
50
90.000000000000
51
180.000000000000
0
ARC
5
4c1
100
AcDbEntity
8
0-0
6
CONTINUOUS
62
7
100
AcDbCircle
10
151.000000000000
20
177.149725849585
30
0.0
40
70.000000000000
100
AcDbArc
50
172.819244000000
51
173.025443000000
0
ARC
5
4c2
100
AcDbEntity
8
0-0
6
CONTINUOUS
62
7
100
AcDbCircle
10
87.577840000000
20
182.649725849585
30
0.0
40
3.000000000000
100
AcDbArc
50
0.000000000000
51
90.000000000000
0
ARC
5
4c3
100
AcDbEntity
8
0-0
6
CONTINUOUS
62
7
100
AcDbCircle
10
80.500000000000
20
187.649725849585
30
0.0
40
0.500000000000
100
AcDbArc
50
180.000000000000
51
270.000000000000
0
ARC
5
4c4
100
AcDbEntity
8
0-0
6
CONTINUOUS
62
7
100
AcDbCircle
10
93.800000000000
20
185.599725849584
30
0.0
40
0.800000000000
100
AcDbArc
50
90.000000000000
51
157.975687000000
0
ARC
5
4c5
100
AcDbEntity
8
0-0
6
CONTINUOUS
62
7
100
AcDbCircle
10
94.000000000000
20
187.399725849585
30
0.0
40
1.000000000000
100
AcDbArc
50
194.477512000000
51
270.000000000000
0
ARC
5
4c6
100
AcDbEntity
8
0-0
6
CONTINUOUS
62
7
100
AcDbCircle
10
106.200000000000
20
185.599725849584
30
0.0
40
0.800000000000
100
AcDbArc
50
22.024313000000
51
90.000000000000
0
ARC
5
4c7
100
AcDbEntity
8
0-0
6
CONTINUOUS
62
7
100
AcDbCircle
10
106.000000000000
20
187.399725849585
30
0.0
40
1.000000000000
100
AcDbArc
50
270.000000000000
51
345.522488000000
0
ARC
5
4c8
100
AcDbEntity
8
0-0
6
CONTINUOUS
62
7
100
AcDbCircle
10
89.150564000000
20
182.649725849585
30
0.0
40
3.000000000000
100
AcDbArc
50
0.000000000000
51
90.000000000000
0
ARC
5
4c9
100
AcDbEntity
8
0-0
6
CONTINUOUS
62
7
100
AcDbCircle
10
119.500000000000
20
187.649725849585
30
0.0
40
0.500000000000
100
AcDbArc
50
270.000000000000
51
360.000000000000
0
ARC
5
4ca
100
AcDbEntity
8
0-0
6
CONTINUOUS
62
7
100
AcDbCircle
10
115.000000000000
20
177.149725849585
30
0.0
40
8.500000000000
100
AcDbArc
50
55.439678000000
51
65.136712000000
0
ARC
5
4cb
100
AcDbEntity
8
0-0
6
CONTINUOUS
62
7
100
AcDbCircle
10
49.000000000000
20
177.149725849585
30
0.0
40
70.000000000000
100
AcDbArc
50
6.325334000000
51
7.180756000000
0
ARC
5
4cc
100
AcDbEntity
8
0-0
6
CONTINUOUS
62
7
100
AcDbCircle
10
76.000000000000
20
171.649725849585
30
0.0
40
3.000000000000
100
AcDbArc
50
180.000000000000
51
270.000000000000
0
ARC
5
4cd
100
AcDbEntity
8
0-0
6
CONTINUOUS
62
7
100
AcDbCircle
10
151.000000000000
20
177.149725849585
30
0.0
40
70.000000000000
100
AcDbArc
50
186.974557000000
51
187.180756000000
0
ARC
5
4ce
100
AcDbEntity
8
0-0
6
CONTINUOUS
62
7
100
AcDbCircle
10
87.577840000000
20
171.649725849585
30
0.0
40
3.000000000000
100
AcDbArc
50
270.000000000000
51
360.000000000000
0
ARC
5
4cf
100
AcDbEntity
8
0-0
6
CONTINUOUS
62
7
100
AcDbCircle
10
80.500000000000
20
166.649725849585
30
0.0
40
0.500000000000
100
AcDbArc
50
90.000000000000
51
180.000000000000
0
ARC
5
4d0
100
AcDbEntity
8
0-0
6
CONTINUOUS
62
7
100
AcDbCircle
10
94.000000000000
20
166.899725849585
30
0.0
40
1.000000000000
100
AcDbArc
50
90.000000000000
51
165.522488000000
0
ARC
5
4d1
100
AcDbEntity
8
0-0
6
CONTINUOUS
62
7
100
AcDbCircle
10
93.800000000000
20
168.699725849585
30
0.0
40
0.800000000000
100
AcDbArc
50
202.024313000000
51
270.000000000000
0
ARC
5
4d2
100
AcDbEntity
8
0-0
6
CONTINUOUS
62
7
100
AcDbCircle
10
106.000000000000
20
166.899725849585
30
0.0
40
1.000000000000
100
AcDbArc
50
14.477512000000
51
90.000000000000
0
ARC
5
4d3
100
AcDbEntity
8
0-0
6
CONTINUOUS
62
7
100
AcDbCircle
10
106.200000000000
20
168.699725849585
30
0.0
40
0.800000000000
100
AcDbArc
50
270.000000000000
51
337.975687000000
0
ARC
5
4d4
100
AcDbEntity
8
0-0
6
CONTINUOUS
62
7
100
AcDbCircle
10
89.150564000000
20
171.649725849585
30
0.0
40
3.000000000000
100
AcDbArc
50
270.000000000000
51
360.000000000000
0
ARC
5
4d5
100
AcDbEntity
8
0-0
6
CONTINUOUS
62
7
100
AcDbCircle
10
49.000000000000
20
177.149725849585
30
0.0
40
70.000000000000
100
AcDbArc
50
352.819244000000
51
353.674666000000
0
ARC
5
4d6
100
AcDbEntity
8
0-0
6
CONTINUOUS
62
7
100
AcDbCircle
10
115.000000000000
20
177.149725849585
30
0.0
40
8.500000000000
100
AcDbArc
50
294.863288000000
51
304.560322000000
0
ARC
5
4d7
100
AcDbEntity
8
0-0
6
CONTINUOUS
62
7
100
AcDbCircle
10
119.500000000000
20
166.649725849585
30
0.0
40
0.500000000000
100
AcDbArc
50
0.000000000000
51
90.000000000000
0
ARC
5
4d8
100
AcDbEntity
8
0-0
6
CONTINUOUS
62
7
100
AcDbCircle
10
115.000000000000
20
177.149725849585
30
0.0
40
8.000000000000
100
AcDbArc
50
298.955024000000
51
421.044976000000
0
ARC
5
4d9
100
AcDbEntity
8
0-0
6
CONTINUOUS
62
7
100
AcDbCircle
10
115.000000000000
20
177.149725849585
30
0.0
40
8.693000000000
100
AcDbArc
50
306.366019000000
51
413.633981000000
0
ARC
5
4da
100
AcDbEntity
8
0-0
6
CONTINUOUS
62
7
100
AcDbCircle
10
115.000000000000
20
177.149725849585
30
0.0
40
8.693000000000
100
AcDbArc
50
126.366019000000
51
233.633981000000
0
ARC
5
4db
100
AcDbEntity
8
0-0
6
CONTINUOUS
62
7
100
AcDbCircle
10
115.000000000000
20
177.149725849585
30
0.0
40
8.000000000000
100
AcDbArc
50
118.955024000000
51
241.044976000000
0
ARC
5
4dc
100
AcDbEntity
8
0-0
6
CONTINUOUS
62
7
100
AcDbCircle
10
170.123875264461
20
94.350000000000
30
0.0
40
1.000000000000
100
AcDbArc
50
270.000000000000
51
356.017861000000
0
ARC
5
4dd
100
AcDbEntity
8
0-0
6
CONTINUOUS
62
7
100
AcDbCircle
10
155.151710264461
20
94.350000000000
30
0.0
40
1.000000000000
100
AcDbArc
50
183.982139000000
51
270.000000000000
0
ARC
5
4de
100
AcDbEntity
8
0-0
6
CONTINUOUS
62
7
100
AcDbCircle
10
178.348610264462
20
116.000000000000
30
0.0
40
4.000000000000
100
AcDbArc
50
16.284548000000
51
90.000000000000
0
ARC
5
4df
100
AcDbEntity
8
0-0
6
CONTINUOUS
62
7
100
AcDbCircle
10
178.348610264462
20
84.000000000000
30
0.0
40
4.000000000000
100
AcDbArc
50
270.000000000000
51
343.715452000000
0
ARC
5
4e0
100
AcDbEntity
8
0-0
6
CONTINUOUS
62
7
100
AcDbCircle
10
123.578050264461
20
100.000000000000
30
0.0
40
61.059742000000
100
AcDbArc
50
343.715452000000
51
376.284548000000
0
ARC
5
4e1
100
AcDbEntity
8
0-0
6
CONTINUOUS
62
7
100
AcDbCircle
10
146.926975264461
20
116.000000000000
30
0.0
40
4.000000000000
100
AcDbArc
50
90.000000000000
51
163.715452000000
0
ARC
5
4e2
100
AcDbEntity
8
0-0
6
CONTINUOUS
62
7
100
AcDbCircle
10
146.926975264461
20
84.000000000000
30
0.0
40
4.000000000000
100
AcDbArc
50
196.284548000000
51
270.000000000000
0
ARC
5
4e3
100
AcDbEntity
8
0-0
6
CONTINUOUS
62
7
100
AcDbCircle
10
201.697535264461
20
100.000000000000
30
0.0
40
61.059742000000
100
AcDbArc
50
163.715452000000
51
196.284548000000
0
ARC
5
4e4
100
AcDbEntity
8
0-0
6
CONTINUOUS
62
7
100
AcDbCircle
10
173.137792264462
20
119.500000000000
30
0.0
40
0.500000000000
100
AcDbArc
50
90.000000000000
51
180.000000000000
0
ARC
5
4e5
100
AcDbEntity
8
0-0
6
CONTINUOUS
62
7
100
AcDbCircle
10
173.137792264462
20
80.500000000000
30
0.0
40
0.500000000000
100
AcDbArc
50
180.000000000000
51
270.000000000000
0
ARC
5
4e6
100
AcDbEntity
8
0-0
6
CONTINUOUS
62
7
100
AcDbCircle
10
152.137792264462
20
119.500000000000
30
0.0
40
0.500000000000
100
AcDbArc
50
0.000000000000
51
90.000000000000
0
ARC
5
4e7
100
AcDbEntity
8
0-0
6
CONTINUOUS
62
7
100
AcDbCircle
10
152.137792264462
20
80.500000000000
30
0.0
40
0.500000000000
100
AcDbArc
50
270.000000000000
51
360.000000000000
0
ARC
5
4e8
100
AcDbEntity
8
0-0
6
CONTINUOUS
62
7
100
AcDbCircle
10
160.887792264462
20
90.212500000000
30
0.0
40
3.312500000000
100
AcDbArc
50
238.109208000000
51
301.890792000000
0
ARC
5
4e9
100
AcDbEntity
8
0-0
6
CONTINUOUS
62
7
100
AcDbCircle
10
164.387792264462
20
90.212500000000
30
0.0
40
3.312500000000
100
AcDbArc
50
238.109208000000
51
301.890792000000
0
ARC
5
4ea
100
AcDbEntity
8
0-0
6
CONTINUOUS
62
7
100
AcDbCircle
10
162.637792264462
20
49.000000000000
30
0.0
40
70.000000000000
100
AcDbArc
50
95.795008000000
51
97.180756000000
0
ARC
5
4eb
100
AcDbEntity
8
0-0
6
CONTINUOUS
62
7
100
AcDbCircle
10
75.434668264461
20
100.941652000000
30
0.0
40
95.918364000000
100
AcDbArc
50
356.017861000000
51
370.851717000000
0
ARC
5
4ec
100
AcDbEntity
8
0-0
6
CONTINUOUS
62
7
100
AcDbCircle
10
249.840917264462
20
100.941652000000
30
0.0
40
95.918364000000
100
AcDbArc
50
169.148283000000
51
183.982139000000
0
ARC
5
4ed
100
AcDbEntity
8
0-0
6
CONTINUOUS
62
7
100
AcDbCircle
10
162.637792264462
20
49.000000000000
30
0.0
40
70.000000000000
100
AcDbArc
50
82.819244000000
51
84.204992000000
0
ARC
5
4ee
100
AcDbEntity
8
0-0
6
CONTINUOUS
62
7
100
AcDbCircle
10
171.087792264461
20
93.800000000000
30
0.0
40
0.800000000000
100
AcDbArc
50
270.000000000000
51
360.000000000000
0
ARC
5
4ef
100
AcDbEntity
8
0-0
6
CONTINUOUS
62
7
100
AcDbCircle
10
171.087792264461
20
106.200000000000
30
0.0
40
0.800000000000
100
AcDbArc
50
0.000000000000
51
67.975687000000
0
ARC
5
4f0
100
AcDbEntity
8
0-0
6
CONTINUOUS
62
7
100
AcDbCircle
10
154.187792264461
20
106.200000000000
30
0.0
40
0.800000000000
100
AcDbArc
50
112.024313000000
51
180.000000000000
0
ARC
5
4f1
100
AcDbEntity
8
0-0
6
CONTINUOUS
62
7
100
AcDbCircle
10
152.387792264462
20
106.000000000000
30
0.0
40
1.000000000000
100
AcDbArc
50
0.000000000000
51
75.522488000000
0
ARC
5
4f2
100
AcDbEntity
8
0-0
6
CONTINUOUS
62
7
100
AcDbCircle
10
152.387792264462
20
94.000000000000
30
0.0
40
1.000000000000
100
AcDbArc
50
284.477512000000
51
360.000000000000
0
ARC
5
4f3
100
AcDbEntity
8
0-0
6
CONTINUOUS
62
7
100
AcDbCircle
10
154.187792264461
20
93.800000000000
30
0.0
40
0.800000000000
100
AcDbArc
50
180.000000000000
51
270.000000000000
0
ARC
5
4f4
100
AcDbEntity
8
0-0
6
CONTINUOUS
62
7
100
AcDbCircle
10
172.887792264462
20
94.000000000000
30
0.0
40
1.000000000000
100
AcDbArc
50
180.000000000000
51
255.522488000000
0
ARC
5
4f5
100
AcDbEntity
8
0-0
6
CONTINUOUS
62
7
100
AcDbCircle
10
172.887792264462
20
106.000000000000
30
0.0
40
1.000000000000
100
AcDbArc
50
104.477512000000
51
180.000000000000
0
ARC
5
4f6
100
AcDbEntity
8
0-0
6
CONTINUOUS
62
7
100
AcDbCircle
10
33.727248072839
20
116.744999000000
30
0.0
40
3.000000000000
100
AcDbArc
50
206.284961000000
51
256.706694000000
0
ARC
5
4f7
100
AcDbEntity
8
0-0
6
CONTINUOUS
62
7
100
AcDbCircle
10
37.787440072839
20
90.212500000000
30
0.0
40
3.312500000000
100
AcDbArc
50
238.109208000000
51
301.890792000000
0
ARC
5
4f8
100
AcDbEntity
8
0-0
6
CONTINUOUS
62
7
100
AcDbCircle
10
41.287440072839
20
90.212500000000
30
0.0
40
3.312500000000
100
AcDbArc
50
238.109208000000
51
301.890792000000
0
ARC
5
4f9
100
AcDbEntity
8
0-0
6
CONTINUOUS
62
7
100
AcDbCircle
10
39.537440072839
20
182.384928000000
30
0.0
40
68.866983000000
100
AcDbArc
50
264.584085000000
51
275.415915000000
0
ARC
5
4fa
100
AcDbEntity
8
0-0
6
CONTINUOUS
62
7
100
AcDbCircle
10
55.331379072839
20
84.000000000000
30
0.0
40
4.000000000000
100
AcDbArc
50
270.000000000000
51
344.299246000000
0
ARC
5
4fb
100
AcDbEntity
8
0-0
6
CONTINUOUS
62
7
100
AcDbCircle
10
55.331379072839
20
116.000000000000
30
0.0
40
4.000000000000
100
AcDbArc
50
15.700754000000
51
90.000000000000
0
ARC
5
4fc
100
AcDbEntity
8
0-0
6
CONTINUOUS
62
7
100
AcDbCircle
10
-1.587559927161
20
100.000000000000
30
0.0
40
63.125000000000
100
AcDbArc
50
344.299246000000
51
375.700754000000
0
ARC
5
4fd
100
AcDbEntity
8
0-0
6
CONTINUOUS
62
7
100
AcDbCircle
10
23.743501072839
20
84.000000000000
30
0.0
40
4.000000000000
100
AcDbArc
50
195.700754000000
51
270.000000000000
0
ARC
5
4fe
100
AcDbEntity
8
0-0
6
CONTINUOUS
62
7
100
AcDbCircle
10
23.743501072839
20
116.000000000000
30
0.0
40
4.000000000000
100
AcDbArc
50
90.000000000000
51
164.299246000000
0
ARC
5
4ff
100
AcDbEntity
8
0-0
6
CONTINUOUS
62
7
100
AcDbCircle
10
80.662440072839
20
100.000000000000
30
0.0
40
63.125000000000
100
AcDbArc
50
164.299246000000
51
195.700754000000
0
ARC
5
500
100
AcDbEntity
8
0-0
6
CONTINUOUS
62
7
100
AcDbCircle
10
39.537440072839
20
49.000000000000
30
0.0
40
70.000000000000
100
AcDbArc
50
96.449128000000
51
97.180756000000
0
ARC
5
501
100
AcDbEntity
8
0-0
6
CONTINUOUS
62
7
100
AcDbCircle
10
29.037440072839
20
119.500000000000
30
0.0
40
0.500000000000
100
AcDbArc
50
0.000000000000
51
90.000000000000
0
ARC
5
502
100
AcDbEntity
8
0-0
6
CONTINUOUS
62
7
100
AcDbCircle
10
31.087440072838
20
106.200000000000
30
0.0
40
0.800000000000
100
AcDbArc
50
112.024313000000
51
157.975687000000
0
ARC
5
503
100
AcDbEntity
8
0-0
6
CONTINUOUS
62
7
100
AcDbCircle
10
29.287440072839
20
106.000000000000
30
0.0
40
1.000000000000
100
AcDbArc
50
30.000000000000
51
75.522488000000
0
ARC
5
504
100
AcDbEntity
8
0-0
6
CONTINUOUS
62
7
100
AcDbCircle
10
130.822177072839
20
100.557916000000
30
0.0
40
100.000000000000
100
AcDbArc
50
169.372632000000
51
169.472040000000
0
ARC
5
505
100
AcDbEntity
8
0-0
6
CONTINUOUS
62
7
100
AcDbCircle
10
33.037440072839
20
114.325382000000
30
0.0
40
0.500000000000
100
AcDbArc
50
180.000000000000
51
270.000000000000
0
ARC
5
506
100
AcDbEntity
8
0-0
6
CONTINUOUS
62
7
100
AcDbCircle
10
33.037440072839
20
115.238677000000
30
0.0
40
0.500000000000
100
AcDbArc
50
90.000000000000
51
180.000000000000
0
ARC
5
507
100
AcDbEntity
8
0-0
6
CONTINUOUS
62
7
100
AcDbCircle
10
32.537440072839
20
117.329786000000
30
0.0
40
1.500000000000
100
AcDbArc
50
90.000000000000
51
180.000000000000
0
ARC
5
508
100
AcDbEntity
8
0-0
6
CONTINUOUS
62
7
100
AcDbCircle
10
33.727248072839
20
118.658294000000
30
0.0
40
3.000000000000
100
AcDbArc
50
206.284961000000
51
256.706694000000
0
ARC
5
509
100
AcDbEntity
8
0-0
6
CONTINUOUS
62
7
100
AcDbCircle
10
31.087440072838
20
93.800000000000
30
0.0
40
0.800000000000
100
AcDbArc
50
180.000000000000
51
270.000000000000
0
ARC
5
50a
100
AcDbEntity
8
0-0
6
CONTINUOUS
62
7
100
AcDbCircle
10
29.287440072839
20
94.000000000000
30
0.0
40
1.000000000000
100
AcDbArc
50
284.477512000000
51
360.000000000000
0
ARC
5
50b
100
AcDbEntity
8
0-0
6
CONTINUOUS
62
7
100
AcDbCircle
10
-51.747296927161
20
100.557916000000
30
0.0
40
100.000000000000
100
AcDbArc
50
10.527960000000
51
10.627368000000
0
ARC
5
50c
100
AcDbEntity
8
0-0
6
CONTINUOUS
62
7
100
AcDbCircle
10
46.537440072839
20
117.329786000000
30
0.0
40
1.500000000000
100
AcDbArc
50
0.000000000000
51
90.000000000000
0
ARC
5
50d
100
AcDbEntity
8
0-0
6
CONTINUOUS
62
7
100
AcDbCircle
10
46.037440072839
20
115.238677000000
30
0.0
40
0.500000000000
100
AcDbArc
50
0.000000000000
51
90.000000000000
0
ARC
5
50e
100
AcDbEntity
8
0-0
6
CONTINUOUS
62
7
100
AcDbCircle
10
46.037440072839
20
114.325382000000
30
0.0
40
0.500000000000
100
AcDbArc
50
270.000000000000
51
360.000000000000
0
ARC
5
50f
100
AcDbEntity
8
0-0
6
CONTINUOUS
62
7
100
AcDbCircle
10
45.347632072839
20
118.658294000000
30
0.0
40
3.000000000000
100
AcDbArc
50
283.293306000000
51
333.715039000000
0
ARC
5
510
100
AcDbEntity
8
0-0
6
CONTINUOUS
62
7
100
AcDbCircle
10
45.347632072839
20
116.744999000000
30
0.0
40
3.000000000000
100
AcDbArc
50
283.293306000000
51
333.715039000000
0
ARC
5
511
100
AcDbEntity
8
0-0
6
CONTINUOUS
62
7
100
AcDbCircle
10
39.537440072839
20
49.000000000000
30
0.0
40
70.000000000000
100
AcDbArc
50
82.819244000000
51
83.550872000000
0
ARC
5
512
100
AcDbEntity
8
0-0
6
CONTINUOUS
62
7
100
AcDbCircle
10
50.037440072839
20
119.500000000000
30
0.0
40
0.500000000000
100
AcDbArc
50
90.000000000000
51
180.000000000000
0
ARC
5
513
100
AcDbEntity
8
0-0
6
CONTINUOUS
62
7
100
AcDbCircle
10
47.987440072839
20
106.200000000000
30
0.0
40
0.800000000000
100
AcDbArc
50
22.024313000000
51
67.975687000000
0
ARC
5
514
100
AcDbEntity
8
0-0
6
CONTINUOUS
62
7
100
AcDbCircle
10
49.787440072839
20
106.000000000000
30
0.0
40
1.000000000000
100
AcDbArc
50
104.477512000000
51
150.000000000000
0
ARC
5
515
100
AcDbEntity
8
0-0
6
CONTINUOUS
62
7
100
AcDbCircle
10
47.987440072839
20
93.800000000000
30
0.0
40
0.800000000000
100
AcDbArc
50
270.000000000000
51
360.000000000000
0
ARC
5
516
100
AcDbEntity
8
0-0
6
CONTINUOUS
62
7
100
AcDbCircle
10
49.787440072839
20
94.000000000000
30
0.0
40
1.000000000000
100
AcDbArc
50
180.000000000000
51
255.522488000000
0
ARC
5
517
100
AcDbEntity
8
0-0
6
CONTINUOUS
62
7
100
AcDbCircle
10
29.037440072839
20
80.500000000000
30
0.0
40
0.500000000000
100
AcDbArc
50
270.000000000000
51
360.000000000000
0
ARC
5
518
100
AcDbEntity
8
0-0
6
CONTINUOUS
62
7
100
AcDbCircle
10
50.037440072839
20
80.500000000000
30
0.0
40
0.500000000000
100
AcDbArc
50
180.000000000000
51
270.000000000000
0
ARC
5
519
100
AcDbEntity
8
0-0
6
CONTINUOUS
62
7
100
AcDbCircle
10
121.548896000000
20
95.350000000000
30
0.0
40
2.000000000000
100
AcDbArc
50
270.000000000000
51
356.660973000000
0
ARC
5
51a
100
AcDbEntity
8
0-0
6
CONTINUOUS
62
7
100
AcDbCircle
10
121.674560000000
20
118.500000000000
30
0.0
40
0.500000000000
100
AcDbArc
50
10.095961000000
51
90.000000000000
0
ARC
5
51b
100
AcDbEntity
8
0-0
6
CONTINUOUS
62
7
100
AcDbCircle
10
74.000000000000
20
114.747167000000
30
0.0
40
1.000000000000
100
AcDbArc
50
82.528778000000
51
192.000047000000
0
ARC
5
51c
100
AcDbEntity
8
0-0
6
CONTINUOUS
62
7
100
AcDbCircle
10
73.417226000000
20
114.122088000000
30
0.0
40
0.300000000000
100
AcDbArc
50
192.000000000000
51
261.501644000000
0
ARC
5
51d
100
AcDbEntity
8
0-0
6
CONTINUOUS
62
7
100
AcDbCircle
10
90.697484000000
20
117.957165000000
30
0.0
40
1.000000000000
100
AcDbArc
50
13.076969000000
51
119.235285000000
0
ARC
5
51e
100
AcDbEntity
8
0-0
6
CONTINUOUS
62
7
100
AcDbCircle
10
85.156788000000
20
110.086510000000
30
0.0
40
5.000000000000
100
AcDbArc
50
155.219159000000
51
218.644676000000
0
ARC
5
51f
100
AcDbEntity
8
0-0
6
CONTINUOUS
62
7
100
AcDbCircle
10
79.709282000000
20
112.601401000000
30
0.0
40
1.000000000000
100
AcDbArc
50
335.219159000000
51
454.347826000000
0
ARC
5
520
100
AcDbEntity
8
0-0
6
CONTINUOUS
62
7
100
AcDbCircle
10
77.510761000000
20
141.517945000000
30
0.0
40
28.000000000000
100
AcDbArc
50
261.500981000000
51
289.706430000000
0
ARC
5
521
100
AcDbEntity
8
0-0
6
CONTINUOUS
62
7
100
AcDbCircle
10
77.510761000000
20
141.517945000000
30
0.0
40
26.000000000000
100
AcDbArc
50
262.528778000000
51
299.235285000000
0
ARC
5
522
100
AcDbEntity
8
0-0
6
CONTINUOUS
62
7
100
AcDbCircle
10
104.751244000000
20
124.544361000000
30
0.0
40
6.000000000000
100
AcDbArc
50
288.585673000000
51
292.472940000000
0
ARC
5
523
100
AcDbEntity
8
0-0
6
CONTINUOUS
62
7
100
AcDbCircle
10
110.307189000000
20
121.250000000000
30
0.0
40
4.000000000000
100
AcDbArc
50
145.771134000000
51
214.228866000000
0
ARC
5
524
100
AcDbEntity
8
0-0
6
CONTINUOUS
62
7
100
AcDbCircle
10
114.442601000000
20
121.250000000000
30
0.0
40
4.000000000000
100
AcDbArc
50
145.771134000000
51
214.228866000000
0
CIRCLE
5
525
100
AcDbEntity
8
0-0
6
CONTINUOUS
62
7
100
AcDbCircle
10
100.000000000000
20
100.000000000000
30
0.0
40
12.500000000000
0
ARC
5
526
100
AcDbEntity
8
0-0
6
CONTINUOUS
62
7
100
AcDbCircle
10
23.715263000000
20
101.057916000000
30
0.0
40
100.000000000000
100
AcDbArc
50
356.660973000000
51
370.095961000000
0
ARC
5
527
100
AcDbEntity
8
0-0
6
CONTINUOUS
62
7
100
AcDbCircle
10
119.692811000000
20
121.250000000000
30
0.0
40
4.000000000000
100
AcDbArc
50
325.771134000000
51
394.228866000000
0
ARC
5
528
100
AcDbEntity
8
0-0
6
CONTINUOUS
62
7
100
AcDbCircle
10
115.557399000000
20
121.250000000000
30
0.0
40
4.000000000000
100
AcDbArc
50
325.771134000000
51
393.167650000000
0
CIRCLE
5
529
100
AcDbEntity
8
0-0
6
CONTINUOUS
62
7
100
AcDbCircle
10
100.000000000000
20
100.000000000000
30
0.0
40
20.000000000000
0
LINE
5
52a
100
AcDbEntity
8
0-0
6
CONTINUOUS
62
7
100
AcDbLine
10
112.500000000000
20
15.786923056263
30
0.0
11
87.500000000000
21
15.786923056263
31
0.0
0
LINE
5
52b
100
AcDbEntity
8
0-0
6
CONTINUOUS
62
7
100
AcDbLine
10
87.000000000000
20
26.536923056263
30
0.0
11
87.000000000000
21
27.786923056263
31
0.0
0
LINE
5
52c
100
AcDbEntity
8
0-0
6
CONTINUOUS
62
7
100
AcDbLine
10
85.000000000000
20
27.786923056263
30
0.0
11
85.000000000000
21
26.536923056263
31
0.0
0
LINE
5
52d
100
AcDbEntity
8
0-0
6
CONTINUOUS
62
7
100
AcDbLine
10
80.500000000000
20
26.536923056263
30
0.0
11
119.500000000000
21
26.536923056263
31
0.0
0
LINE
5
52e
100
AcDbEntity
8
0-0
6
CONTINUOUS
62
7
100
AcDbLine
10
120.000000000000
20
26.036923056263
30
0.0
11
120.000000000000
21
20.742984056264
31
0.0
0
LINE
5
52f
100
AcDbEntity
8
0-0
6
CONTINUOUS
62
7
100
AcDbLine
10
118.450972000000
20
27.786923056263
30
0.0
11
81.549028000000
21
27.786923056263
31
0.0
0
LINE
5
530
100
AcDbEntity
8
0-0
6
CONTINUOUS
62
7
100
AcDbLine
10
81.517987989335
20
27.786923056263
30
0.0
11
81.517987989335
21
45.036923465078
31
0.0
0
LINE
5
531
100
AcDbEntity
8
0-0
6
CONTINUOUS
62
7
100
AcDbLine
10
81.517987989335
20
45.036923056263
30
0.0
11
76.000000000000
21
45.036923056263
31
0.0
0
LINE
5
532
100
AcDbEntity
8
0-0
6
CONTINUOUS
62
7
100
AcDbLine
10
81.549028000000
20
45.286923056263
30
0.0
11
118.450972000000
21
45.286923056263
31
0.0
0
LINE
5
533
100
AcDbEntity
8
0-0
6
CONTINUOUS
62
7
100
AcDbLine
10
119.500000000000
20
46.536923056263
30
0.0
11
80.500000000000
21
46.536923056263
31
0.0
0
LINE
5
534
100
AcDbEntity
8
0-0
6
CONTINUOUS
62
7
100
AcDbLine
10
80.000000000000
20
47.036923056263
30
0.0
11
80.000000000000
21
52.330862056263
31
0.0
0
LINE
5
535
100
AcDbEntity
8
0-0
6
CONTINUOUS
62
7
100
AcDbLine
10
85.000000000000
20
46.536923056263
30
0.0
11
85.000000000000
21
45.286923056263
31
0.0
0
LINE
5
536
100
AcDbEntity
8
0-0
6
CONTINUOUS
62
7
100
AcDbLine
10
87.000000000000
20
45.286923056263
30
0.0
11
87.000000000000
21
46.536923056263
31
0.0
0
LINE
5
537
100
AcDbEntity
8
0-0
6
CONTINUOUS
62
7
100
AcDbLine
10
91.000000000000
20
46.536923056263
30
0.0
11
91.000000000000
21
45.286923056263
31
0.0
0
LINE
5
538
100
AcDbEntity
8
0-0
6
CONTINUOUS
62
7
100
AcDbLine
10
93.800000000000
20
45.786923056263
30
0.0
11
106.200000000000
21
45.786923056263
31
0.0
0
LINE
5
539
100
AcDbEntity
8
0-0
6
CONTINUOUS
62
7
100
AcDbLine
10
114.500000000000
20
41.511860241796
30
0.0
11
114.500000000000
21
40.248247921668
31
0.0
0
POLYLINE
5
53a
100
AcDbEntity
8
0-0
6
CONTINUOUS
62
  7
100
AcDb2dPolyline
66
1
10
0.0
20
0.0
30
0.0
70
0
0
VERTEX
5
53b
100
AcDbEntity
8
0-0
6
CONTINUOUS
62
  7
100
AcDbVertex
100
AcDb2dVertex
10
115.000000000000
20
40.536923056263
30
0.0
0
VERTEX
5
53c
100
AcDbEntity
8
0-0
6
CONTINUOUS
62
  7
100
AcDbVertex
100
AcDb2dVertex
10
111.535898384862
20
38.536923056263
30
0.0
0
VERTEX
5
53d
100
AcDbEntity
8
0-0
6
CONTINUOUS
62
  7
100
AcDbVertex
100
AcDb2dVertex
10
111.535898384862
20
34.536923056263
30
0.0
0
VERTEX
5
53e
100
AcDbEntity
8
0-0
6
CONTINUOUS
62
  7
100
AcDbVertex
100
AcDb2dVertex
10
115.000000000000
20
32.536923056263
30
0.0
0
VERTEX
5
53f
100
AcDbEntity
8
0-0
6
CONTINUOUS
62
  7
100
AcDbVertex
100
AcDb2dVertex
10
118.464101615138
20
34.536923056263
30
0.0
0
VERTEX
5
540
100
AcDbEntity
8
0-0
6
CONTINUOUS
62
  7
100
AcDbVertex
100
AcDb2dVertex
10
118.464101615138
20
38.536923056263
30
0.0
0
VERTEX
5
541
100
AcDbEntity
8
0-0
6
CONTINUOUS
62
  7
100
AcDbVertex
100
AcDb2dVertex
10
115.000000000000
20
40.536923056263
30
0.0
0
SEQEND
5
542
100
AcDbEntity
8
0-0
0
LINE
5
543
100
AcDbEntity
8
0-0
6
CONTINUOUS
62
7
100
AcDbLine
10
115.500000000000
20
40.248247921668
30
0.0
11
115.500000000000
21
41.511860241796
31
0.0
0
LINE
5
544
100
AcDbEntity
8
0-0
6
CONTINUOUS
62
7
100
AcDbLine
10
120.000000000000
20
47.036923056263
30
0.0
11
120.000000000000
21
52.330862056263
31
0.0
0
LINE
5
545
100
AcDbEntity
8
0-0
6
CONTINUOUS
62
7
100
AcDbLine
10
112.500000000000
20
57.286923056263
30
0.0
11
87.500000000000
21
57.286923056263
31
0.0
0
LINE
5
546
100
AcDbEntity
8
0-0
6
CONTINUOUS
62
7
100
AcDbLine
10
73.000000000000
20
42.036923056263
30
0.0
11
73.000000000000
21
31.036923056263
31
0.0
0
LINE
5
547
100
AcDbEntity
8
0-0
6
CONTINUOUS
62
7
100
AcDbLine
10
76.000000000000
20
28.036923056263
30
0.0
11
81.517987989335
21
28.036923056263
31
0.0
0
LINE
5
548
100
AcDbEntity
8
0-0
6
CONTINUOUS
62
7
100
AcDbLine
10
80.000000000000
20
26.036923056263
30
0.0
11
80.000000000000
21
20.742984056264
31
0.0
0
LINE
5
549
100
AcDbEntity
8
0-0
6
CONTINUOUS
62
7
100
AcDbLine
10
91.000000000000
20
26.536923056263
30
0.0
11
91.000000000000
21
27.786923056263
31
0.0
0
LINE
5
54a
100
AcDbEntity
8
0-0
6
CONTINUOUS
62
7
100
AcDbLine
10
93.800000000000
20
27.286923056263
30
0.0
11
106.200000000000
21
27.286923056263
31
0.0
0
ARC
5
54b
100
AcDbEntity
8
0-0
6
CONTINUOUS
62
7
100
AcDbCircle
10
116.000000000000
20
20.742984056264
30
0.0
40
4.000000000000
100
AcDbArc
50
285.700754000000
51
360.000000000000
0
ARC
5
54c
100
AcDbEntity
8
0-0
6
CONTINUOUS
62
7
100
AcDbCircle
10
84.000000000000
20
20.742984056264
30
0.0
40
4.000000000000
100
AcDbArc
50
180.000000000000
51
254.299246000000
0
ARC
5
54d
100
AcDbEntity
8
0-0
6
CONTINUOUS
62
7
100
AcDbCircle
10
100.000000000000
20
77.661923056263
30
0.0
40
63.125000000000
100
AcDbArc
50
254.299246000000
51
285.700754000000
0
ARC
5
54e
100
AcDbEntity
8
0-0
6
CONTINUOUS
62
7
100
AcDbCircle
10
116.000000000000
20
52.330862056263
30
0.0
40
4.000000000000
100
AcDbArc
50
0.000000000000
51
74.299246000000
0
ARC
5
54f
100
AcDbEntity
8
0-0
6
CONTINUOUS
62
7
100
AcDbCircle
10
84.000000000000
20
52.330862056263
30
0.0
40
4.000000000000
100
AcDbArc
50
105.700754000000
51
180.000000000000
0
ARC
5
550
100
AcDbEntity
8
0-0
6
CONTINUOUS
62
7
100
AcDbCircle
10
100.000000000000
20
-4.588076943737
30
0.0
40
63.125000000000
100
AcDbArc
50
74.299246000000
51
105.700754000000
0
ARC
5
551
100
AcDbEntity
8
0-0
6
CONTINUOUS
62
7
100
AcDbCircle
10
76.000000000000
20
42.036923056263
30
0.0
40
3.000000000000
100
AcDbArc
50
90.000000000000
51
180.000000000000
0
ARC
5
552
100
AcDbEntity
8
0-0
6
CONTINUOUS
62
7
100
AcDbCircle
10
151.000000000000
20
36.536923056263
30
0.0
40
70.000000000000
100
AcDbArc
50
172.819244000000
51
173.025443000000
0
ARC
5
553
100
AcDbEntity
8
0-0
6
CONTINUOUS
62
7
100
AcDbCircle
10
80.500000000000
20
47.036923056263
30
0.0
40
0.500000000000
100
AcDbArc
50
180.000000000000
51
270.000000000000
0
ARC
5
554
100
AcDbEntity
8
0-0
6
CONTINUOUS
62
7
100
AcDbCircle
10
93.800000000000
20
44.986923056263
30
0.0
40
0.800000000000
100
AcDbArc
50
90.000000000000
51
157.975687000000
0
ARC
5
555
100
AcDbEntity
8
0-0
6
CONTINUOUS
62
7
100
AcDbCircle
10
94.000000000000
20
46.786923056263
30
0.0
40
1.000000000000
100
AcDbArc
50
194.477512000000
51
270.000000000000
0
ARC
5
556
100
AcDbEntity
8
0-0
6
CONTINUOUS
62
7
100
AcDbCircle
10
106.200000000000
20
44.986923056263
30
0.0
40
0.800000000000
100
AcDbArc
50
22.024313000000
51
90.000000000000
0
ARC
5
557
100
AcDbEntity
8
0-0
6
CONTINUOUS
62
7
100
AcDbCircle
10
106.000000000000
20
46.786923056263
30
0.0
40
1.000000000000
100
AcDbArc
50
270.000000000000
51
345.522488000000
0
ARC
5
558
100
AcDbEntity
8
0-0
6
CONTINUOUS
62
7
100
AcDbCircle
10
119.500000000000
20
47.036923056263
30
0.0
40
0.500000000000
100
AcDbArc
50
270.000000000000
51
360.000000000000
0
ARC
5
559
100
AcDbEntity
8
0-0
6
CONTINUOUS
62
7
100
AcDbCircle
10
49.000000000000
20
36.536923056263
30
0.0
40
70.000000000000
100
AcDbArc
50
6.325334000000
51
7.180756000000
0
ARC
5
55a
100
AcDbEntity
8
0-0
6
CONTINUOUS
62
7
100
AcDbCircle
10
76.000000000000
20
31.036923056263
30
0.0
40
3.000000000000
100
AcDbArc
50
180.000000000000
51
270.000000000000
0
ARC
5
55b
100
AcDbEntity
8
0-0
6
CONTINUOUS
62
7
100
AcDbCircle
10
151.000000000000
20
36.536923056263
30
0.0
40
70.000000000000
100
AcDbArc
50
186.974557000000
51
187.180756000000
0
ARC
5
55c
100
AcDbEntity
8
0-0
6
CONTINUOUS
62
7
100
AcDbCircle
10
80.500000000000
20
26.036923056263
30
0.0
40
0.500000000000
100
AcDbArc
50
90.000000000000
51
180.000000000000
0
ARC
5
55d
100
AcDbEntity
8
0-0
6
CONTINUOUS
62
7
100
AcDbCircle
10
94.000000000000
20
26.286923056263
30
0.0
40
1.000000000000
100
AcDbArc
50
90.000000000000
51
165.522488000000
0
ARC
5
55e
100
AcDbEntity
8
0-0
6
CONTINUOUS
62
7
100
AcDbCircle
10
93.800000000000
20
28.086923056263
30
0.0
40
0.800000000000
100
AcDbArc
50
202.024313000000
51
270.000000000000
0
ARC
5
55f
100
AcDbEntity
8
0-0
6
CONTINUOUS
62
7
100
AcDbCircle
10
106.000000000000
20
26.286923056263
30
0.0
40
1.000000000000
100
AcDbArc
50
14.477512000000
51
90.000000000000
0
ARC
5
560
100
AcDbEntity
8
0-0
6
CONTINUOUS
62
7
100
AcDbCircle
10
106.200000000000
20
28.086923056263
30
0.0
40
0.800000000000
100
AcDbArc
50
270.000000000000
51
337.975687000000
0
ARC
5
561
100
AcDbEntity
8
0-0
6
CONTINUOUS
62
7
100
AcDbCircle
10
49.000000000000
20
36.536923056263
30
0.0
40
70.000000000000
100
AcDbArc
50
352.819244000000
51
353.674666000000
0
ARC
5
562
100
AcDbEntity
8
0-0
6
CONTINUOUS
62
7
100
AcDbCircle
10
119.500000000000
20
26.036923056263
30
0.0
40
0.500000000000
100
AcDbArc
50
0.000000000000
51
90.000000000000
0
ARC
5
563
100
AcDbEntity
8
0-0
6
CONTINUOUS
62
7
100
AcDbCircle
10
115.000000000000
20
36.536923056263
30
0.0
40
8.709666912104
100
AcDbArc
50
294.028716098866
51
425.971283901134
0
ARC
5
564
100
AcDbEntity
8
0-0
6
CONTINUOUS
62
7
100
AcDbCircle
10
115.000000000000
20
36.536923056263
30
0.0
40
5.000000000000
100
AcDbArc
50
95.739170477267
51
444.260829522733
0
LINE
5
565
100
AcDbEntity
8
0-1
6
CENTER
62
4
100
AcDbLine
10
115.000000000000
20
202.402459849585
30
0.0
11
115.000000000000
21
151.896990849585
31
0.0
0
LINE
5
566
100
AcDbEntity
8
0-1
6
CENTER
62
4
100
AcDbLine
10
115.000000000000
20
148.000000000000
30
0.0
11
115.000000000000
21
80.000000000000
31
0.0
0
POLYLINE
5
567
100
AcDbEntity
8
0-1
6
CONTINUOUS
62
  4
100
AcDb2dPolyline
66
1
10
0.0
20
0.0
30
0.0
70
0
0
VERTEX
5
568
100
AcDbEntity
8
0-1
6
CONTINUOUS
62
  4
100
AcDbVertex
100
AcDb2dVertex
10
120.000000000000
20
123.500000000000
30
0.0
0
VERTEX
5
569
100
AcDbEntity
8
0-1
6
CONTINUOUS
62
  4
100
AcDbVertex
100
AcDb2dVertex
10
119.188000000000
20
124.906425000000
30
0.0
0
VERTEX
5
56a
100
AcDbEntity
8
0-1
6
CONTINUOUS
62
  4
100
AcDbVertex
100
AcDb2dVertex
10
119.188000000000
20
141.812000000000
30
0.0
0
SEQEND
5
56b
100
AcDbEntity
8
0-1
0
LINE
5
56c
100
AcDbEntity
8
0-1
6
CONTINUOUS
62
4
100
AcDbLine
10
120.000000000000
20
141.000000000000
30
0.0
11
110.000000000000
21
141.000000000000
31
0.0
0
LINE
5
56d
100
AcDbEntity
8
0-1
6
CONTINUOUS
62
4
100
AcDbLine
10
120.000000000000
20
124.906425000000
30
0.0
11
110.000000000000
21
124.906425000000
31
0.0
0
LINE
5
56e
100
AcDbEntity
8
0-1
6
CONTINUOUS
62
4
100
AcDbLine
10
110.812000000000
20
124.906425000000
30
0.0
11
110.000000000000
21
123.500000000000
31
0.0
0
LINE
5
56f
100
AcDbEntity
8
0-1
6
CONTINUOUS
62
4
100
AcDbLine
10
110.812000000000
20
141.812000000000
30
0.0
11
110.812000000000
21
124.906425000000
31
0.0
0
LINE
5
570
100
AcDbEntity
8
0-1
6
CENTER
62
4
100
AcDbLine
10
128.709667000000
20
100.000000000000
30
0.0
11
75.000000000000
21
100.000000000000
31
0.0
0
LINE
5
571
100
AcDbEntity
8
0-1
6
PHANTOM
62
4
100
AcDbLine
10
77.889751000000
20
97.963938000000
30
0.0
11
78.377319000000
21
98.015183000000
31
0.0
0
LINE
5
572
100
AcDbEntity
8
0-1
6
CENTER
62
4
100
AcDbLine
10
66.875148072839
20
100.000000000000
30
0.0
11
12.199732072839
21
100.000000000000
31
0.0
0
LINE
5
573
100
AcDbEntity
8
0-1
6
CENTER
62
4
100
AcDbLine
10
39.537440072839
20
81.900000000000
30
0.0
11
39.537440072839
21
148.000000000000
31
0.0
0
LINE
5
574
100
AcDbEntity
8
0-1
6
CONTINUOUS
62
4
100
AcDbLine
10
44.537440072839
20
141.000000000000
30
0.0
11
34.537440072839
21
141.000000000000
31
0.0
0
POLYLINE
5
575
100
AcDbEntity
8
0-1
6
CONTINUOUS
62
  4
100
AcDb2dPolyline
66
1
10
0.0
20
0.0
30
0.0
70
0
0
VERTEX
5
576
100
AcDbEntity
8
0-1
6
CONTINUOUS
62
  4
100
AcDbVertex
100
AcDb2dVertex
10
34.537440072839
20
123.500000000000
30
0.0
0
VERTEX
5
577
100
AcDbEntity
8
0-1
6
CONTINUOUS
62
  4
100
AcDbVertex
100
AcDb2dVertex
10
35.349440072839
20
124.906425000000
30
0.0
0
VERTEX
5
578
100
AcDbEntity
8
0-1
6
CONTINUOUS
62
  4
100
AcDbVertex
100
AcDb2dVertex
10
35.349440072839
20
141.812000000000
30
0.0
0
SEQEND
5
579
100
AcDbEntity
8
0-1
0
POLYLINE
5
57a
100
AcDbEntity
8
0-1
6
CONTINUOUS
62
  4
100
AcDb2dPolyline
66
1
10
0.0
20
0.0
30
0.0
70
0
0
VERTEX
5
57b
100
AcDbEntity
8
0-1
6
CONTINUOUS
62
  4
100
AcDbVertex
100
AcDb2dVertex
10
43.725440072839
20
141.812000000000
30
0.0
0
VERTEX
5
57c
100
AcDbEntity
8
0-1
6
CONTINUOUS
62
  4
100
AcDbVertex
100
AcDb2dVertex
10
43.725440072839
20
124.906425000000
30
0.0
0
VERTEX
5
57d
100
AcDbEntity
8
0-1
6
CONTINUOUS
62
  4
100
AcDbVertex
100
AcDb2dVertex
10
44.537440072839
20
123.500000000000
30
0.0
0
SEQEND
5
57e
100
AcDbEntity
8
0-1
0
LINE
5
57f
100
AcDbEntity
8
0-1
6
CONTINUOUS
62
4
100
AcDbLine
10
34.537440072839
20
124.906425000000
30
0.0
11
44.537440072839
21
124.906425000000
31
0.0
0
LINE
5
580
100
AcDbEntity
8
0-1
6
PHANTOM
62
4
100
AcDbLine
10
76.233643000000
20
116.894531000000
30
0.0
11
76.741540000000
21
116.947913000000
31
0.0
0
LINE
5
581
100
AcDbEntity
8
0-1
6
PHANTOM
62
4
100
AcDbLine
10
86.672264000000
20
116.277267000000
30
0.0
11
87.496576000000
21
115.609753000000
31
0.0
0
LINE
5
582
100
AcDbEntity
8
0-1
6
CENTER
62
4
100
AcDbLine
10
68.390605000000
20
177.149725849585
30
0.0
11
128.693000000000
21
177.149725849585
31
0.0
0
LINE
5
583
100
AcDbEntity
8
0-1
6
CENTER
62
4
100
AcDbLine
10
100.000000000000
20
204.487433849585
30
0.0
11
100.000000000000
21
149.812016849585
31
0.0
0
LINE
5
584
100
AcDbEntity
8
0-1
6
CENTER
62
4
100
AcDbLine
10
162.637792264462
20
147.500000000000
30
0.0
11
162.637792264462
21
81.900000000000
31
0.0
0
LINE
5
585
100
AcDbEntity
8
0-1
6
CONTINUOUS
62
4
100
AcDbLine
10
157.637792264461
20
141.000000000000
30
0.0
11
167.637792264461
21
141.000000000000
31
0.0
0
POLYLINE
5
586
100
AcDbEntity
8
0-1
6
CONTINUOUS
62
  4
100
AcDb2dPolyline
66
1
10
0.0
20
0.0
30
0.0
70
0
0
VERTEX
5
587
100
AcDbEntity
8
0-1
6
CONTINUOUS
62
  4
100
AcDbVertex
100
AcDb2dVertex
10
166.825792264461
20
141.812000000000
30
0.0
0
VERTEX
5
588
100
AcDbEntity
8
0-1
6
CONTINUOUS
62
  4
100
AcDbVertex
100
AcDb2dVertex
10
166.825792264461
20
124.906425000000
30
0.0
0
VERTEX
5
589
100
AcDbEntity
8
0-1
6
CONTINUOUS
62
  4
100
AcDbVertex
100
AcDb2dVertex
10
167.637792264461
20
123.500000000000
30
0.0
0
SEQEND
5
58a
100
AcDbEntity
8
0-1
0
LINE
5
58b
100
AcDbEntity
8
0-1
6
CONTINUOUS
62
4
100
AcDbLine
10
167.637792264461
20
124.906425000000
30
0.0
11
157.637792264461
21
124.906425000000
31
0.0
0
LINE
5
58c
100
AcDbEntity
8
0-1
6
CONTINUOUS
62
4
100
AcDbLine
10
158.449792264461
20
124.906425000000
30
0.0
11
157.637792264461
21
123.500000000000
31
0.0
0
LINE
5
58d
100
AcDbEntity
8
0-1
6
CONTINUOUS
62
4
100
AcDbLine
10
158.449792264461
20
141.812000000000
30
0.0
11
158.449792264461
21
124.906425000000
31
0.0
0
LINE
5
58e
100
AcDbEntity
8
0-1
6
CENTER
62
4
100
AcDbLine
10
135.300084264461
20
100.000000000000
30
0.0
11
189.975501264462
21
100.000000000000
31
0.0
0
ARC
5
58f
100
AcDbEntity
8
0-1
6
PHANTOM
62
4
100
AcDbCircle
10
78.672258000000
20
113.934098000000
30
0.0
40
0.500000000000
100
AcDbArc
50
197.744024000000
51
327.113966000000
0
ARC
5
590
100
AcDbEntity
8
0-1
6
PHANTOM
62
4
100
AcDbCircle
10
76.338171000000
20
115.900009000000
30
0.0
40
1.000000000000
100
AcDbArc
50
96.000000000000
51
203.235285000000
0
ARC
5
591
100
AcDbEntity
8
0-1
6
PHANTOM
62
4
100
AcDbCircle
10
76.772898000000
20
116.649557000000
30
0.0
40
0.300000000000
100
AcDbArc
50
24.305248000000
51
96.000000000000
0
ARC
5
592
100
AcDbEntity
8
0-1
6
PHANTOM
62
4
100
AcDbCircle
10
84.550524000000
20
110.133310000000
30
0.0
40
6.500000000000
100
AcDbArc
50
70.948274000000
51
147.113966000000
0
ARC
5
593
100
AcDbEntity
8
0-1
6
PHANTOM
62
4
100
AcDbCircle
10
77.785222000000
20
98.958460000000
30
0.0
40
1.000000000000
100
AcDbArc
50
166.528779000000
51
276.000000000000
0
ARC
5
594
100
AcDbEntity
8
0-1
6
PHANTOM
62
4
100
AcDbCircle
10
78.345961000000
20
98.313540000000
30
0.0
40
0.300000000000
100
AcDbArc
50
276.000000000000
51
345.501644000000
0
ARC
5
595
100
AcDbEntity
8
0-1
6
PHANTOM
62
4
100
AcDbCircle
10
51.528072000000
20
105.248296000000
30
0.0
40
28.000000000000
100
AcDbArc
50
345.501644000000
51
384.305248000000
0
ARC
5
596
100
AcDbEntity
8
0-1
6
PHANTOM
62
4
100
AcDbCircle
10
51.528072000000
20
105.248296000000
30
0.0
40
26.000000000000
100
AcDbArc
50
346.528779000000
51
383.235285000000
0
ARC
5
597
100
AcDbEntity
8
0-1
6
PHANTOM
62
4
100
AcDbCircle
10
80.516016000000
20
104.412172000000
30
0.0
40
1.000000000000
100
AcDbArc
50
77.107280000000
51
178.347826000000
0
CIRCLE
5
598
100
AcDbEntity
8
0-1
6
CONTINUOUS
62
4
100
AcDbCircle
10
115.000000000000
20
177.149725849585
30
0.0
40
3.500000000000
0
LINE
5
599
100
AcDbEntity
8
0-1
6
CENTER
62
4
100
AcDbLine
10
100.000000000000
20
78.804526577783
30
0.0
11
100.000000000000
21
125.000000000000
31
0.0
0
LINE
5
59a
100
AcDbEntity
8
0-1
6
CENTER
62
4
100
AcDbLine
10
128.693000000000
20
36.536923056263
30
0.0
11
68.390605000000
21
36.536923056263
31
0.0
0
LINE
5
59b
100
AcDbEntity
8
0-1
6
CENTER
62
4
100
AcDbLine
10
100.000000000000
20
9.199214056263
30
0.0
11
100.000000000000
21
60.303190923666
31
0.0
0
LINE
5
59c
100
AcDbEntity
8
0-1
6
CENTER
62
4
100
AcDbLine
10
115.000000000000
20
43.699361708077
30
0.0
11
115.000000000000
21
29.731102074548
31
0.0
0
TEXT
5
59d
100
AcDbEntity
8
0-0
62
7
370
-3
100
AcDbText
10
0.172
20
0.660
30
0.0
40
3.618
1
CA40M10
41
0.435
50
0.000
100
AcDbText
0
LINE
5
59e
100
AcDbEntity
8
0-0
6
CONTINUOUS
62
7
100
AcDbLine
10
283.536250000001
20
225.137428207278
30
0.0
11
290.463760000000
21
225.137428207278
31
0.0
0
LINE
5
59f
100
AcDbEntity
8
0-0
6
CONTINUOUS
62
7
100
AcDbLine
10
291.312960000000
20
225.634908207278
30
0.0
11
300.000000000000
21
225.634908207278
31
0.0
0
LINE
5
5a0
100
AcDbEntity
8
0-0
6
CONTINUOUS
62
7
100
AcDbLine
10
300.000000000000
20
224.639768207278
30
0.0
11
292.953100000001
21
224.639768207278
31
0.0
0
LINE
5
5a1
100
AcDbEntity
8
0-0
6
CONTINUOUS
62
7
100
AcDbLine
10
282.628690000000
20
225.634908207278
30
0.0
11
240.000000000000
21
225.634908207278
31
0.0
0
LINE
5
5a2
100
AcDbEntity
8
0-0
6
CONTINUOUS
62
7
100
AcDbLine
10
240.000000000000
20
224.639768207278
30
0.0
11
281.046910000000
21
224.639768207278
31
0.0
0
LINE
5
5a3
100
AcDbEntity
8
0-0
6
CONTINUOUS
62
7
100
AcDbLine
10
300.000000000000
20
208.715198207278
30
0.0
11
292.953330000000
21
208.715198207278
31
0.0
0
LINE
5
5a4
100
AcDbEntity
8
0-0
6
CONTINUOUS
62
7
100
AcDbLine
10
291.312960000000
20
207.719888207278
30
0.0
11
300.000000000000
21
207.719888207278
31
0.0
0
POLYLINE
5
5a5
100
AcDbEntity
8
0-0
6
CONTINUOUS
62
  7
100
AcDb2dPolyline
66
1
10
0.0
20
0.0
30
0.0
70
0
0
VERTEX
5
5a6
100
AcDbEntity
8
0-0
6
CONTINUOUS
62
  7
100
AcDbVertex
100
AcDb2dVertex
10
300.000000000000
20
200.753008207278
30
0.0
0
VERTEX
5
5a7
100
AcDbEntity
8
0-0
6
CONTINUOUS
62
  7
100
AcDbVertex
100
AcDb2dVertex
10
240.000000000000
20
200.753008207278
30
0.0
0
VERTEX
5
5a8
100
AcDbEntity
8
0-0
6
CONTINUOUS
62
  7
100
AcDbVertex
100
AcDb2dVertex
10
240.000000000000
20
208.914198207278
30
0.0
0
SEQEND
5
5a9
100
AcDbEntity
8
0-0
0
LINE
5
5aa
100
AcDbEntity
8
0-0
6
CONTINUOUS
62
7
100
AcDbLine
10
240.000000000000
20
208.715198207278
30
0.0
11
281.046670000000
21
208.715198207278
31
0.0
0
LINE
5
5ab
100
AcDbEntity
8
0-0
6
CONTINUOUS
62
7
100
AcDbLine
10
282.687040000000
20
207.719888207278
30
0.0
11
240.000000000000
21
207.719888207278
31
0.0
0
LINE
5
5ac
100
AcDbEntity
8
0-0
6
CONTINUOUS
62
7
100
AcDbLine
10
238.799970000000
20
208.914198207278
30
0.0
11
247.249560000000
21
208.914198207278
31
0.0
0
LINE
5
5ad
100
AcDbEntity
8
0-0
6
CONTINUOUS
62
7
100
AcDbLine
10
247.257040000000
20
208.715198207278
30
0.0
11
247.257040000000
21
210.605988207278
31
0.0
0
LINE
5
5ae
100
AcDbEntity
8
0-0
6
CONTINUOUS
62
7
100
AcDbLine
10
247.249560000000
20
210.605988207278
30
0.0
11
240.000000000000
21
210.605988207278
31
0.0
0
LINE
5
5af
100
AcDbEntity
8
0-0
6
CONTINUOUS
62
7
100
AcDbLine
10
240.000000000000
20
210.407348207278
30
0.0
11
240.000000000000
21
222.947798207278
31
0.0
0
LINE
5
5b0
100
AcDbEntity
8
0-0
6
CONTINUOUS
62
7
100
AcDbLine
10
240.000000000000
20
222.748798207278
30
0.0
11
247.249560000000
21
222.748798207278
31
0.0
0
LINE
5
5b1
100
AcDbEntity
8
0-0
6
CONTINUOUS
62
7
100
AcDbLine
10
247.256170000000
20
222.748798207278
30
0.0
11
247.256170000000
21
224.639768207278
31
0.0
0
LINE
5
5b2
100
AcDbEntity
8
0-0
6
CONTINUOUS
62
7
100
AcDbLine
10
247.249560000000
20
224.440948207278
30
0.0
11
238.799970000000
21
224.440948207278
31
0.0
0
POLYLINE
5
5b3
100
AcDbEntity
8
0-0
6
CONTINUOUS
62
  7
100
AcDb2dPolyline
66
1
10
0.0
20
0.0
30
0.0
70
0
0
VERTEX
5
5b4
100
AcDbEntity
8
0-0
6
CONTINUOUS
62
  7
100
AcDbVertex
100
AcDb2dVertex
10
240.000000000000
20
224.440948207278
30
0.0
0
VERTEX
5
5b5
100
AcDbEntity
8
0-0
6
CONTINUOUS
62
  7
100
AcDbVertex
100
AcDb2dVertex
10
240.000000000000
20
232.602138207278
30
0.0
0
VERTEX
5
5b6
100
AcDbEntity
8
0-0
6
CONTINUOUS
62
  7
100
AcDbVertex
100
AcDb2dVertex
10
300.000000000000
20
232.602138207278
30
0.0
0
VERTEX
5
5b7
100
AcDbEntity
8
0-0
6
CONTINUOUS
62
  7
100
AcDbVertex
100
AcDb2dVertex
10
300.000000000000
20
200.753008207278
30
0.0
0
SEQEND
5
5b8
100
AcDbEntity
8
0-0
0
LINE
5
5b9
100
AcDbEntity
8
0-0
6
CONTINUOUS
62
7
100
AcDbLine
10
290.464180000000
20
208.217538207278
30
0.0
11
283.535820000001
21
208.217538207278
31
0.0
0
LINE
5
5ba
100
AcDbEntity
8
0-0
6
CONTINUOUS
62
7
100
AcDbLine
10
247.256170000000
20
222.947798207278
30
0.0
11
239.297630000000
21
222.947798207278
31
0.0
0
LINE
5
5bb
100
AcDbEntity
8
0-0
6
CONTINUOUS
62
7
100
AcDbLine
10
238.302490000000
20
221.952478207278
30
0.0
11
238.302490000000
21
211.402488207278
31
0.0
0
LINE
5
5bc
100
AcDbEntity
8
0-0
6
CONTINUOUS
62
7
100
AcDbLine
10
238.302490000000
20
211.701158207278
30
0.0
11
232.330410000000
21
211.701158207278
31
0.0
0
LINE
5
5bd
100
AcDbEntity
8
0-0
6
CONTINUOUS
62
7
100
AcDbLine
10
231.335260000000
20
212.696450807278
30
0.0
11
231.335260000000
21
220.658820807278
31
0.0
0
LINE
5
5be
100
AcDbEntity
8
0-0
6
CONTINUOUS
62
7
100
AcDbLine
10
232.330410000000
20
221.653988207278
30
0.0
11
238.302490000000
21
221.653988207278
31
0.0
0
LINE
5
5bf
100
AcDbEntity
8
0-0
6
CONTINUOUS
62
7
100
AcDbLine
10
236.809340000000
20
221.653988207278
30
0.0
11
236.809340000000
21
222.450308207278
31
0.0
0
LINE
5
5c0
100
AcDbEntity
8
0-0
6
CONTINUOUS
62
7
100
AcDbLine
10
236.809340000000
20
211.701158207278
30
0.0
11
236.809340000000
21
210.904828207278
31
0.0
0
LINE
5
5c1
100
AcDbEntity
8
0-0
6
CONTINUOUS
62
7
100
AcDbLine
10
239.297630000000
20
210.407348207278
30
0.0
11
247.249560000000
21
210.407348207278
31
0.0
0
LINE
5
5c2
100
AcDbEntity
8
0-0
6
CONTINUOUS
62
1
100
AcDbLine
10
240.000000000000
20
39.536296232911
30
0.0
11
240.570228018301
21
39.536296232911
31
0.0
0
ARC
5
5c3
100
AcDbEntity
8
0-0
6
CONTINUOUS
62
7
100
AcDbCircle
10
232.330410000000
20
212.696450807278
30
0.0
40
0.995292600000
100
AcDbArc
50
180.000000000000
51
270.000000000000
0
ARC
5
5c4
100
AcDbEntity
8
0-0
6
CONTINUOUS
62
7
100
AcDbCircle
10
232.330410000000
20
220.658820807278
30
0.0
40
0.995292600000
100
AcDbArc
50
90.000000000000
51
180.000000000000
0
ARC
5
5c5
100
AcDbEntity
8
0-0
6
CONTINUOUS
62
7
100
AcDbCircle
10
270.000000000000
20
273.118858207278
30
0.0
40
78.337840000000
100
AcDbArc
50
247.483050000000
51
292.516940000000
0
ARC
5
5c6
100
AcDbEntity
8
0-0
6
CONTINUOUS
62
7
100
AcDbCircle
10
270.000000000000
20
162.863018207278
30
0.0
40
75.918008000000
100
AcDbArc
50
66.723849000000
51
113.276150000000
0
CIRCLE
5
5c7
100
AcDbEntity
8
0-0
6
CONTINUOUS
62
7
100
AcDbCircle
10
287.000000000000
20
216.677398207278
30
0.0
40
5.000000000000
0
CIRCLE
5
5c8
100
AcDbEntity
8
0-0
6
CONTINUOUS
62
7
100
AcDbCircle
10
287.000000000000
20
216.677398207278
30
0.0
40
9.941764600000
0
ARC
5
5c9
100
AcDbEntity
8
0-0
6
CONTINUOUS
62
7
100
AcDbCircle
10
287.000000000000
20
216.677398207278
30
0.0
40
9.141645100000
100
AcDbArc
50
292.268340000000
51
427.734531000000
0
ARC
5
5ca
100
AcDbEntity
8
0-0
6
CONTINUOUS
62
7
100
AcDbCircle
10
287.000000000000
20
216.677398207278
30
0.0
40
9.141645100000
100
AcDbArc
50
112.265460000000
51
247.731650000000
0
ARC
5
5cb
100
AcDbEntity
8
0-0
6
CONTINUOUS
62
7
100
AcDbCircle
10
239.297630000000
20
211.402488207278
30
0.0
40
0.995292600000
100
AcDbArc
50
180.000000000000
51
270.000000000000
0
ARC
5
5cc
100
AcDbEntity
8
0-0
6
CONTINUOUS
62
7
100
AcDbCircle
10
239.297630000000
20
221.952478207278
30
0.0
40
0.995292600000
100
AcDbArc
50
90.000000000000
51
180.000000000000
0
ARC
5
5cd
100
AcDbEntity
8
0-0
6
CONTINUOUS
62
7
100
AcDbCircle
10
238.799970000000
20
210.904828207278
30
0.0
40
1.990585300000
100
AcDbArc
50
180.000000000000
51
270.000000000000
0
ARC
5
5ce
100
AcDbEntity
8
0-0
6
CONTINUOUS
62
7
100
AcDbCircle
10
238.799970000000
20
222.450308207278
30
0.0
40
1.990585300000
100
AcDbArc
50
90.000000000000
51
180.000000000000
0
LINE
5
5cf
100
AcDbEntity
8
0-0
6
CONTINUOUS
62
7
100
AcDbLine
10
252.300000000000
20
19.036296232911
30
0.0
11
287.700000000000
21
19.036296232911
31
0.0
0
LINE
5
5d0
100
AcDbEntity
8
0-0
6
CONTINUOUS
62
7
100
AcDbLine
10
287.700000000000
20
60.036296232911
30
0.0
11
252.300000000000
21
60.036296232911
31
0.0
0
LINE
5
5d1
100
AcDbEntity
8
0-0
6
CONTINUOUS
62
7
100
AcDbLine
10
250.000000000000
20
48.536296232911
30
0.0
11
250.000000000000
21
47.536296232911
31
0.0
0
LINE
5
5d2
100
AcDbEntity
8
0-0
6
CONTINUOUS
62
7
100
AcDbLine
10
249.000000000000
20
47.536296232911
30
0.0
11
249.000000000000
21
48.536296232911
31
0.0
0
LINE
5
5d3
100
AcDbEntity
8
0-0
6
CONTINUOUS
62
7
100
AcDbLine
10
256.500000000000
20
48.536296232911
30
0.0
11
256.500000000000
21
47.536296232911
31
0.0
0
POLYLINE
5
5d4
100
AcDbEntity
8
0-0
6
CONTINUOUS
62
  7
100
AcDb2dPolyline
66
1
10
0.0
20
0.0
30
0.0
70
0
0
VERTEX
5
5d5
100
AcDbEntity
8
0-0
6
CONTINUOUS
62
  7
100
AcDbVertex
100
AcDb2dVertex
10
261.000000000000
20
47.536296232911
30
0.0
0
VERTEX
5
5d6
100
AcDbEntity
8
0-0
6
CONTINUOUS
62
  7
100
AcDbVertex
100
AcDb2dVertex
10
240.000000000000
20
47.536296232911
30
0.0
0
VERTEX
5
5d7
100
AcDbEntity
8
0-0
6
CONTINUOUS
62
  7
100
AcDbVertex
100
AcDb2dVertex
10
240.000000000000
20
31.536296232911
30
0.0
0
VERTEX
5
5d8
100
AcDbEntity
8
0-0
6
CONTINUOUS
62
  7
100
AcDbVertex
100
AcDb2dVertex
10
260.944444000000
20
31.536296232911
30
0.0
0
VERTEX
5
5d9
100
AcDbEntity
8
0-0
6
CONTINUOUS
62
  7
100
AcDbVertex
100
AcDb2dVertex
10
260.500000000000
20
39.536296232911
30
0.0
0
VERTEX
5
5da
100
AcDbEntity
8
0-0
6
CONTINUOUS
62
  7
100
AcDbVertex
100
AcDb2dVertex
10
261.000000000000
20
47.536296232911
30
0.0
0
SEQEND
5
5db
100
AcDbEntity
8
0-0
0
POLYLINE
5
5dc
100
AcDbEntity
8
0-0
6
CONTINUOUS
62
  7
100
AcDb2dPolyline
66
1
10
0.0
20
0.0
30
0.0
70
0
0
VERTEX
5
5dd
100
AcDbEntity
8
0-0
6
CONTINUOUS
62
  7
100
AcDbVertex
100
AcDb2dVertex
10
270.000000000000
20
45.536296232911
30
0.0
0
VERTEX
5
5de
100
AcDbEntity
8
0-0
6
CONTINUOUS
62
  7
100
AcDbVertex
100
AcDb2dVertex
10
278.500000000000
20
45.536296232911
30
0.0
0
VERTEX
5
5df
100
AcDbEntity
8
0-0
6
CONTINUOUS
62
  7
100
AcDbVertex
100
AcDb2dVertex
10
278.500000000000
20
39.536296232911
30
0.0
0
VERTEX
5
5e0
100
AcDbEntity
8
0-0
6
CONTINUOUS
62
  7
100
AcDbVertex
100
AcDb2dVertex
10
270.000000000000
20
39.536296232911
30
0.0
0
VERTEX
5
5e1
100
AcDbEntity
8
0-0
6
CONTINUOUS
62
  7
100
AcDbVertex
100
AcDb2dVertex
10
270.000000000000
20
45.536296232911
30
0.0
0
SEQEND
5
5e2
100
AcDbEntity
8
0-0
0
LINE
5
5e3
100
AcDbEntity
8
0-0
6
CONTINUOUS
62
7
100
AcDbLine
10
274.500000000000
20
45.036296232911
30
0.0
11
274.500000000000
21
40.036296232911
31
0.0
0
LINE
5
5e4
100
AcDbEntity
8
0-0
6
CONTINUOUS
62
7
100
AcDbLine
10
282.000000000000
20
48.536296232911
30
0.0
11
282.000000000000
21
30.536296232911
31
0.0
0
POLYLINE
5
5e5
100
AcDbEntity
8
0-0
6
CONTINUOUS
62
  7
100
AcDb2dPolyline
66
1
10
0.0
20
0.0
30
0.0
70
0
0
VERTEX
5
5e6
100
AcDbEntity
8
0-0
6
CONTINUOUS
62
  7
100
AcDbVertex
100
AcDb2dVertex
10
289.000000000000
20
30.536296232911
30
0.0
0
VERTEX
5
5e7
100
AcDbEntity
8
0-0
6
CONTINUOUS
62
  7
100
AcDbVertex
100
AcDb2dVertex
10
292.000000000000
20
31.536296232911
30
0.0
0
VERTEX
5
5e8
100
AcDbEntity
8
0-0
6
CONTINUOUS
62
  7
100
AcDbVertex
100
AcDb2dVertex
10
300.000000000000
20
31.536296232911
30
0.0
0
VERTEX
5
5e9
100
AcDbEntity
8
0-0
6
CONTINUOUS
62
  7
100
AcDbVertex
100
AcDb2dVertex
10
300.000000000000
20
47.536296232911
30
0.0
0
VERTEX
5
5ea
100
AcDbEntity
8
0-0
6
CONTINUOUS
62
  7
100
AcDbVertex
100
AcDb2dVertex
10
292.000000000000
20
47.536296232911
30
0.0
0
VERTEX
5
5eb
100
AcDbEntity
8
0-0
6
CONTINUOUS
62
  7
100
AcDbVertex
100
AcDb2dVertex
10
289.000000000000
20
48.536296232911
30
0.0
0
SEQEND
5
5ec
100
AcDbEntity
8
0-0
0
POLYLINE
5
5ed
100
AcDbEntity
8
0-0
6
CONTINUOUS
62
  7
100
AcDb2dPolyline
66
1
10
0.0
20
0.0
30
0.0
70
0
0
VERTEX
5
5ee
100
AcDbEntity
8
0-0
6
CONTINUOUS
62
  7
100
AcDbVertex
100
AcDb2dVertex
10
297.000000000000
20
47.536296232911
30
0.0
0
VERTEX
5
5ef
100
AcDbEntity
8
0-0
6
CONTINUOUS
62
  7
100
AcDbVertex
100
AcDb2dVertex
10
296.500000000000
20
39.536296232911
30
0.0
0
VERTEX
5
5f0
100
AcDbEntity
8
0-0
6
CONTINUOUS
62
  7
100
AcDbVertex
100
AcDb2dVertex
10
297.000000000000
20
31.536296232911
30
0.0
0
SEQEND
5
5f1
100
AcDbEntity
8
0-0
0
LINE
5
5f2
100
AcDbEntity
8
0-0
6
CONTINUOUS
62
7
100
AcDbLine
10
299.500000000000
20
31.536296232911
30
0.0
11
299.500000000000
21
47.536296232911
31
0.0
0
LINE
5
5f3
100
AcDbEntity
8
0-0
6
CONTINUOUS
62
7
100
AcDbLine
10
299.500000000000
20
48.536296232911
30
0.0
11
240.500000000000
21
48.536296232911
31
0.0
0
LINE
5
5f4
100
AcDbEntity
8
0-0
6
CONTINUOUS
62
7
100
AcDbLine
10
240.000000000000
20
49.036296232911
30
0.0
11
240.000000000000
21
54.904519232911
31
0.0
0
LINE
5
5f5
100
AcDbEntity
8
0-0
6
CONTINUOUS
62
7
100
AcDbLine
10
299.500000000000
20
30.536296232911
30
0.0
11
240.500000000000
21
30.536296232911
31
0.0
0
LINE
5
5f6
100
AcDbEntity
8
0-0
6
CONTINUOUS
62
7
100
AcDbLine
10
240.000000000000
20
30.036296232911
30
0.0
11
240.000000000000
21
24.168072232911
31
0.0
0
LINE
5
5f7
100
AcDbEntity
8
0-0
6
CONTINUOUS
62
7
100
AcDbLine
10
249.000000000000
20
31.536296232911
30
0.0
11
249.000000000000
21
30.536296232911
31
0.0
0
LINE
5
5f8
100
AcDbEntity
8
0-0
6
CONTINUOUS
62
7
100
AcDbLine
10
250.000000000000
20
30.536296232911
30
0.0
11
250.000000000000
21
31.536296232911
31
0.0
0
LINE
5
5f9
100
AcDbEntity
8
0-0
6
CONTINUOUS
62
7
100
AcDbLine
10
256.500000000000
20
31.536296232911
30
0.0
11
256.500000000000
21
30.536296232911
31
0.0
0
LINE
5
5fa
100
AcDbEntity
8
0-0
6
CONTINUOUS
62
7
100
AcDbLine
10
300.000000000000
20
30.036296232911
30
0.0
11
300.000000000000
21
24.168072232911
31
0.0
0
LINE
5
5fb
100
AcDbEntity
8
0-0
6
CONTINUOUS
62
7
100
AcDbLine
10
300.000000000000
20
49.036296232911
30
0.0
11
300.000000000000
21
54.904519232911
31
0.0
0
ARC
5
5fc
100
AcDbEntity
8
0-0
6
CONTINUOUS
62
7
100
AcDbCircle
10
270.000000000000
20
122.716296232911
30
0.0
40
105.180000000000
100
AcDbArc
50
254.678227000000
51
285.321773000000
0
ARC
5
5fd
100
AcDbEntity
8
0-0
6
CONTINUOUS
62
7
100
AcDbCircle
10
297.000000000000
20
24.168072232911
30
0.0
40
3.000000000000
100
AcDbArc
50
285.321773000000
51
360.000000000000
0
ARC
5
5fe
100
AcDbEntity
8
0-0
6
CONTINUOUS
62
7
100
AcDbCircle
10
297.000000000000
20
54.904519232911
30
0.0
40
3.000000000000
100
AcDbArc
50
0.000000000000
51
74.678227000000
0
ARC
5
5ff
100
AcDbEntity
8
0-0
6
CONTINUOUS
62
7
100
AcDbCircle
10
243.000000000000
20
24.168072232911
30
0.0
40
3.000000000000
100
AcDbArc
50
180.000000000000
51
254.678227000000
0
ARC
5
600
100
AcDbEntity
8
0-0
6
CONTINUOUS
62
7
100
AcDbCircle
10
240.500000000000
20
30.036296232911
30
0.0
40
0.500000000000
100
AcDbArc
50
90.000000000000
51
180.000000000000
0
ARC
5
601
100
AcDbEntity
8
0-0
6
CONTINUOUS
62
7
100
AcDbCircle
10
240.500000000000
20
49.036296232911
30
0.0
40
0.500000000000
100
AcDbArc
50
180.000000000000
51
270.000000000000
0
ARC
5
602
100
AcDbEntity
8
0-0
6
CONTINUOUS
62
7
100
AcDbCircle
10
270.000000000000
20
-43.643703767089
30
0.0
40
105.180000000000
100
AcDbArc
50
74.678227000000
51
105.321773000000
0
ARC
5
603
100
AcDbEntity
8
0-0
6
CONTINUOUS
62
7
100
AcDbCircle
10
243.000000000000
20
54.904519232911
30
0.0
40
3.000000000000
100
AcDbArc
50
105.321773000000
51
180.000000000000
0
ARC
5
604
100
AcDbEntity
8
0-0
6
CONTINUOUS
62
7
100
AcDbCircle
10
299.500000000000
20
30.036296232911
30
0.0
40
0.500000000000
100
AcDbArc
50
0.000000000000
51
90.000000000000
0
ARC
5
605
100
AcDbEntity
8
0-0
6
CONTINUOUS
62
7
100
AcDbCircle
10
299.500000000000
20
49.036296232911
30
0.0
40
0.500000000000
100
AcDbArc
50
270.000000000000
51
360.000000000000
0
CIRCLE
5
606
100
AcDbEntity
8
0-0
6
CONTINUOUS
62
7
100
AcDbCircle
10
287.000000000000
20
39.536296232911
30
0.0
40
4.500000000000
0
POLYLINE
5
607
100
AcDbEntity
8
0-0
6
CONTINUOUS
62
  7
100
AcDb2dPolyline
66
1
10
0.0
20
0.0
30
0.0
70
0
0
VERTEX
5
608
100
AcDbEntity
8
0-0
6
CONTINUOUS
62
  7
100
AcDbVertex
100
AcDb2dVertex
10
231.323040000000
20
133.021260000000
30
0.0
0
VERTEX
5
609
100
AcDbEntity
8
0-0
6
CONTINUOUS
62
  7
100
AcDbVertex
100
AcDb2dVertex
10
231.411440000000
20
132.011740000000
30
0.0
0
VERTEX
5
60a
100
AcDbEntity
8
0-0
6
CONTINUOUS
62
  7
100
AcDbVertex
100
AcDb2dVertex
10
242.924530000000
20
132.919700000000
30
0.0
0
SEQEND
5
60b
100
AcDbEntity
8
0-0
0
POLYLINE
5
60c
100
AcDbEntity
8
0-0
6
CONTINUOUS
62
  7
100
AcDb2dPolyline
66
1
10
0.0
20
0.0
30
0.0
70
0
0
VERTEX
5
60d
100
AcDbEntity
8
0-0
6
CONTINUOUS
62
  7
100
AcDbVertex
100
AcDb2dVertex
10
236.809340000000
20
132.437770000000
30
0.0
0
VERTEX
5
60e
100
AcDbEntity
8
0-0
6
CONTINUOUS
62
  7
100
AcDbVertex
100
AcDb2dVertex
10
237.239810000000
20
127.516440000000
30
0.0
0
VERTEX
5
60f
100
AcDbEntity
8
0-0
6
CONTINUOUS
62
  7
100
AcDbVertex
100
AcDb2dVertex
10
241.013910000000
20
127.733460000000
30
0.0
0
SEQEND
5
610
100
AcDbEntity
8
0-0
0
LINE
5
611
100
AcDbEntity
8
0-0
6
CONTINUOUS
62
7
100
AcDbLine
10
297.000000000000
20
146.324890000000
30
0.0
11
297.000000000000
21
150.000000000000
31
0.0
0
POLYLINE
5
612
100
AcDbEntity
8
0-0
6
CONTINUOUS
62
  7
100
AcDb2dPolyline
66
1
10
0.0
20
0.0
30
0.0
70
0
0
VERTEX
5
613
100
AcDbEntity
8
0-0
6
CONTINUOUS
62
  7
100
AcDbVertex
100
AcDb2dVertex
10
295.000000000000
20
152.000000000000
30
0.0
0
VERTEX
5
614
100
AcDbEntity
8
0-0
6
CONTINUOUS
62
  7
100
AcDbVertex
100
AcDb2dVertex
10
277.000000000000
20
152.000000000000
30
0.0
0
VERTEX
5
615
100
AcDbEntity
8
0-0
6
CONTINUOUS
62
  7
100
AcDbVertex
100
AcDb2dVertex
10
277.000000000000
20
151.606960000000
30
0.0
0
SEQEND
5
616
100
AcDbEntity
8
0-0
0
POLYLINE
5
617
100
AcDbEntity
8
0-0
6
CONTINUOUS
62
  7
100
AcDb2dPolyline
66
1
10
0.0
20
0.0
30
0.0
70
0
0
VERTEX
5
618
100
AcDbEntity
8
0-0
6
CONTINUOUS
62
  7
100
AcDbVertex
100
AcDb2dVertex
10
277.800000000000
20
154.000000000000
30
0.0
0
VERTEX
5
619
100
AcDbEntity
8
0-0
6
CONTINUOUS
62
  7
100
AcDbVertex
100
AcDb2dVertex
10
277.000000000000
20
154.800000000000
30
0.0
0
VERTEX
5
61a
100
AcDbEntity
8
0-0
6
CONTINUOUS
62
  7
100
AcDbVertex
100
AcDb2dVertex
10
277.000000000000
20
159.200000000000
30
0.0
0
SEQEND
5
61b
100
AcDbEntity
8
0-0
0
POLYLINE
5
61c
100
AcDbEntity
8
0-0
6
CONTINUOUS
62
  7
100
AcDb2dPolyline
66
1
10
0.0
20
0.0
30
0.0
70
0
0
VERTEX
5
61d
100
AcDbEntity
8
0-0
6
CONTINUOUS
62
  7
100
AcDbVertex
100
AcDb2dVertex
10
276.999880000000
20
159.199880000000
30
0.0
0
VERTEX
5
61e
100
AcDbEntity
8
0-0
6
CONTINUOUS
62
  7
100
AcDbVertex
100
AcDb2dVertex
10
277.800000000000
20
160.000000000000
30
0.0
0
VERTEX
5
61f
100
AcDbEntity
8
0-0
6
CONTINUOUS
62
  7
100
AcDbVertex
100
AcDb2dVertex
10
296.200000000000
20
160.000000000000
30
0.0
0
VERTEX
5
620
100
AcDbEntity
8
0-0
6
CONTINUOUS
62
  7
100
AcDbVertex
100
AcDb2dVertex
10
297.000040000000
20
159.199950000000
30
0.0
0
SEQEND
5
621
100
AcDbEntity
8
0-0
0
POLYLINE
5
622
100
AcDbEntity
8
0-0
6
CONTINUOUS
62
  7
100
AcDb2dPolyline
66
1
10
0.0
20
0.0
30
0.0
70
0
0
VERTEX
5
623
100
AcDbEntity
8
0-0
6
CONTINUOUS
62
  7
100
AcDbVertex
100
AcDb2dVertex
10
297.000000000000
20
159.200000000000
30
0.0
0
VERTEX
5
624
100
AcDbEntity
8
0-0
6
CONTINUOUS
62
  7
100
AcDbVertex
100
AcDb2dVertex
10
297.000000000000
20
154.800000000000
30
0.0
0
VERTEX
5
625
100
AcDbEntity
8
0-0
6
CONTINUOUS
62
  7
100
AcDbVertex
100
AcDb2dVertex
10
296.200000000000
20
154.000000000000
30
0.0
0
VERTEX
5
626
100
AcDbEntity
8
0-0
6
CONTINUOUS
62
  7
100
AcDbVertex
100
AcDb2dVertex
10
277.800000000000
20
154.000000000000
30
0.0
0
SEQEND
5
627
100
AcDbEntity
8
0-0
0
LINE
5
628
100
AcDbEntity
8
0-0
6
CONTINUOUS
62
7
100
AcDbLine
10
276.999880000000
20
155.000070000000
30
0.0
11
281.500000000000
21
155.000070000000
31
0.0
0
LINE
5
629
100
AcDbEntity
8
0-0
6
CONTINUOUS
62
7
100
AcDbLine
10
282.000000000000
20
154.000000000000
30
0.0
11
282.000000000000
21
152.000000000000
31
0.0
0
LINE
5
62a
100
AcDbEntity
8
0-0
6
CONTINUOUS
62
7
100
AcDbLine
10
283.000040000000
20
156.499930000000
30
0.0
11
283.000040000000
21
157.499960000000
31
0.0
0
LINE
5
62b
100
AcDbEntity
8
0-0
6
CONTINUOUS
62
7
100
AcDbLine
10
284.500070000001
20
159.000000000000
30
0.0
11
289.500030000001
21
159.000000000000
31
0.0
0
LINE
5
62c
100
AcDbEntity
8
0-0
6
CONTINUOUS
62
7
100
AcDbLine
10
292.499930000000
20
159.000000000000
30
0.0
11
297.000000000000
21
159.000000000000
31
0.0
0
LINE
5
62d
100
AcDbEntity
8
0-0
6
CONTINUOUS
62
7
100
AcDbLine
10
297.000040000000
20
155.000070000000
30
0.0
11
292.499930000000
21
155.000070000000
31
0.0
0
LINE
5
62e
100
AcDbEntity
8
0-0
6
CONTINUOUS
62
7
100
AcDbLine
10
292.000000000000
20
154.000000000000
30
0.0
11
292.000000000000
21
152.000000000000
31
0.0
0
LINE
5
62f
100
AcDbEntity
8
0-0
6
CONTINUOUS
62
7
100
AcDbLine
10
291.000070000000
20
156.499930000000
30
0.0
11
291.000070000000
21
157.499960000000
31
0.0
0
POLYLINE
5
630
100
AcDbEntity
8
0-0
6
CONTINUOUS
62
  7
100
AcDb2dPolyline
66
1
10
0.0
20
0.0
30
0.0
70
0
0
VERTEX
5
631
100
AcDbEntity
8
0-0
6
CONTINUOUS
62
  7
100
AcDbVertex
100
AcDb2dVertex
10
292.000000000000
20
160.000000000000
30
0.0
0
VERTEX
5
632
100
AcDbEntity
8
0-0
6
CONTINUOUS
62
  7
100
AcDbVertex
100
AcDb2dVertex
10
292.000000000000
20
178.299990000000
30
0.0
0
VERTEX
5
633
100
AcDbEntity
8
0-0
6
CONTINUOUS
62
  7
100
AcDbVertex
100
AcDb2dVertex
10
291.300000000001
20
179.000000000000
30
0.0
0
VERTEX
5
634
100
AcDbEntity
8
0-0
6
CONTINUOUS
62
  7
100
AcDbVertex
100
AcDb2dVertex
10
282.700000000000
20
179.000000000000
30
0.0
0
VERTEX
5
635
100
AcDbEntity
8
0-0
6
CONTINUOUS
62
  7
100
AcDbVertex
100
AcDb2dVertex
10
282.000000000000
20
178.299990000000
30
0.0
0
VERTEX
5
636
100
AcDbEntity
8
0-0
6
CONTINUOUS
62
  7
100
AcDbVertex
100
AcDb2dVertex
10
282.000000000000
20
160.000000000000
30
0.0
0
SEQEND
5
637
100
AcDbEntity
8
0-0
0
LINE
5
638
100
AcDbEntity
8
0-0
6
CONTINUOUS
62
7
100
AcDbLine
10
281.500000000000
20
159.000000000000
30
0.0
11
277.000000000000
21
159.000000000000
31
0.0
0
LINE
5
639
100
AcDbEntity
8
0-0
6
CONTINUOUS
62
7
100
AcDbLine
10
284.500070000001
20
155.000070000000
30
0.0
11
289.500030000001
21
155.000070000000
31
0.0
0
POLYLINE
5
63a
100
AcDbEntity
8
0-0
6
CONTINUOUS
62
  7
100
AcDb2dPolyline
66
1
10
0.0
20
0.0
30
0.0
70
0
0
VERTEX
5
63b
100
AcDbEntity
8
0-0
6
CONTINUOUS
62
  7
100
AcDbVertex
100
AcDb2dVertex
10
334.263649145795
20
90.000000000000
30
0.0
0
VERTEX
5
63c
100
AcDbEntity
8
0-0
6
CONTINUOUS
62
  7
100
AcDbVertex
100
AcDb2dVertex
10
342.763649145795
20
90.000000000000
30
0.0
0
VERTEX
5
63d
100
AcDbEntity
8
0-0
6
CONTINUOUS
62
  7
100
AcDbVertex
100
AcDb2dVertex
10
342.763649145795
20
150.000000000000
30
0.0
0
VERTEX
5
63e
100
AcDbEntity
8
0-0
6
CONTINUOUS
62
  7
100
AcDbVertex
100
AcDb2dVertex
10
334.263649145795
20
150.000000000000
30
0.0
0
VERTEX
5
63f
100
AcDbEntity
8
0-0
6
CONTINUOUS
62
  7
100
AcDbVertex
100
AcDb2dVertex
10
334.263649145795
20
90.000000000000
30
0.0
0
SEQEND
5
640
100
AcDbEntity
8
0-0
0
POLYLINE
5
641
100
AcDbEntity
8
0-0
6
CONTINUOUS
62
  7
100
AcDb2dPolyline
66
1
10
0.0
20
0.0
30
0.0
70
0
0
VERTEX
5
642
100
AcDbEntity
8
0-0
6
CONTINUOUS
62
  7
100
AcDbVertex
100
AcDb2dVertex
10
343.763649145795
20
93.064231872559
30
0.0
0
VERTEX
5
643
100
AcDbEntity
8
0-0
6
CONTINUOUS
62
  7
100
AcDbVertex
100
AcDb2dVertex
10
360.763649145795
20
93.064231872559
30
0.0
0
VERTEX
5
644
100
AcDbEntity
8
0-0
6
CONTINUOUS
62
  7
100
AcDbVertex
100
AcDb2dVertex
10
360.763649145795
20
152.000000000000
30
0.0
0
VERTEX
5
645
100
AcDbEntity
8
0-0
6
CONTINUOUS
62
  7
100
AcDbVertex
100
AcDb2dVertex
10
343.763649145795
20
152.000000000000
30
0.0
0
VERTEX
5
646
100
AcDbEntity
8
0-0
6
CONTINUOUS
62
  7
100
AcDbVertex
100
AcDb2dVertex
10
343.763649145795
20
93.064231872559
30
0.0
0
SEQEND
5
647
100
AcDbEntity
8
0-0
0
LINE
5
648
100
AcDbEntity
8
0-0
6
CONTINUOUS
62
7
100
AcDbLine
10
347.263649145795
20
160.000000000000
30
0.0
11
347.263649145795
21
178.299990000000
31
0.0
0
POLYLINE
5
649
100
AcDbEntity
8
0-0
6
CONTINUOUS
62
  7
100
AcDb2dPolyline
66
1
10
0.0
20
0.0
30
0.0
70
0
0
VERTEX
5
64a
100
AcDbEntity
8
0-0
6
CONTINUOUS
62
  7
100
AcDbVertex
100
AcDb2dVertex
10
357.263649145795
20
178.299990000000
30
0.0
0
VERTEX
5
64b
100
AcDbEntity
8
0-0
6
CONTINUOUS
62
  7
100
AcDbVertex
100
AcDb2dVertex
10
356.563649145795
20
179.000000000000
30
0.0
0
VERTEX
5
64c
100
AcDbEntity
8
0-0
6
CONTINUOUS
62
  7
100
AcDbVertex
100
AcDb2dVertex
10
347.963649145795
20
179.000000000000
30
0.0
0
VERTEX
5
64d
100
AcDbEntity
8
0-0
6
CONTINUOUS
62
  7
100
AcDbVertex
100
AcDb2dVertex
10
347.263649145795
20
178.299990000000
30
0.0
0
SEQEND
5
64e
100
AcDbEntity
8
0-0
0
LINE
5
64f
100
AcDbEntity
8
0-0
6
CONTINUOUS
62
7
100
AcDbLine
10
357.263649145795
20
178.299990000000
30
0.0
11
357.263649145795
21
160.000000000000
31
0.0
0
LINE
5
650
100
AcDbEntity
8
0-0
6
CONTINUOUS
62
7
100
AcDbLine
10
346.763649145795
20
159.000000000000
30
0.0
11
342.263649145795
21
159.000000000000
31
0.0
0
POLYLINE
5
651
100
AcDbEntity
8
0-0
6
CONTINUOUS
62
  7
100
AcDb2dPolyline
66
1
10
0.0
20
0.0
30
0.0
70
0
0
VERTEX
5
652
100
AcDbEntity
8
0-0
6
CONTINUOUS
62
  7
100
AcDbVertex
100
AcDb2dVertex
10
342.263529145795
20
159.199880000000
30
0.0
0
VERTEX
5
653
100
AcDbEntity
8
0-0
6
CONTINUOUS
62
  7
100
AcDbVertex
100
AcDb2dVertex
10
343.063649145795
20
160.000000000000
30
0.0
0
VERTEX
5
654
100
AcDbEntity
8
0-0
6
CONTINUOUS
62
  7
100
AcDbVertex
100
AcDb2dVertex
10
361.463649145795
20
160.000000000000
30
0.0
0
VERTEX
5
655
100
AcDbEntity
8
0-0
6
CONTINUOUS
62
  7
100
AcDbVertex
100
AcDb2dVertex
10
362.263689145795
20
159.199950000000
30
0.0
0
SEQEND
5
656
100
AcDbEntity
8
0-0
0
POLYLINE
5
657
100
AcDbEntity
8
0-0
6
CONTINUOUS
62
  7
100
AcDb2dPolyline
66
1
10
0.0
20
0.0
30
0.0
70
0
0
VERTEX
5
658
100
AcDbEntity
8
0-0
6
CONTINUOUS
62
  7
100
AcDbVertex
100
AcDb2dVertex
10
362.263649145795
20
159.200000000000
30
0.0
0
VERTEX
5
659
100
AcDbEntity
8
0-0
6
CONTINUOUS
62
  7
100
AcDbVertex
100
AcDb2dVertex
10
362.263649145795
20
154.800000000000
30
0.0
0
VERTEX
5
65a
100
AcDbEntity
8
0-0
6
CONTINUOUS
62
  7
100
AcDbVertex
100
AcDb2dVertex
10
361.463649145795
20
154.000000000000
30
0.0
0
VERTEX
5
65b
100
AcDbEntity
8
0-0
6
CONTINUOUS
62
  7
100
AcDbVertex
100
AcDb2dVertex
10
343.063649145795
20
154.000000000000
30
0.0
0
VERTEX
5
65c
100
AcDbEntity
8
0-0
6
CONTINUOUS
62
  7
100
AcDbVertex
100
AcDb2dVertex
10
342.263649145795
20
154.800000000000
30
0.0
0
VERTEX
5
65d
100
AcDbEntity
8
0-0
6
CONTINUOUS
62
  7
100
AcDbVertex
100
AcDb2dVertex
10
342.263649145795
20
159.200000000000
30
0.0
0
SEQEND
5
65e
100
AcDbEntity
8
0-0
0
LINE
5
65f
100
AcDbEntity
8
0-0
6
CONTINUOUS
62
7
100
AcDbLine
10
342.263529145795
20
155.000070000000
30
0.0
11
346.763649145795
21
155.000070000000
31
0.0
0
LINE
5
660
100
AcDbEntity
8
0-0
6
CONTINUOUS
62
7
100
AcDbLine
10
347.263649145795
20
154.000000000000
30
0.0
11
347.263649145795
21
152.000000000000
31
0.0
0
LINE
5
661
100
AcDbEntity
8
0-0
6
CONTINUOUS
62
7
100
AcDbLine
10
348.263689145795
20
156.499930000000
30
0.0
11
348.263689145795
21
157.499960000000
31
0.0
0
LINE
5
662
100
AcDbEntity
8
0-0
6
CONTINUOUS
62
7
100
AcDbLine
10
349.763719145795
20
159.000000000000
30
0.0
11
354.763679145795
21
159.000000000000
31
0.0
0
LINE
5
663
100
AcDbEntity
8
0-0
6
CONTINUOUS
62
7
100
AcDbLine
10
357.763579145795
20
159.000000000000
30
0.0
11
362.263649145795
21
159.000000000000
31
0.0
0
LINE
5
664
100
AcDbEntity
8
0-0
6
CONTINUOUS
62
7
100
AcDbLine
10
362.263689145795
20
155.000070000000
30
0.0
11
357.763579145795
21
155.000070000000
31
0.0
0
LINE
5
665
100
AcDbEntity
8
0-0
6
CONTINUOUS
62
7
100
AcDbLine
10
357.263649145795
20
154.000000000000
30
0.0
11
357.263649145795
21
152.000000000000
31
0.0
0
LINE
5
666
100
AcDbEntity
8
0-0
6
CONTINUOUS
62
7
100
AcDbLine
10
356.263719145795
20
156.499930000000
30
0.0
11
356.263719145795
21
157.499960000000
31
0.0
0
LINE
5
667
100
AcDbEntity
8
0-0
6
CONTINUOUS
62
7
100
AcDbLine
10
354.763679145795
20
155.000070000000
30
0.0
11
349.763719145795
21
155.000070000000
31
0.0
0
LINE
5
668
100
AcDbEntity
8
0-0
6
CONTINUOUS
62
7
100
AcDbLine
10
343.763649145795
20
146.935770034790
30
0.0
11
360.763649145795
21
146.935770034790
31
0.0
0
POLYLINE
5
669
100
AcDbEntity
8
0-0
6
CONTINUOUS
62
  7
100
AcDb2dPolyline
66
1
10
0.0
20
0.0
30
0.0
70
0
0
VERTEX
5
66a
100
AcDbEntity
8
0-0
6
CONTINUOUS
62
  7
100
AcDbVertex
100
AcDb2dVertex
10
361.763649145795
20
150.000000000000
30
0.0
0
VERTEX
5
66b
100
AcDbEntity
8
0-0
6
CONTINUOUS
62
  7
100
AcDbVertex
100
AcDb2dVertex
10
370.263649145795
20
150.000000000000
30
0.0
0
VERTEX
5
66c
100
AcDbEntity
8
0-0
6
CONTINUOUS
62
  7
100
AcDbVertex
100
AcDb2dVertex
10
370.263649145795
20
90.000000000000
30
0.0
0
SEQEND
5
66d
100
AcDbEntity
8
0-0
0
POLYLINE
5
66e
100
AcDbEntity
8
0-0
6
CONTINUOUS
62
  7
100
AcDb2dPolyline
66
1
10
0.0
20
0.0
30
0.0
70
0
0
VERTEX
5
66f
100
AcDbEntity
8
0-0
6
CONTINUOUS
62
  7
100
AcDbVertex
100
AcDb2dVertex
10
370.263641920169
20
90.000000000000
30
0.0
0
VERTEX
5
670
100
AcDbEntity
8
0-0
6
CONTINUOUS
62
  7
100
AcDbVertex
100
AcDb2dVertex
10
361.763649145795
20
90.000000000000
30
0.0
0
VERTEX
5
671
100
AcDbEntity
8
0-0
6
CONTINUOUS
62
  7
100
AcDbVertex
100
AcDb2dVertex
10
361.763649145795
20
150.000000000000
30
0.0
0
SEQEND
5
672
100
AcDbEntity
8
0-0
0
LINE
5
673
100
AcDbEntity
8
0-0
6
CONTINUOUS
62
7
100
AcDbLine
10
235.772770000000
20
133.410630000000
30
0.0
11
231.323040000000
21
133.021260000000
31
0.0
0
ARC
5
674
100
AcDbEntity
8
0-0
6
CONTINUOUS
62
7
100
AcDbCircle
10
281.500000000000
20
156.499930000000
30
0.0
40
1.499999900000
100
AcDbArc
50
270.000000000000
51
360.000000000000
0
ARC
5
675
100
AcDbEntity
8
0-0
6
CONTINUOUS
62
7
100
AcDbCircle
10
284.500070000001
20
156.499930000000
30
0.0
40
1.499999900000
100
AcDbArc
50
180.000000000000
51
270.000000000000
0
ARC
5
676
100
AcDbEntity
8
0-0
6
CONTINUOUS
62
7
100
AcDbCircle
10
281.500000000000
20
157.499960000000
30
0.0
40
1.499999900000
100
AcDbArc
50
0.000000000000
51
90.000000000000
0
ARC
5
677
100
AcDbEntity
8
0-0
6
CONTINUOUS
62
7
100
AcDbCircle
10
284.500070000001
20
157.499960000000
30
0.0
40
1.499999900000
100
AcDbArc
50
90.000000000000
51
180.000000000000
0
ARC
5
678
100
AcDbEntity
8
0-0
6
CONTINUOUS
62
7
100
AcDbCircle
10
292.499930000000
20
156.499930000000
30
0.0
40
1.499999900000
100
AcDbArc
50
180.000000000000
51
270.000000000000
0
ARC
5
679
100
AcDbEntity
8
0-0
6
CONTINUOUS
62
7
100
AcDbCircle
10
292.499930000000
20
157.499960000000
30
0.0
40
1.499999900000
100
AcDbArc
50
90.000000000000
51
180.000000000000
0
ARC
5
67a
100
AcDbEntity
8
0-0
6
CONTINUOUS
62
7
100
AcDbCircle
10
289.500030000001
20
156.499930000000
30
0.0
40
1.499999900000
100
AcDbArc
50
270.000000000000
51
360.000000000000
0
ARC
5
67b
100
AcDbEntity
8
0-0
6
CONTINUOUS
62
7
100
AcDbCircle
10
289.500030000001
20
157.499960000000
30
0.0
40
1.499999900000
100
AcDbArc
50
0.000000000000
51
90.000000000000
0
CIRCLE
5
67c
100
AcDbEntity
8
0-0
6
CONTINUOUS
62
7
100
AcDbCircle
10
270.000000000000
20
120.000000000000
30
0.0
40
17.500000000000
0
ARC
5
67d
100
AcDbEntity
8
0-0
6
CONTINUOUS
62
7
100
AcDbCircle
10
346.763649145795
20
156.499930000000
30
0.0
40
1.499999900000
100
AcDbArc
50
270.000000000000
51
360.000000000000
0
ARC
5
67e
100
AcDbEntity
8
0-0
6
CONTINUOUS
62
7
100
AcDbCircle
10
349.763719145795
20
156.499930000000
30
0.0
40
1.499999900000
100
AcDbArc
50
180.000000000000
51
270.000000000000
0
ARC
5
67f
100
AcDbEntity
8
0-0
6
CONTINUOUS
62
7
100
AcDbCircle
10
346.763649145795
20
157.499960000000
30
0.0
40
1.499999900000
100
AcDbArc
50
0.000000000000
51
90.000000000000
0
ARC
5
680
100
AcDbEntity
8
0-0
6
CONTINUOUS
62
7
100
AcDbCircle
10
349.763719145795
20
157.499960000000
30
0.0
40
1.499999900000
100
AcDbArc
50
90.000000000000
51
180.000000000000
0
ARC
5
681
100
AcDbEntity
8
0-0
6
CONTINUOUS
62
7
100
AcDbCircle
10
357.763579145795
20
156.499930000000
30
0.0
40
1.499999900000
100
AcDbArc
50
180.000000000000
51
270.000000000000
0
ARC
5
682
100
AcDbEntity
8
0-0
6
CONTINUOUS
62
7
100
AcDbCircle
10
357.763579145795
20
157.499960000000
30
0.0
40
1.499999900000
100
AcDbArc
50
90.000000000000
51
180.000000000000
0
ARC
5
683
100
AcDbEntity
8
0-0
6
CONTINUOUS
62
7
100
AcDbCircle
10
354.763679145795
20
156.499930000000
30
0.0
40
1.499999900000
100
AcDbArc
50
270.000000000000
51
360.000000000000
0
ARC
5
684
100
AcDbEntity
8
0-0
6
CONTINUOUS
62
7
100
AcDbCircle
10
354.763679145795
20
157.499960000000
30
0.0
40
1.499999900000
100
AcDbArc
50
0.000000000000
51
90.000000000000
0
ARC
5
685
100
AcDbEntity
8
0-0
6
CONTINUOUS
62
7
100
AcDbCircle
10
236.382860000000
20
131.038730000000
30
0.0
40
2.449106000000
100
AcDbArc
50
38.389619000000
51
104.424660000000
0
ARC
5
686
100
AcDbEntity
8
0-0
6
CONTINUOUS
62
7
100
AcDbCircle
10
295.000000000000
20
150.000000000000
30
0.0
40
2.000000000000
100
AcDbArc
50
0.000000000000
51
90.000000000000
0
CIRCLE
5
687
100
AcDbEntity
8
0-0
6
CONTINUOUS
62
7
100
AcDbCircle
10
270.000000000000
20
120.000000000000
30
0.0
40
30.000000000000
0
ARC
5
688
100
AcDbEntity
8
0-0
6
CONTINUOUS
62
7
100
AcDbCircle
10
275.000000000000
20
151.606960000000
30
0.0
40
2.000000000000
100
AcDbArc
50
261.010700000000
51
360.000000000000
0
ARC
5
689
100
AcDbEntity
8
0-0
6
CONTINUOUS
62
7
100
AcDbCircle
10
384.000000000000
20
146.324890000000
30
0.0
40
87.000000000000
100
AcDbArc
50
180.000000000000
51
193.002820000000
0
ARC
5
68a
100
AcDbEntity
8
0-0
6
CONTINUOUS
62
7
100
AcDbCircle
10
259.763649145795
20
120.000000000000
30
0.0
40
114.500000000000
100
AcDbArc
50
344.810699462891
51
375.189285278320
0
ARC
5
68b
100
AcDbEntity
8
0-0
6
CONTINUOUS
62
7
100
AcDbCircle
10
444.763649145795
20
120.000000000000
30
0.0
40
114.500000000000
100
AcDbArc
50
164.810699462891
51
195.189285278320
0
LINE
5
68c
100
AcDbEntity
8
0-1
6
CENTER
62
4
100
AcDbLine
10
287.000000000000
20
206.735628207278
30
0.0
11
287.000000000000
21
226.619158207278
31
0.0
0
LINE
5
68d
100
AcDbEntity
8
0-1
6
CENTER
62
4
100
AcDbLine
10
277.058240000000
20
216.677398207278
30
0.0
11
296.941770000000
21
216.677398207278
31
0.0
0
LINE
5
68e
100
AcDbEntity
8
0-1
6
CENTER
62
4
100
AcDbLine
10
270.000000000000
20
194.781018207278
30
0.0
11
270.000000000000
21
238.781028207278
31
0.0
0
LINE
5
68f
100
AcDbEntity
8
0-1
6
CENTER
62
4
100
AcDbLine
10
270.000000000000
20
61.536296232911
30
0.0
11
270.000000000000
21
17.536296232911
31
0.0
0
LINE
5
690
100
AcDbEntity
8
0-1
6
CENTER
62
4
100
AcDbLine
10
240.000000000000
20
39.536296232911
30
0.0
11
300.000000000000
21
39.536296232911
31
0.0
0
CIRCLE
5
691
100
AcDbEntity
8
0-1
6
CONTINUOUS
62
4
100
AcDbCircle
10
287.000000000000
20
216.677398207278
30
0.0
40
4.300000100000
0
LINE
5
692
100
AcDbEntity
8
0-1
6
CENTER
62
4
100
AcDbLine
10
240.000000000000
20
120.000000000000
30
0.0
11
300.000000000000
21
120.000000000000
31
0.0
0
POLYLINE
5
693
100
AcDbEntity
8
0-1
6
CONTINUOUS
62
  4
100
AcDb2dPolyline
66
1
10
0.0
20
0.0
30
0.0
70
0
0
VERTEX
5
694
100
AcDbEntity
8
0-1
6
CONTINUOUS
62
  4
100
AcDbVertex
100
AcDb2dVertex
10
282.000000000000
20
160.787560000000
30
0.0
0
VERTEX
5
695
100
AcDbEntity
8
0-1
6
CONTINUOUS
62
  4
100
AcDbVertex
100
AcDb2dVertex
10
282.700000000000
20
162.000000000000
30
0.0
0
VERTEX
5
696
100
AcDbEntity
8
0-1
6
CONTINUOUS
62
  4
100
AcDbVertex
100
AcDb2dVertex
10
282.700000000000
20
179.000000000000
30
0.0
0
SEQEND
5
697
100
AcDbEntity
8
0-1
0
LINE
5
698
100
AcDbEntity
8
0-1
6
CONTINUOUS
62
4
100
AcDbLine
10
282.000000000000
20
178.299990000000
30
0.0
11
292.000000000000
21
178.299990000000
31
0.0
0
POLYLINE
5
699
100
AcDbEntity
8
0-1
6
CONTINUOUS
62
  4
100
AcDb2dPolyline
66
1
10
0.0
20
0.0
30
0.0
70
0
0
VERTEX
5
69a
100
AcDbEntity
8
0-1
6
CONTINUOUS
62
  4
100
AcDbVertex
100
AcDb2dVertex
10
291.300000000001
20
179.000000000000
30
0.0
0
VERTEX
5
69b
100
AcDbEntity
8
0-1
6
CONTINUOUS
62
  4
100
AcDbVertex
100
AcDb2dVertex
10
291.300000000001
20
162.000000000000
30
0.0
0
VERTEX
5
69c
100
AcDbEntity
8
0-1
6
CONTINUOUS
62
  4
100
AcDbVertex
100
AcDb2dVertex
10
292.000000000000
20
160.787560000000
30
0.0
0
SEQEND
5
69d
100
AcDbEntity
8
0-1
0
LINE
5
69e
100
AcDbEntity
8
0-1
6
CONTINUOUS
62
4
100
AcDbLine
10
292.000000000000
20
162.000000000000
30
0.0
11
282.000000000000
21
162.000000000000
31
0.0
0
LINE
5
69f
100
AcDbEntity
8
0-1
6
CENTER
62
4
100
AcDbLine
10
287.000000000000
20
144.718410000000
30
0.0
11
287.000000000000
21
179.000000000000
31
0.0
0
LINE
5
6a0
100
AcDbEntity
8
0-1
6
CENTER
62
4
100
AcDbLine
10
270.000000000000
20
150.000000000000
30
0.0
11
270.000000000000
21
90.000000000000
31
0.0
0
LINE
5
6a1
100
AcDbEntity
8
0-1
6
CENTER
62
4
100
AcDbLine
10
352.263649145795
20
90.000000000000
30
0.0
11
352.263649145795
21
179.000000000000
31
0.0
0
POLYLINE
5
6a2
100
AcDbEntity
8
0-1
6
CONTINUOUS
62
  4
100
AcDb2dPolyline
66
1
10
0.0
20
0.0
30
0.0
70
0
0
VERTEX
5
6a3
100
AcDbEntity
8
0-1
6
CONTINUOUS
62
  4
100
AcDbVertex
100
AcDb2dVertex
10
347.963649145795
20
179.000000000000
30
0.0
0
VERTEX
5
6a4
100
AcDbEntity
8
0-1
6
CONTINUOUS
62
  4
100
AcDbVertex
100
AcDb2dVertex
10
347.963649145795
20
162.000000000000
30
0.0
0
VERTEX
5
6a5
100
AcDbEntity
8
0-1
6
CONTINUOUS
62
  4
100
AcDbVertex
100
AcDb2dVertex
10
347.263649145795
20
160.787560000000
30
0.0
0
SEQEND
5
6a6
100
AcDbEntity
8
0-1
0
LINE
5
6a7
100
AcDbEntity
8
0-1
6
CONTINUOUS
62
4
100
AcDbLine
10
347.263649145795
20
178.299990000000
30
0.0
11
357.263649145795
21
178.299990000000
31
0.0
0
POLYLINE
5
6a8
100
AcDbEntity
8
0-1
6
CONTINUOUS
62
  4
100
AcDb2dPolyline
66
1
10
0.0
20
0.0
30
0.0
70
0
0
VERTEX
5
6a9
100
AcDbEntity
8
0-1
6
CONTINUOUS
62
  4
100
AcDbVertex
100
AcDb2dVertex
10
357.263649145795
20
160.787560000000
30
0.0
0
VERTEX
5
6aa
100
AcDbEntity
8
0-1
6
CONTINUOUS
62
  4
100
AcDbVertex
100
AcDb2dVertex
10
356.563649145795
20
162.000000000000
30
0.0
0
VERTEX
5
6ab
100
AcDbEntity
8
0-1
6
CONTINUOUS
62
  4
100
AcDbVertex
100
AcDb2dVertex
10
356.563649145795
20
179.000000000000
30
0.0
0
SEQEND
5
6ac
100
AcDbEntity
8
0-1
0
LINE
5
6ad
100
AcDbEntity
8
0-1
6
CONTINUOUS
62
4
100
AcDbLine
10
357.263649145795
20
162.000000000000
30
0.0
11
347.263649145795
21
162.000000000000
31
0.0
0
LINE
5
6ae
100
AcDbEntity
8
0-1
6
CENTER
62
4
100
AcDbLine
10
374.263649145795
20
120.000000000000
30
0.0
11
330.263649145795
21
120.000000000000
31
0.0
0
POLYLINE
5
6af
100
AcDbEntity
  8
0-1
6
CONTINUOUS
62
4
100
AcDb2dPolyline
66
1
10
0
20
0
70
1
40
0.400
41
0.400
0
VERTEX
5
6b0
100
AcDbEntity
  8
0-1
6
CONTINUOUS
62
4
100
AcDbVertex
100
AcDb2dVertex
10
342.064
20
90.000
30
0.0
42
1.000
0
VERTEX
5
6b1
100
AcDbEntity
  8
0-1
6
CONTINUOUS
62
4
100
AcDbVertex
100
AcDb2dVertex
10
342.464
20
90.000
30
0.0
42
1.000
0
SEQEND
5
6b2
100
AcDbEntity
  8
0-1
0
LINE
5
6b3
100
AcDbEntity
8
0-1
6
CENTER
62
4
100
AcDbLine
10
287.000000000000
20
13.885138232911
30
0.0
11
287.000000000000
21
65.187454232911
31
0.0
0
LINE
5
6b4
100
AcDbEntity
8
F-F_J_ADD
6
HIDDEN
62
253
100
AcDbLine
10
470.000000000000
20
-0.000000000000
30
0.0
11
470.000000000000
21
250.000000000000
31
0.0
0
LINE
5
6b5
100
AcDbEntity
8
0-0
6
CONTINUOUS
62
7
100
AcDbLine
10
477.000000000000
20
29.414144517814
30
0.0
11
477.000000000000
21
63.414144517814
31
0.0
0
POLYLINE
5
6b6
100
AcDbEntity
8
0-0
6
CONTINUOUS
62
  7
100
AcDb2dPolyline
66
1
10
0.0
20
0.0
30
0.0
70
0
0
VERTEX
5
6b7
100
AcDbEntity
8
0-0
6
CONTINUOUS
62
  7
100
AcDbVertex
100
AcDb2dVertex
10
484.000000000000
20
41.914144517814
30
0.0
0
VERTEX
5
6b8
100
AcDbEntity
8
0-0
6
CONTINUOUS
62
  7
100
AcDbVertex
100
AcDb2dVertex
10
487.897114317029
20
44.164144517814
30
0.0
0
VERTEX
5
6b9
100
AcDbEntity
8
0-0
6
CONTINUOUS
62
  7
100
AcDbVertex
100
AcDb2dVertex
10
487.897114317029
20
48.664144517814
30
0.0
0
VERTEX
5
6ba
100
AcDbEntity
8
0-0
6
CONTINUOUS
62
  7
100
AcDbVertex
100
AcDb2dVertex
10
484.000000000000
20
50.914144517814
30
0.0
0
VERTEX
5
6bb
100
AcDbEntity
8
0-0
6
CONTINUOUS
62
  7
100
AcDbVertex
100
AcDb2dVertex
10
480.102885682970
20
48.664144517814
30
0.0
0
VERTEX
5
6bc
100
AcDbEntity
8
0-0
6
CONTINUOUS
62
  7
100
AcDbVertex
100
AcDb2dVertex
10
480.102885682970
20
44.164144517814
30
0.0
0
VERTEX
5
6bd
100
AcDbEntity
8
0-0
6
CONTINUOUS
62
  7
100
AcDbVertex
100
AcDb2dVertex
10
484.000000000000
20
41.914144517814
30
0.0
0
SEQEND
5
6be
100
AcDbEntity
8
0-0
0
POLYLINE
5
6bf
100
AcDbEntity
8
0-0
6
CONTINUOUS
62
  7
100
AcDb2dPolyline
66
1
10
0.0
20
0.0
30
0.0
70
0
0
VERTEX
5
6c0
100
AcDbEntity
8
0-0
6
CONTINUOUS
62
  7
100
AcDbVertex
100
AcDb2dVertex
10
484.500000000000
20
51.389081703347
30
0.0
0
VERTEX
5
6c1
100
AcDbEntity
8
0-0
6
CONTINUOUS
62
  7
100
AcDbVertex
100
AcDb2dVertex
10
484.500000000000
20
53.914144517814
30
0.0
0
VERTEX
5
6c2
100
AcDbEntity
8
0-0
6
CONTINUOUS
62
  7
100
AcDbVertex
100
AcDb2dVertex
10
485.679449471770
20
53.914144517814
30
0.0
0
SEQEND
5
6c3
100
AcDbEntity
8
0-0
0
LINE
5
6c4
100
AcDbEntity
8
0-0
6
CONTINUOUS
62
7
100
AcDbLine
10
481.820550528229
20
53.414144517814
30
0.0
11
481.820550528229
21
50.914144517814
31
0.0
0
POLYLINE
5
6c5
100
AcDbEntity
8
0-0
6
CONTINUOUS
62
  7
100
AcDb2dPolyline
66
1
10
0.0
20
0.0
30
0.0
70
0
0
VERTEX
5
6c6
100
AcDbEntity
8
0-0
6
CONTINUOUS
62
  7
100
AcDbVertex
100
AcDb2dVertex
10
482.320550528229
20
53.914144517814
30
0.0
0
VERTEX
5
6c7
100
AcDbEntity
8
0-0
6
CONTINUOUS
62
  7
100
AcDbVertex
100
AcDb2dVertex
10
483.500000000000
20
53.914144517814
30
0.0
0
VERTEX
5
6c8
100
AcDbEntity
8
0-0
6
CONTINUOUS
62
  7
100
AcDbVertex
100
AcDb2dVertex
10
483.500000000000
20
51.389081703347
30
0.0
0
SEQEND
5
6c9
100
AcDbEntity
8
0-0
0
LINE
5
6ca
100
AcDbEntity
8
0-0
6
CONTINUOUS
62
7
100
AcDbLine
10
486.179449471770
20
50.914144517814
30
0.0
11
486.179449471770
21
53.414144517814
31
0.0
0
POLYLINE
5
6cb
100
AcDbEntity
8
0-0
6
CONTINUOUS
62
  7
100
AcDb2dPolyline
66
1
10
0.0
20
0.0
30
0.0
70
0
0
VERTEX
5
6cc
100
AcDbEntity
8
0-0
6
CONTINUOUS
62
  7
100
AcDbVertex
100
AcDb2dVertex
10
435.000000003499
20
38.414144518614
30
0.0
0
VERTEX
5
6cd
100
AcDbEntity
8
0-0
6
CONTINUOUS
62
  7
100
AcDbVertex
100
AcDb2dVertex
10
435.000000003499
20
54.414144517014
30
0.0
0
VERTEX
5
6ce
100
AcDbEntity
8
0-0
6
CONTINUOUS
62
  7
100
AcDbVertex
100
AcDb2dVertex
10
440.000000003000
20
54.414144517014
30
0.0
0
SEQEND
5
6cf
100
AcDbEntity
8
0-0
0
POLYLINE
5
6d0
100
AcDbEntity
8
0-0
6
CONTINUOUS
62
  7
100
AcDb2dPolyline
66
1
10
0.0
20
0.0
30
0.0
70
0
0
VERTEX
5
6d1
100
AcDbEntity
8
0-0
6
CONTINUOUS
62
  7
100
AcDbVertex
100
AcDb2dVertex
10
440.000000003000
20
63.414144517814
30
0.0
0
VERTEX
5
6d2
100
AcDbEntity
8
0-0
6
CONTINUOUS
62
  7
100
AcDbVertex
100
AcDb2dVertex
10
499.999999997000
20
63.414144517814
30
0.0
0
VERTEX
5
6d3
100
AcDbEntity
8
0-0
6
CONTINUOUS
62
  7
100
AcDbVertex
100
AcDb2dVertex
10
499.999999997000
20
29.414144517814
30
0.0
0
VERTEX
5
6d4
100
AcDbEntity
8
0-0
6
CONTINUOUS
62
  7
100
AcDbVertex
100
AcDb2dVertex
10
440.000000003000
20
29.414144517814
30
0.0
0
VERTEX
5
6d5
100
AcDbEntity
8
0-0
6
CONTINUOUS
62
  7
100
AcDbVertex
100
AcDb2dVertex
10
440.000000003000
20
63.414144517814
30
0.0
0
SEQEND
5
6d6
100
AcDbEntity
8
0-0
0
LINE
5
6d7
100
AcDbEntity
8
0-0
6
CONTINUOUS
62
7
100
AcDbLine
10
440.000000000000
20
65.414144517814
30
0.0
11
440.000002813546
21
73.414145281672
31
0.0
0
POLYLINE
5
6d8
100
AcDbEntity
8
0-0
6
CONTINUOUS
62
  7
100
AcDb2dPolyline
66
1
10
0.0
20
0.0
30
0.0
70
0
0
VERTEX
5
6d9
100
AcDbEntity
8
0-0
6
CONTINUOUS
62
  7
100
AcDbVertex
100
AcDb2dVertex
10
440.000000000000
20
73.414144517814
30
0.0
0
VERTEX
5
6da
100
AcDbEntity
8
0-0
6
CONTINUOUS
62
  7
100
AcDbVertex
100
AcDb2dVertex
10
500.000000000000
20
73.414144517814
30
0.0
0
VERTEX
5
6db
100
AcDbEntity
8
0-0
6
CONTINUOUS
62
  7
100
AcDbVertex
100
AcDb2dVertex
10
500.000000000000
20
65.414144517814
30
0.0
0
SEQEND
5
6dc
100
AcDbEntity
8
0-0
0
LINE
5
6dd
100
AcDbEntity
8
0-0
6
CONTINUOUS
62
7
100
AcDbLine
10
499.999999997000
20
65.414144517814
30
0.0
11
440.000000000000
21
65.414144517814
31
0.0
0
LINE
5
6de
100
AcDbEntity
8
0-0
6
CONTINUOUS
62
7
100
AcDbLine
10
440.000000003000
20
38.414144518614
30
0.0
11
435.000000003499
21
38.414144518614
31
0.0
0
POLYLINE
5
6df
100
AcDbEntity
8
0-0
6
CONTINUOUS
62
  7
100
AcDb2dPolyline
66
1
10
0.0
20
0.0
30
0.0
70
0
0
VERTEX
5
6e0
100
AcDbEntity
8
0-0
6
CONTINUOUS
62
  7
100
AcDbVertex
100
AcDb2dVertex
10
440.000000000000
20
27.414144517814
30
0.0
0
VERTEX
5
6e1
100
AcDbEntity
8
0-0
6
CONTINUOUS
62
  7
100
AcDbVertex
100
AcDb2dVertex
10
440.000000000000
20
19.414144517814
30
0.0
0
VERTEX
5
6e2
100
AcDbEntity
8
0-0
6
CONTINUOUS
62
  7
100
AcDbVertex
100
AcDb2dVertex
10
500.000000000000
20
19.414144517814
30
0.0
0
VERTEX
5
6e3
100
AcDbEntity
8
0-0
6
CONTINUOUS
62
  7
100
AcDbVertex
100
AcDb2dVertex
10
500.000000000000
20
27.414144517814
30
0.0
0
VERTEX
5
6e4
100
AcDbEntity
8
0-0
6
CONTINUOUS
62
  7
100
AcDbVertex
100
AcDb2dVertex
10
440.000000000000
20
27.414144517814
30
0.0
0
SEQEND
5
6e5
100
AcDbEntity
8
0-0
0
ARC
5
6e6
100
AcDbEntity
8
0-0
6
CONTINUOUS
62
7
100
AcDbCircle
10
470.000000000000
20
-37.085855482186
30
0.0
40
114.500000000000
100
AcDbArc
50
74.810699462891
51
105.189285278320
0
ARC
5
6e7
100
AcDbEntity
8
0-0
6
CONTINUOUS
62
7
100
AcDbCircle
10
470.000000000000
20
129.914144517814
30
0.0
40
114.500000000000
100
AcDbArc
50
254.810699462891
51
285.189285278320
0
ARC
5
6e8
100
AcDbEntity
8
0-0
6
CONTINUOUS
62
7
100
AcDbCircle
10
484.000000000000
20
46.414144517814
30
0.0
40
5.000000000000
100
AcDbArc
50
115.841932763167
51
424.158067236833
0
ARC
5
6e9
100
AcDbEntity
8
0-0
6
CONTINUOUS
62
7
100
AcDbCircle
10
484.000000000000
20
46.414144517814
30
0.0
40
5.000000000000
100
AcDbArc
50
84.260829522733
51
95.739170477267
0
ARC
5
6ea
100
AcDbEntity
8
0-0
6
CONTINUOUS
62
7
100
AcDbCircle
10
482.320550528229
20
53.414144517814
30
0.0
40
0.500000000000
100
AcDbArc
50
90.000000000000
51
180.000000000000
0
ARC
5
6eb
100
AcDbEntity
8
0-0
6
CONTINUOUS
62
7
100
AcDbCircle
10
485.679449471770
20
53.414144517814
30
0.0
40
0.500000000000
100
AcDbArc
50
0.000000000000
51
90.000000000000
0
CIRCLE
5
6ec
100
AcDbEntity
8
0-0
6
CONTINUOUS
62
7
100
AcDbCircle
10
482.660275264229
20
52.651613110814
30
0.0
40
0.500000000000
0
CIRCLE
5
6ed
100
AcDbEntity
8
0-0
6
CONTINUOUS
62
7
100
AcDbCircle
10
485.339724736000
20
52.651613110814
30
0.0
40
0.500000000000
0
LINE
5
6ee
100
AcDbEntity
8
0-0
6
CONTINUOUS
62
7
100
AcDbLine
10
500.000000000000
20
245.131484545932
30
0.0
11
440.000000000000
21
245.131484545932
31
0.0
0
POLYLINE
5
6ef
100
AcDbEntity
8
0-0
6
CONTINUOUS
62
  7
100
AcDb2dPolyline
66
1
10
0.0
20
0.0
30
0.0
70
0
0
VERTEX
5
6f0
100
AcDbEntity
8
0-0
6
CONTINUOUS
62
  7
100
AcDbVertex
100
AcDb2dVertex
10
440.000002813546
20
245.131485309791
30
0.0
0
VERTEX
5
6f1
100
AcDbEntity
8
0-0
6
CONTINUOUS
62
  7
100
AcDbVertex
100
AcDb2dVertex
10
440.000000000000
20
237.131484545932
30
0.0
0
VERTEX
5
6f2
100
AcDbEntity
8
0-0
6
CONTINUOUS
62
  7
100
AcDbVertex
100
AcDb2dVertex
10
499.999999997000
20
237.131484545932
30
0.0
0
SEQEND
5
6f3
100
AcDbEntity
8
0-0
0
LINE
5
6f4
100
AcDbEntity
8
0-0
6
CONTINUOUS
62
7
100
AcDbLine
10
500.000000000000
20
237.131484545932
30
0.0
11
500.000000000000
21
245.131484545932
31
0.0
0
POLYLINE
5
6f5
100
AcDbEntity
8
0-0
6
CONTINUOUS
62
  7
100
AcDb2dPolyline
66
1
10
0.0
20
0.0
30
0.0
70
0
0
VERTEX
5
6f6
100
AcDbEntity
8
0-0
6
CONTINUOUS
62
  7
100
AcDbVertex
100
AcDb2dVertex
10
499.999999997000
20
235.131484545932
30
0.0
0
VERTEX
5
6f7
100
AcDbEntity
8
0-0
6
CONTINUOUS
62
  7
100
AcDbVertex
100
AcDb2dVertex
10
499.999999997000
20
201.131484545932
30
0.0
0
VERTEX
5
6f8
100
AcDbEntity
8
0-0
6
CONTINUOUS
62
  7
100
AcDbVertex
100
AcDb2dVertex
10
440.000000003000
20
201.131484545932
30
0.0
0
VERTEX
5
6f9
100
AcDbEntity
8
0-0
6
CONTINUOUS
62
  7
100
AcDbVertex
100
AcDb2dVertex
10
440.000000003000
20
210.131484546732
30
0.0
0
SEQEND
5
6fa
100
AcDbEntity
8
0-0
0
POLYLINE
5
6fb
100
AcDbEntity
8
0-0
6
CONTINUOUS
62
  7
100
AcDb2dPolyline
66
1
10
0.0
20
0.0
30
0.0
70
0
0
VERTEX
5
6fc
100
AcDbEntity
8
0-0
6
CONTINUOUS
62
  7
100
AcDbVertex
100
AcDb2dVertex
10
435.000000003499
20
210.131484546732
30
0.0
0
VERTEX
5
6fd
100
AcDbEntity
8
0-0
6
CONTINUOUS
62
  7
100
AcDbVertex
100
AcDb2dVertex
10
435.000000003499
20
226.131484545132
30
0.0
0
VERTEX
5
6fe
100
AcDbEntity
8
0-0
6
CONTINUOUS
62
  7
100
AcDbVertex
100
AcDb2dVertex
10
455.000000001500
20
226.131484545132
30
0.0
0
VERTEX
5
6ff
100
AcDbEntity
8
0-0
6
CONTINUOUS
62
  7
100
AcDbVertex
100
AcDb2dVertex
10
455.000000001500
20
210.131484546732
30
0.0
0
VERTEX
5
700
100
AcDbEntity
8
0-0
6
CONTINUOUS
62
  7
100
AcDbVertex
100
AcDb2dVertex
10
435.000000003499
20
210.131484546732
30
0.0
0
SEQEND
5
701
100
AcDbEntity
8
0-0
0
POLYLINE
5
702
100
AcDbEntity
8
0-0
6
CONTINUOUS
62
  7
100
AcDb2dPolyline
66
1
10
0.0
20
0.0
30
0.0
70
0
0
VERTEX
5
703
100
AcDbEntity
8
0-0
6
CONTINUOUS
62
  7
100
AcDbVertex
100
AcDb2dVertex
10
499.999999997000
20
235.131484545932
30
0.0
0
VERTEX
5
704
100
AcDbEntity
8
0-0
6
CONTINUOUS
62
  7
100
AcDbVertex
100
AcDb2dVertex
10
440.000000003000
20
235.131484545932
30
0.0
0
VERTEX
5
705
100
AcDbEntity
8
0-0
6
CONTINUOUS
62
  7
100
AcDbVertex
100
AcDb2dVertex
10
440.000000003000
20
226.131484545132
30
0.0
0
SEQEND
5
706
100
AcDbEntity
8
0-0
0
LINE
5
707
100
AcDbEntity
8
0-0
6
CONTINUOUS
62
7
100
AcDbLine
10
454.422649732367
20
226.131484545132
30
0.0
11
454.422649732367
21
210.131484546732
31
0.0
0
LINE
5
708
100
AcDbEntity
8
0-0
6
CONTINUOUS
62
7
100
AcDbLine
10
479.092522485545
20
209.631484468205
30
0.0
11
488.907477378354
21
209.631484389627
31
0.0
0
LINE
5
709
100
AcDbEntity
8
0-0
6
CONTINUOUS
62
7
100
AcDbLine
10
479.092522621645
20
226.631484702237
30
0.0
11
488.907477514455
21
226.631484623659
31
0.0
0
POLYLINE
5
70a
100
AcDbEntity
8
0-0
6
CONTINUOUS
62
  7
100
AcDb2dPolyline
66
1
10
0.0
20
0.0
30
0.0
70
0
0
VERTEX
5
70b
100
AcDbEntity
8
0-0
6
CONTINUOUS
62
  7
100
AcDbVertex
100
AcDb2dVertex
10
500.000000000000
20
199.131484545932
30
0.0
0
VERTEX
5
70c
100
AcDbEntity
8
0-0
6
CONTINUOUS
62
  7
100
AcDbVertex
100
AcDb2dVertex
10
440.000000000000
20
199.131484545932
30
0.0
0
VERTEX
5
70d
100
AcDbEntity
8
0-0
6
CONTINUOUS
62
  7
100
AcDbVertex
100
AcDb2dVertex
10
440.000000000000
20
191.131484545932
30
0.0
0
VERTEX
5
70e
100
AcDbEntity
8
0-0
6
CONTINUOUS
62
  7
100
AcDbVertex
100
AcDb2dVertex
10
500.000000000000
20
191.131484545932
30
0.0
0
VERTEX
5
70f
100
AcDbEntity
8
0-0
6
CONTINUOUS
62
  7
100
AcDbVertex
100
AcDb2dVertex
10
500.000000000000
20
199.131484545932
30
0.0
0
SEQEND
5
710
100
AcDbEntity
8
0-0
0
LINE
5
711
100
AcDbEntity
8
0-0
6
CONTINUOUS
62
7
100
AcDbLine
10
489.064939207105
20
160.000000000000
30
0.0
11
489.064939207105
21
173.299990000000
31
0.0
0
POLYLINE
5
712
100
AcDbEntity
8
0-0
6
CONTINUOUS
62
  7
100
AcDb2dPolyline
66
1
10
0.0
20
0.0
30
0.0
70
0
0
VERTEX
5
713
100
AcDbEntity
8
0-0
6
CONTINUOUS
62
  7
100
AcDbVertex
100
AcDb2dVertex
10
479.064939207105
20
173.299990000000
30
0.0
0
VERTEX
5
714
100
AcDbEntity
8
0-0
6
CONTINUOUS
62
  7
100
AcDbVertex
100
AcDb2dVertex
10
479.764939207104
20
174.000000000000
30
0.0
0
VERTEX
5
715
100
AcDbEntity
8
0-0
6
CONTINUOUS
62
  7
100
AcDbVertex
100
AcDb2dVertex
10
488.364939207105
20
174.000000000000
30
0.0
0
VERTEX
5
716
100
AcDbEntity
8
0-0
6
CONTINUOUS
62
  7
100
AcDbVertex
100
AcDb2dVertex
10
489.064939207105
20
173.299990000000
30
0.0
0
SEQEND
5
717
100
AcDbEntity
8
0-0
0
POLYLINE
5
718
100
AcDbEntity
8
0-0
6
CONTINUOUS
62
  7
100
AcDb2dPolyline
66
1
10
0.0
20
0.0
30
0.0
70
0
0
VERTEX
5
719
100
AcDbEntity
8
0-0
6
CONTINUOUS
62
  7
100
AcDbVertex
100
AcDb2dVertex
10
488.330127109655
20
152.000153025381
30
0.0
0
VERTEX
5
71a
100
AcDbEntity
8
0-0
6
CONTINUOUS
62
  7
100
AcDbVertex
100
AcDb2dVertex
10
488.907477378845
20
153.000153025381
30
0.0
0
VERTEX
5
71b
100
AcDbEntity
8
0-0
6
CONTINUOUS
62
  7
100
AcDbVertex
100
AcDb2dVertex
10
488.907477378845
20
159.000000000000
30
0.0
0
VERTEX
5
71c
100
AcDbEntity
8
0-0
6
CONTINUOUS
62
  7
100
AcDbVertex
100
AcDb2dVertex
10
488.330127109655
20
160.000000000000
30
0.0
0
SEQEND
5
71d
100
AcDbEntity
8
0-0
0
LINE
5
71e
100
AcDbEntity
8
0-0
6
CONTINUOUS
62
7
100
AcDbLine
10
488.514876790359
20
159.680004166339
30
0.0
11
479.485123209641
21
152.320148859043
31
0.0
0
POLYLINE
5
71f
100
AcDbEntity
8
0-0
6
CONTINUOUS
62
  7
100
AcDb2dPolyline
66
1
10
0.0
20
0.0
30
0.0
70
0
0
VERTEX
5
720
100
AcDbEntity
8
0-0
6
CONTINUOUS
62
  7
100
AcDbVertex
100
AcDb2dVertex
10
479.669872890344
20
152.000153025381
30
0.0
0
VERTEX
5
721
100
AcDbEntity
8
0-0
6
CONTINUOUS
62
  7
100
AcDbVertex
100
AcDb2dVertex
10
479.092522621155
20
153.000153025381
30
0.0
0
VERTEX
5
722
100
AcDbEntity
8
0-0
6
CONTINUOUS
62
  7
100
AcDbVertex
100
AcDb2dVertex
10
474.185045242310
20
153.000153025381
30
0.0
0
VERTEX
5
723
100
AcDbEntity
8
0-0
6
CONTINUOUS
62
  7
100
AcDbVertex
100
AcDb2dVertex
10
475.185045242310
20
152.000153025381
30
0.0
0
SEQEND
5
724
100
AcDbEntity
8
0-0
0
POLYLINE
5
725
100
AcDbEntity
8
0-0
6
CONTINUOUS
62
  7
100
AcDb2dPolyline
66
1
10
0.0
20
0.0
30
0.0
70
0
0
VERTEX
5
726
100
AcDbEntity
8
0-0
6
CONTINUOUS
62
  7
100
AcDbVertex
100
AcDb2dVertex
10
474.185045242310
20
153.000153025381
30
0.0
0
VERTEX
5
727
100
AcDbEntity
8
0-0
6
CONTINUOUS
62
  7
100
AcDbVertex
100
AcDb2dVertex
10
474.185045242310
20
159.000000000000
30
0.0
0
VERTEX
5
728
100
AcDbEntity
8
0-0
6
CONTINUOUS
62
  7
100
AcDbVertex
100
AcDb2dVertex
10
479.092522621155
20
159.000000000000
30
0.0
0
VERTEX
5
729
100
AcDbEntity
8
0-0
6
CONTINUOUS
62
  7
100
AcDbVertex
100
AcDb2dVertex
10
479.669872890344
20
160.000000000000
30
0.0
0
SEQEND
5
72a
100
AcDbEntity
8
0-0
0
LINE
5
72b
100
AcDbEntity
8
0-0
6
CONTINUOUS
62
7
100
AcDbLine
10
479.485123209641
20
159.680004166339
30
0.0
11
488.514876790359
21
152.320148859043
31
0.0
0
POLYLINE
5
72c
100
AcDbEntity
8
0-0
6
CONTINUOUS
62
  7
100
AcDb2dPolyline
66
1
10
0.0
20
0.0
30
0.0
70
0
0
VERTEX
5
72d
100
AcDbEntity
8
0-0
6
CONTINUOUS
62
  7
100
AcDbVertex
100
AcDb2dVertex
10
488.907477378845
20
153.000153025381
30
0.0
0
VERTEX
5
72e
100
AcDbEntity
8
0-0
6
CONTINUOUS
62
  7
100
AcDbVertex
100
AcDb2dVertex
10
493.814954757690
20
153.000153025381
30
0.0
0
VERTEX
5
72f
100
AcDbEntity
8
0-0
6
CONTINUOUS
62
  7
100
AcDbVertex
100
AcDb2dVertex
10
492.814954757690
20
152.000153025381
30
0.0
0
SEQEND
5
730
100
AcDbEntity
8
0-0
0
POLYLINE
5
731
100
AcDbEntity
8
0-0
6
CONTINUOUS
62
  7
100
AcDb2dPolyline
66
1
10
0.0
20
0.0
30
0.0
70
0
0
VERTEX
5
732
100
AcDbEntity
8
0-0
6
CONTINUOUS
62
  7
100
AcDbVertex
100
AcDb2dVertex
10
493.814954757690
20
153.000153025381
30
0.0
0
VERTEX
5
733
100
AcDbEntity
8
0-0
6
CONTINUOUS
62
  7
100
AcDbVertex
100
AcDb2dVertex
10
493.814954757690
20
159.000000000000
30
0.0
0
VERTEX
5
734
100
AcDbEntity
8
0-0
6
CONTINUOUS
62
  7
100
AcDbVertex
100
AcDb2dVertex
10
488.907477378845
20
159.000000000000
30
0.0
0
SEQEND
5
735
100
AcDbEntity
8
0-0
0
LINE
5
736
100
AcDbEntity
8
0-0
6
CONTINUOUS
62
7
100
AcDbLine
10
479.064939207105
20
173.299990000000
30
0.0
11
479.064939207105
21
160.000000000000
31
0.0
0
LINE
5
737
100
AcDbEntity
8
0-0
6
CONTINUOUS
62
7
100
AcDbLine
10
479.092522621155
20
159.000000000000
30
0.0
11
479.092522621155
21
153.000153025381
31
0.0
0
POLYLINE
5
738
100
AcDbEntity
8
0-0
6
CONTINUOUS
62
  7
100
AcDb2dPolyline
66
1
10
0.0
20
0.0
30
0.0
70
0
0
VERTEX
5
739
100
AcDbEntity
8
0-0
6
CONTINUOUS
62
  7
100
AcDbVertex
100
AcDb2dVertex
10
473.000000000000
20
152.000153025381
30
0.0
0
VERTEX
5
73a
100
AcDbEntity
8
0-0
6
CONTINUOUS
62
  7
100
AcDbVertex
100
AcDb2dVertex
10
495.000000000000
20
152.000153025381
30
0.0
0
VERTEX
5
73b
100
AcDbEntity
8
0-0
6
CONTINUOUS
62
  7
100
AcDbVertex
100
AcDb2dVertex
10
495.000000000000
20
136.583124160767
30
0.0
0
SEQEND
5
73c
100
AcDbEntity
8
0-0
0
POLYLINE
5
73d
100
AcDbEntity
8
0-0
6
CONTINUOUS
62
  7
100
AcDb2dPolyline
66
1
10
0.0
20
0.0
30
0.0
70
0
0
VERTEX
5
73e
100
AcDbEntity
8
0-0
6
CONTINUOUS
62
  7
100
AcDbVertex
100
AcDb2dVertex
10
444.299922943114
20
135.475984573364
30
0.0
0
VERTEX
5
73f
100
AcDbEntity
8
0-0
6
CONTINUOUS
62
  7
100
AcDbVertex
100
AcDb2dVertex
10
432.999999999999
20
142.000000000000
30
0.0
0
VERTEX
5
740
100
AcDbEntity
8
0-0
6
CONTINUOUS
62
  7
100
AcDbVertex
100
AcDb2dVertex
10
432.999999999999
20
144.000000000000
30
0.0
0
VERTEX
5
741
100
AcDbEntity
8
0-0
6
CONTINUOUS
62
  7
100
AcDbVertex
100
AcDb2dVertex
10
449.684825897216
20
144.000000000000
30
0.0
0
VERTEX
5
742
100
AcDbEntity
8
0-0
6
CONTINUOUS
62
  7
100
AcDbVertex
100
AcDb2dVertex
10
453.416875839232
20
145.000000000000
30
0.0
0
SEQEND
5
743
100
AcDbEntity
8
0-0
0
POLYLINE
5
744
100
AcDbEntity
8
0-0
6
CONTINUOUS
62
  7
100
AcDb2dPolyline
66
1
10
0.0
20
0.0
30
0.0
70
0
0
VERTEX
5
745
100
AcDbEntity
8
0-0
6
CONTINUOUS
62
  7
100
AcDbVertex
100
AcDb2dVertex
10
493.814954757690
20
159.000000000000
30
0.0
0
VERTEX
5
746
100
AcDbEntity
8
0-0
6
CONTINUOUS
62
  7
100
AcDbVertex
100
AcDb2dVertex
10
492.814954757690
20
160.000000000000
30
0.0
0
VERTEX
5
747
100
AcDbEntity
8
0-0
6
CONTINUOUS
62
  7
100
AcDbVertex
100
AcDb2dVertex
10
475.185045242310
20
160.000000000000
30
0.0
0
VERTEX
5
748
100
AcDbEntity
8
0-0
6
CONTINUOUS
62
  7
100
AcDbVertex
100
AcDb2dVertex
10
474.185045242310
20
159.000000000000
30
0.0
0
SEQEND
5
749
100
AcDbEntity
8
0-0
0
LINE
5
74a
100
AcDbEntity
8
0-0
6
CONTINUOUS
62
7
100
AcDbLine
10
473.000000000000
20
152.000153025381
30
0.0
11
473.000000000000
21
149.849622726440
31
0.0
0
ARC
5
74b
100
AcDbEntity
8
0-0
6
CONTINUOUS
62
7
100
AcDbCircle
10
484.000000000000
20
218.131484545932
30
0.0
40
9.814954756709
100
AcDbArc
50
300.000000000000
51
419.999999082594
0
ARC
5
74c
100
AcDbEntity
8
0-0
6
CONTINUOUS
62
7
100
AcDbCircle
10
484.000000000000
20
218.131484545932
30
0.0
40
9.814954756709
100
AcDbArc
50
120.000000000000
51
239.999999082592
0
CIRCLE
5
74d
100
AcDbEntity
8
0-0
6
CONTINUOUS
62
7
100
AcDbCircle
10
484.000000000000
20
218.131484545932
30
0.0
40
11.999999998800
0
CIRCLE
5
74e
100
AcDbEntity
8
0-0
6
CONTINUOUS
62
7
100
AcDbCircle
10
484.000000000000
20
218.131484545932
30
0.0
40
4.999999999500
0
ARC
5
74f
100
AcDbEntity
8
0-0
6
CONTINUOUS
62
7
100
AcDbCircle
10
470.000000000000
20
134.631484545932
30
0.0
40
114.500000000000
100
AcDbArc
50
74.810699462891
51
105.189285278320
0
ARC
5
750
100
AcDbEntity
8
0-0
6
CONTINUOUS
62
7
100
AcDbCircle
10
470.000000000000
20
301.631484545932
30
0.0
40
114.500000000000
100
AcDbArc
50
254.810699462891
51
285.189285278320
0
CIRCLE
5
751
100
AcDbEntity
8
0-0
6
CONTINUOUS
62
7
100
AcDbCircle
10
470.000000000000
20
120.000000000000
30
0.0
40
18.000000000000
0
CIRCLE
5
752
100
AcDbEntity
8
0-0
6
CONTINUOUS
62
7
100
AcDbCircle
10
470.000000000000
20
120.000000000000
30
0.0
40
30.000000000000
0
POLYLINE
5
753
100
AcDbEntity
8
0-0
6
CONTINUOUS
62
  7
100
AcDb2dPolyline
66
1
10
0.0
20
0.0
30
0.0
70
0
0
VERTEX
5
754
100
AcDbEntity
8
0-0
6
CONTINUOUS
62
  7
100
AcDbVertex
100
AcDb2dVertex
10
535.651261655665
20
90.847046071361
30
0.0
0
VERTEX
5
755
100
AcDbEntity
8
0-0
6
CONTINUOUS
62
  7
100
AcDbVertex
100
AcDb2dVertex
10
535.651261655665
20
150.847046071361
30
0.0
0
VERTEX
5
756
100
AcDbEntity
8
0-0
6
CONTINUOUS
62
  7
100
AcDbVertex
100
AcDb2dVertex
10
543.651261655665
20
150.847046071361
30
0.0
0
VERTEX
5
757
100
AcDbEntity
8
0-0
6
CONTINUOUS
62
  7
100
AcDbVertex
100
AcDb2dVertex
10
543.651261655665
20
90.847046071361
30
0.0
0
VERTEX
5
758
100
AcDbEntity
8
0-0
6
CONTINUOUS
62
  7
100
AcDbVertex
100
AcDb2dVertex
10
535.651260891807
20
90.847048884907
30
0.0
0
SEQEND
5
759
100
AcDbEntity
8
0-0
0
POLYLINE
5
75a
100
AcDbEntity
8
0-0
6
CONTINUOUS
62
  7
100
AcDb2dPolyline
66
1
10
0.0
20
0.0
30
0.0
70
0
0
VERTEX
5
75b
100
AcDbEntity
8
0-0
6
CONTINUOUS
62
  7
100
AcDbVertex
100
AcDb2dVertex
10
545.651261655665
20
95.847046071361
30
0.0
0
VERTEX
5
75c
100
AcDbEntity
8
0-0
6
CONTINUOUS
62
  7
100
AcDbVertex
100
AcDb2dVertex
10
579.651261655666
20
95.847046071361
30
0.0
0
VERTEX
5
75d
100
AcDbEntity
8
0-0
6
CONTINUOUS
62
  7
100
AcDbVertex
100
AcDb2dVertex
10
579.651261655666
20
145.847046071361
30
0.0
0
VERTEX
5
75e
100
AcDbEntity
8
0-0
6
CONTINUOUS
62
  7
100
AcDbVertex
100
AcDb2dVertex
10
545.651261655665
20
145.847046071361
30
0.0
0
VERTEX
5
75f
100
AcDbEntity
8
0-0
6
CONTINUOUS
62
  7
100
AcDbVertex
100
AcDb2dVertex
10
545.651261655665
20
95.847046071361
30
0.0
0
SEQEND
5
760
100
AcDbEntity
8
0-0
0
POLYLINE
5
761
100
AcDbEntity
8
0-0
6
CONTINUOUS
62
  7
100
AcDb2dPolyline
66
1
10
0.0
20
0.0
30
0.0
70
0
0
VERTEX
5
762
100
AcDbEntity
8
0-0
6
CONTINUOUS
62
  7
100
AcDbVertex
100
AcDb2dVertex
10
566.951261655666
20
174.000000000000
30
0.0
0
VERTEX
5
763
100
AcDbEntity
8
0-0
6
CONTINUOUS
62
  7
100
AcDbVertex
100
AcDb2dVertex
10
558.351261655665
20
174.000000000000
30
0.0
0
VERTEX
5
764
100
AcDbEntity
8
0-0
6
CONTINUOUS
62
  7
100
AcDbVertex
100
AcDb2dVertex
10
557.651261655665
20
173.299990000000
30
0.0
0
SEQEND
5
765
100
AcDbEntity
8
0-0
0
LINE
5
766
100
AcDbEntity
8
0-0
6
CONTINUOUS
62
7
100
AcDbLine
10
567.651261655666
20
173.299990000000
30
0.0
11
566.951261655666
21
174.000000000000
31
0.0
0
LINE
5
767
100
AcDbEntity
8
0-0
6
CONTINUOUS
62
7
100
AcDbLine
10
567.651261655666
20
160.000000000000
30
0.0
11
567.651261655666
21
173.299990000000
31
0.0
0
LINE
5
768
100
AcDbEntity
8
0-0
6
CONTINUOUS
62
7
100
AcDbLine
10
557.651261655665
20
173.299990000000
30
0.0
11
557.651261655665
21
160.000000000000
31
0.0
0
POLYLINE
5
769
100
AcDbEntity
8
0-0
6
CONTINUOUS
62
  7
100
AcDb2dPolyline
66
1
10
0.0
20
0.0
30
0.0
70
0
0
VERTEX
5
76a
100
AcDbEntity
8
0-0
6
CONTINUOUS
62
  7
100
AcDbVertex
100
AcDb2dVertex
10
566.981388765321
20
160.000000000000
30
0.0
0
VERTEX
5
76b
100
AcDbEntity
8
0-0
6
CONTINUOUS
62
  7
100
AcDbVertex
100
AcDb2dVertex
10
567.558739034511
20
159.000000000000
30
0.0
0
VERTEX
5
76c
100
AcDbEntity
8
0-0
6
CONTINUOUS
62
  7
100
AcDbVertex
100
AcDb2dVertex
10
572.466216413356
20
159.000000000000
30
0.0
0
VERTEX
5
76d
100
AcDbEntity
8
0-0
6
CONTINUOUS
62
  7
100
AcDbVertex
100
AcDb2dVertex
10
572.466216413356
20
153.000153025381
30
0.0
0
VERTEX
5
76e
100
AcDbEntity
8
0-0
6
CONTINUOUS
62
  7
100
AcDbVertex
100
AcDb2dVertex
10
571.466216413356
20
152.000153025381
30
0.0
0
SEQEND
5
76f
100
AcDbEntity
8
0-0
0
POLYLINE
5
770
100
AcDbEntity
8
0-0
6
CONTINUOUS
62
  7
100
AcDb2dPolyline
66
1
10
0.0
20
0.0
30
0.0
70
0
0
VERTEX
5
771
100
AcDbEntity
8
0-0
6
CONTINUOUS
62
  7
100
AcDbVertex
100
AcDb2dVertex
10
572.466216413356
20
153.000153025381
30
0.0
0
VERTEX
5
772
100
AcDbEntity
8
0-0
6
CONTINUOUS
62
  7
100
AcDbVertex
100
AcDb2dVertex
10
567.558739034511
20
153.000153025381
30
0.0
0
VERTEX
5
773
100
AcDbEntity
8
0-0
6
CONTINUOUS
62
  7
100
AcDbVertex
100
AcDb2dVertex
10
566.981388765321
20
152.000153025381
30
0.0
0
SEQEND
5
774
100
AcDbEntity
8
0-0
0
LINE
5
775
100
AcDbEntity
8
0-0
6
CONTINUOUS
62
7
100
AcDbLine
10
567.166138446025
20
152.320148859043
30
0.0
11
558.136384865306
21
159.680004166339
31
0.0
0
POLYLINE
5
776
100
AcDbEntity
8
0-0
6
CONTINUOUS
62
  7
100
AcDb2dPolyline
66
1
10
0.0
20
0.0
30
0.0
70
0
0
VERTEX
5
777
100
AcDbEntity
8
0-0
6
CONTINUOUS
62
  7
100
AcDbVertex
100
AcDb2dVertex
10
558.321134546010
20
160.000000000000
30
0.0
0
VERTEX
5
778
100
AcDbEntity
8
0-0
6
CONTINUOUS
62
  7
100
AcDbVertex
100
AcDb2dVertex
10
557.743784276820
20
159.000000000000
30
0.0
0
VERTEX
5
779
100
AcDbEntity
8
0-0
6
CONTINUOUS
62
  7
100
AcDbVertex
100
AcDb2dVertex
10
552.836306897975
20
159.000000000000
30
0.0
0
VERTEX
5
77a
100
AcDbEntity
8
0-0
6
CONTINUOUS
62
  7
100
AcDbVertex
100
AcDb2dVertex
10
553.836306897975
20
160.000000000000
30
0.0
0
VERTEX
5
77b
100
AcDbEntity
8
0-0
6
CONTINUOUS
62
  7
100
AcDbVertex
100
AcDb2dVertex
10
571.466216413356
20
160.000000000000
30
0.0
0
VERTEX
5
77c
100
AcDbEntity
8
0-0
6
CONTINUOUS
62
  7
100
AcDbVertex
100
AcDb2dVertex
10
572.466216413356
20
159.000000000000
30
0.0
0
SEQEND
5
77d
100
AcDbEntity
8
0-0
0
LINE
5
77e
100
AcDbEntity
8
0-0
6
CONTINUOUS
62
7
100
AcDbLine
10
567.558739034511
20
159.000000000000
30
0.0
11
567.558739034511
21
153.000153025381
31
0.0
0
LINE
5
77f
100
AcDbEntity
8
0-0
6
CONTINUOUS
62
7
100
AcDbLine
10
567.166138446025
20
159.680004166339
30
0.0
11
558.136384865306
21
152.320148859043
31
0.0
0
POLYLINE
5
780
100
AcDbEntity
8
0-0
6
CONTINUOUS
62
  7
100
AcDb2dPolyline
66
1
10
0.0
20
0.0
30
0.0
70
0
0
VERTEX
5
781
100
AcDbEntity
8
0-0
6
CONTINUOUS
62
  7
100
AcDbVertex
100
AcDb2dVertex
10
558.321134546010
20
152.000153025381
30
0.0
0
VERTEX
5
782
100
AcDbEntity
8
0-0
6
CONTINUOUS
62
  7
100
AcDbVertex
100
AcDb2dVertex
10
557.743784276820
20
153.000153025381
30
0.0
0
VERTEX
5
783
100
AcDbEntity
8
0-0
6
CONTINUOUS
62
  7
100
AcDbVertex
100
AcDb2dVertex
10
552.836306897975
20
153.000153025381
30
0.0
0
VERTEX
5
784
100
AcDbEntity
8
0-0
6
CONTINUOUS
62
  7
100
AcDbVertex
100
AcDb2dVertex
10
553.836306897975
20
152.000153025381
30
0.0
0
SEQEND
5
785
100
AcDbEntity
8
0-0
0
LINE
5
786
100
AcDbEntity
8
0-0
6
CONTINUOUS
62
7
100
AcDbLine
10
552.836306897975
20
153.000153025381
30
0.0
11
552.836306897975
21
159.000000000000
31
0.0
0
LINE
5
787
100
AcDbEntity
8
0-0
6
CONTINUOUS
62
7
100
AcDbLine
10
557.743784276820
20
159.000000000000
30
0.0
11
557.743784276820
21
153.000153025381
31
0.0
0
LINE
5
788
100
AcDbEntity
8
0-0
6
CONTINUOUS
62
7
100
AcDbLine
10
551.651261655665
20
152.000000000000
30
0.0
11
551.651261655665
21
145.696668797801
31
0.0
0
POLYLINE
5
789
100
AcDbEntity
8
0-0
6
CONTINUOUS
62
  7
100
AcDb2dPolyline
66
1
10
0.0
20
0.0
30
0.0
70
0
0
VERTEX
5
78a
100
AcDbEntity
8
0-0
6
CONTINUOUS
62
  7
100
AcDbVertex
100
AcDb2dVertex
10
551.651261655665
20
152.000000000000
30
0.0
0
VERTEX
5
78b
100
AcDbEntity
8
0-0
6
CONTINUOUS
62
  7
100
AcDbVertex
100
AcDb2dVertex
10
573.651261655666
20
152.000000000000
30
0.0
0
VERTEX
5
78c
100
AcDbEntity
8
0-0
6
CONTINUOUS
62
  7
100
AcDbVertex
100
AcDb2dVertex
10
573.651261655666
20
145.847046071361
30
0.0
0
SEQEND
5
78d
100
AcDbEntity
8
0-0
0
POLYLINE
5
78e
100
AcDbEntity
8
0-0
6
CONTINUOUS
62
  7
100
AcDb2dPolyline
66
1
10
0.0
20
0.0
30
0.0
70
0
0
VERTEX
5
78f
100
AcDbEntity
8
0-0
6
CONTINUOUS
62
  7
100
AcDbVertex
100
AcDb2dVertex
10
581.651261655666
20
150.847046071361
30
0.0
0
VERTEX
5
790
100
AcDbEntity
8
0-0
6
CONTINUOUS
62
  7
100
AcDbVertex
100
AcDb2dVertex
10
589.651261655666
20
150.847046071361
30
0.0
0
VERTEX
5
791
100
AcDbEntity
8
0-0
6
CONTINUOUS
62
  7
100
AcDbVertex
100
AcDb2dVertex
10
589.651261655666
20
90.847046071361
30
0.0
0
VERTEX
5
792
100
AcDbEntity
8
0-0
6
CONTINUOUS
62
  7
100
AcDbVertex
100
AcDb2dVertex
10
581.651261655666
20
90.847046071361
30
0.0
0
VERTEX
5
793
100
AcDbEntity
8
0-0
6
CONTINUOUS
62
  7
100
AcDbVertex
100
AcDb2dVertex
10
581.651261655666
20
150.847046071361
30
0.0
0
SEQEND
5
794
100
AcDbEntity
8
0-0
0
ARC
5
795
100
AcDbEntity
8
0-0
6
CONTINUOUS
62
7
100
AcDbCircle
10
646.151261655666
20
120.847046071361
30
0.0
40
114.500000000000
100
AcDbArc
50
164.810699462891
51
195.189285278320
0
ARC
5
796
100
AcDbEntity
8
0-0
6
CONTINUOUS
62
7
100
AcDbCircle
10
479.151261655666
20
120.847046071361
30
0.0
40
114.500000000000
100
AcDbArc
50
344.810699462891
51
375.189285278320
0
LINE
5
797
100
AcDbEntity
8
0-1
6
CENTER
62
4
100
AcDbLine
10
470.000000000000
20
77.414144517814
30
0.0
11
470.000000000000
21
15.414144517814
31
0.0
0
LINE
5
798
100
AcDbEntity
8
0-1
6
CENTER
62
4
100
AcDbLine
10
484.000000000000
20
58.414144516614
30
0.0
11
484.000000000000
21
34.414144519014
31
0.0
0
LINE
5
799
100
AcDbEntity
8
0-1
6
CENTER
62
4
100
AcDbLine
10
485.339724736000
20
53.414144517814
30
0.0
11
485.339724736000
21
51.889081703814
31
0.0
0
LINE
5
79a
100
AcDbEntity
8
0-1
6
CENTER
62
4
100
AcDbLine
10
485.987995698600
20
52.651613110814
30
0.0
11
484.691453773399
21
52.651613110814
31
0.0
0
LINE
5
79b
100
AcDbEntity
8
0-1
6
CENTER
62
4
100
AcDbLine
10
483.308546226829
20
52.651613110814
30
0.0
11
482.012004301631
21
52.651613110814
31
0.0
0
LINE
5
79c
100
AcDbEntity
8
0-1
6
CENTER
62
4
100
AcDbLine
10
482.660275264229
20
51.889081703814
30
0.0
11
482.660275264229
21
53.414144517814
31
0.0
0
LINE
5
79d
100
AcDbEntity
8
0-1
6
CENTER
62
4
100
AcDbLine
10
499.999999997000
20
46.414144517814
30
0.0
11
435.000000003499
21
46.414144517814
31
0.0
0
LINE
5
79e
100
AcDbEntity
8
0-1
6
CENTER
62
4
100
AcDbLine
10
435.000000003499
20
218.131484545932
30
0.0
11
499.999999997000
21
218.131484545932
31
0.0
0
LINE
5
79f
100
AcDbEntity
8
0-1
6
CENTER
62
4
100
AcDbLine
10
484.000000000000
20
206.131484547132
30
0.0
11
484.000000000000
21
230.131484544732
31
0.0
0
POLYLINE
5
7a0
100
AcDbEntity
8
0-1
6
CONTINUOUS
62
  4
100
AcDb2dPolyline
66
1
10
0.0
20
0.0
30
0.0
70
0
0
VERTEX
5
7a1
100
AcDbEntity
8
0-1
6
CONTINUOUS
62
  4
100
AcDbVertex
100
AcDb2dVertex
10
488.364939207105
20
174.000000000000
30
0.0
0
VERTEX
5
7a2
100
AcDbEntity
8
0-1
6
CONTINUOUS
62
  4
100
AcDbVertex
100
AcDb2dVertex
10
488.364939207105
20
161.212440000000
30
0.0
0
VERTEX
5
7a3
100
AcDbEntity
8
0-1
6
CONTINUOUS
62
  4
100
AcDbVertex
100
AcDb2dVertex
10
489.064939207105
20
160.000000000000
30
0.0
0
SEQEND
5
7a4
100
AcDbEntity
8
0-1
0
LINE
5
7a5
100
AcDbEntity
8
0-1
6
CONTINUOUS
62
4
100
AcDbLine
10
489.064939207105
20
173.299990000000
30
0.0
11
479.064939207105
21
173.299990000000
31
0.0
0
LINE
5
7a6
100
AcDbEntity
8
0-1
6
CENTER
62
4
100
AcDbLine
10
484.000000000000
20
174.000000000000
30
0.0
11
484.000000000000
21
146.532998085022
31
0.0
0
LINE
5
7a7
100
AcDbEntity
8
0-1
6
CONTINUOUS
62
4
100
AcDbLine
10
489.064939207105
20
161.212440000000
30
0.0
11
479.064939207105
21
161.212440000000
31
0.0
0
LINE
5
7a8
100
AcDbEntity
8
0-1
6
CONTINUOUS
62
4
100
AcDbLine
10
479.764939207104
20
161.212440000000
30
0.0
11
479.764939207104
21
174.000000000000
31
0.0
0
LINE
5
7a9
100
AcDbEntity
8
0-1
6
CONTINUOUS
62
4
100
AcDbLine
10
479.064939207105
20
160.000000000000
30
0.0
11
479.764939207104
21
161.212440000000
31
0.0
0
LINE
5
7aa
100
AcDbEntity
8
0-1
6
CENTER
62
4
100
AcDbLine
10
500.000000000000
20
120.000000000000
30
0.0
11
439.999999999999
21
120.000000000000
31
0.0
0
LINE
5
7ab
100
AcDbEntity
8
0-1
6
CENTER
62
4
100
AcDbLine
10
470.000000000000
20
150.000000000000
30
0.0
11
470.000000000000
21
90.000000000000
31
0.0
0
LINE
5
7ac
100
AcDbEntity
8
0-1
6
CENTER
62
4
100
AcDbLine
10
470.000000000000
20
187.131484545932
30
0.0
11
470.000000000000
21
249.131484545932
31
0.0
0
CIRCLE
5
7ad
100
AcDbEntity
8
0-1
6
CONTINUOUS
62
4
100
AcDbCircle
10
484.000000000000
20
218.131484545932
30
0.0
40
4.300000190305
0
LINE
5
7ae
100
AcDbEntity
8
0-1
6
CENTER
62
4
100
AcDbLine
10
562.651261655666
20
90.847046071361
30
0.0
11
562.651261655666
21
174.000000000000
31
0.0
0
LINE
5
7af
100
AcDbEntity
8
0-1
6
CONTINUOUS
62
4
100
AcDbLine
10
557.651261655665
20
173.299990000000
30
0.0
11
567.651261655666
21
173.299990000000
31
0.0
0
POLYLINE
5
7b0
100
AcDbEntity
8
0-1
6
CONTINUOUS
62
  4
100
AcDb2dPolyline
66
1
10
0.0
20
0.0
30
0.0
70
0
0
VERTEX
5
7b1
100
AcDbEntity
8
0-1
6
CONTINUOUS
62
  4
100
AcDbVertex
100
AcDb2dVertex
10
566.951261655666
20
174.000000000000
30
0.0
0
VERTEX
5
7b2
100
AcDbEntity
8
0-1
6
CONTINUOUS
62
  4
100
AcDbVertex
100
AcDb2dVertex
10
566.951261655666
20
161.212440000000
30
0.0
0
VERTEX
5
7b3
100
AcDbEntity
8
0-1
6
CONTINUOUS
62
  4
100
AcDbVertex
100
AcDb2dVertex
10
567.651261655666
20
160.000000000000
30
0.0
0
SEQEND
5
7b4
100
AcDbEntity
8
0-1
0
POLYLINE
5
7b5
100
AcDbEntity
8
0-1
6
CONTINUOUS
62
  4
100
AcDb2dPolyline
66
1
10
0.0
20
0.0
30
0.0
70
0
0
VERTEX
5
7b6
100
AcDbEntity
8
0-1
6
CONTINUOUS
62
  4
100
AcDbVertex
100
AcDb2dVertex
10
557.651261655665
20
160.000000000000
30
0.0
0
VERTEX
5
7b7
100
AcDbEntity
8
0-1
6
CONTINUOUS
62
  4
100
AcDbVertex
100
AcDb2dVertex
10
558.351261655665
20
161.212440000000
30
0.0
0
VERTEX
5
7b8
100
AcDbEntity
8
0-1
6
CONTINUOUS
62
  4
100
AcDbVertex
100
AcDb2dVertex
10
558.351261655665
20
174.000000000000
30
0.0
0
SEQEND
5
7b9
100
AcDbEntity
8
0-1
0
LINE
5
7ba
100
AcDbEntity
8
0-1
6
CONTINUOUS
62
4
100
AcDbLine
10
557.651261655665
20
161.212440000000
30
0.0
11
567.651261655666
21
161.212440000000
31
0.0
0
LINE
5
7bb
100
AcDbEntity
8
0-1
6
CENTER
62
4
100
AcDbLine
10
593.651261655666
20
120.847046071361
30
0.0
11
531.651261655665
21
120.847046071361
31
0.0
0
LINE
5
7bc
100
AcDbEntity
8
0-1
6
PHANTOM
62
4
100
AcDbLine
10
788.692750089583
20
186.000002000000
30
0.0
11
788.692750089583
21
161.000002000000
31
0.0
0
LINE
5
7bd
100
AcDbEntity
8
0-1
6
PHANTOM
62
4
100
AcDbLine
10
813.692750089583
20
186.000002000000
30
0.0
11
788.692750089583
21
186.000002000000
31
0.0
0
LINE
5
7be
100
AcDbEntity
8
0-1
6
PHANTOM
62
4
100
AcDbLine
10
813.692750089583
20
161.000002000000
30
0.0
11
813.692750089583
21
186.000002000000
31
0.0
0
LINE
5
7bf
100
AcDbEntity
8
0-1
6
PHANTOM
62
4
100
AcDbLine
10
788.692750089583
20
161.000002000000
30
0.0
11
813.692750089583
21
161.000002000000
31
0.0
0
LINE
5
7c0
100
AcDbEntity
8
0-1
6
PHANTOM
62
4
100
AcDbLine
10
788.692750089583
20
219.792445420301
30
0.0
11
813.692750089583
21
219.792445420301
31
0.0
0
TEXT
5
7c1
100
AcDbEntity
8
0-0
62
7
370
-3
100
AcDbText
10
728.026
20
299.320
30
0.0
40
3.618
1
CAP5-UR
41
0.382
50
0.000
100
AcDbText
0
LINE
5
7c2
100
AcDbEntity
8
0-1
6
PHANTOM
62
4
100
AcDbLine
10
813.692750089583
20
219.792445420301
30
0.0
11
813.692750089583
21
301.360987915224
31
0.0
0
LINE
5
7c3
100
AcDbEntity
8
0-1
6
PHANTOM
62
4
100
AcDbLine
10
732.124207594659
20
276.360987915224
30
0.0
11
813.692750089583
21
276.360987915224
31
0.0
0
LINE
5
7c4
100
AcDbEntity
8
0-1
6
PHANTOM
62
4
100
AcDbLine
10
788.692750089583
20
301.360987915224
30
0.0
11
788.692750089583
21
219.792445420301
31
0.0
0
LINE
5
7c5
100
AcDbEntity
8
0-1
6
PHANTOM
62
4
100
AcDbLine
10
732.124207594659
20
301.360987915224
30
0.0
11
732.124207594659
21
276.360987915224
31
0.0
0
LINE
5
7c6
100
AcDbEntity
8
0-1
6
CENTER
62
4
100
AcDbLine
10
737.624207594659
20
288.860987915224
30
0.0
11
785.309823072103
21
288.860987915224
31
0.0
0
LINE
5
7c7
100
AcDbEntity
8
0-1
6
CENTER
62
4
100
AcDbLine
10
801.192750089583
20
267.516719144676
30
0.0
11
801.192750089583
21
225.292445420301
31
0.0
0
LINE
5
7c8
100
AcDbEntity
8
0-1
6
CENTER
62
4
100
AcDbLine
10
792.360726544854
20
267.647784479628
30
0.0
11
728.979548653986
21
267.647784479628
31
0.0
0
LINE
5
7c9
100
AcDbEntity
8
0-1
6
CENTER
62
4
100
AcDbLine
10
779.979546653986
20
256.033819203339
30
0.0
11
779.979546653986
21
279.201073470949
31
0.0
0
LINE
5
7ca
100
AcDbEntity
8
0-1
6
CENTER
62
4
100
AcDbLine
10
758.979546653987
20
235.916551479628
30
0.0
11
758.979546653987
21
290.916551479628
31
0.0
0
LINE
5
7cb
100
AcDbEntity
8
0-1
6
CENTER
62
4
100
AcDbLine
10
804.021177214329
20
263.405143792509
30
0.0
11
798.364322964837
21
257.748289543017
31
0.0
0
LINE
5
7cc
100
AcDbEntity
8
0-1
6
CENTER
62
4
100
AcDbLine
10
804.021177214329
20
257.748289543017
30
0.0
11
798.364322964837
21
263.405143792509
31
0.0
0
LINE
5
7cd
100
AcDbEntity
8
0-1
6
CENTER
62
4
100
AcDbLine
10
770.080051717375
20
291.689415039971
30
0.0
11
775.736905966867
21
286.032560790478
31
0.0
0
LINE
5
7ce
100
AcDbEntity
8
0-1
6
CENTER
62
4
100
AcDbLine
10
770.080051717375
20
286.032560790478
30
0.0
11
775.736905966867
21
291.689415039971
31
0.0
0
LINE
5
7cf
100
AcDbEntity
8
0-1
6
CENTER
62
4
100
AcDbLine
10
804.021177214329
20
229.464018295554
30
0.0
11
798.364322964837
21
235.120872545047
31
0.0
0
LINE
5
7d0
100
AcDbEntity
8
0-1
6
CENTER
62
4
100
AcDbLine
10
798.364322964837
20
229.464018295554
30
0.0
11
804.021177214329
21
235.120872545047
31
0.0
0
LINE
5
7d1
100
AcDbEntity
8
0-1
6
CENTER
62
4
100
AcDbLine
10
741.795780469913
20
291.689415039971
30
0.0
11
747.452634719405
21
286.032560790478
31
0.0
0
LINE
5
7d2
100
AcDbEntity
8
0-1
6
CENTER
62
4
100
AcDbLine
10
747.452634719405
20
291.689415039971
30
0.0
11
741.795780469913
21
286.032560790478
31
0.0
0
LINE
5
7d3
100
AcDbEntity
8
0-0
6
CONTINUOUS
62
7
100
AcDbLine
10
752.814034653986
20
243.945987479628
30
0.0
11
752.814034653986
21
253.330271479628
31
0.0
0
LINE
5
7d4
100
AcDbEntity
8
0-0
6
CONTINUOUS
62
7
100
AcDbLine
10
765.145058653987
20
243.945987479628
30
0.0
11
765.145058653987
21
253.330271479628
31
0.0
0
LINE
5
7d5
100
AcDbEntity
8
0-0
6
CONTINUOUS
62
7
100
AcDbLine
10
765.837879653987
20
255.247802479628
30
0.0
11
768.337900842957
21
255.247799730315
31
0.0
0
ARC
5
7d6
100
AcDbEntity
8
0-0
6
CONTINUOUS
62
7
100
AcDbCircle
10
779.969253653987
20
242.438959479628
30
0.0
40
8.226440000000
100
AcDbArc
50
283.736122000000
51
320.808931442830
0
ARC
5
7d7
100
AcDbEntity
8
0-0
6
CONTINUOUS
62
7
100
AcDbCircle
10
763.440240653987
20
239.347785479628
30
0.0
40
4.000000000000
100
AcDbArc
50
59.859457000000
51
90.000000000000
0
ARC
5
7d8
100
AcDbEntity
8
0-0
6
CONTINUOUS
62
7
100
AcDbCircle
10
780.922627653986
20
238.447798479628
30
0.0
40
4.000000000000
100
AcDbArc
50
239.859457000000
51
270.000000000000
0
ARC
5
7d9
100
AcDbEntity
8
0-0
6
CONTINUOUS
62
7
100
AcDbCircle
10
768.145058653987
20
253.330271479628
30
0.0
40
3.000000000000
100
AcDbArc
50
140.269530000000
51
179.999997000000
0
LINE
5
7da
100
AcDbEntity
8
0-0
6
CONTINUOUS
62
7
100
AcDbLine
10
780.922627653986
20
234.447798479628
30
0.0
11
781.922626653987
21
234.447798479628
31
0.0
0
LINE
5
7db
100
AcDbEntity
8
0-0
6
CONTINUOUS
62
7
100
AcDbLine
10
765.448731653987
20
242.806971479628
30
0.0
11
778.914136653986
21
234.988613479628
31
0.0
0
ARC
5
7dc
100
AcDbEntity
8
0-0
6
CONTINUOUS
62
7
100
AcDbCircle
10
793.895786653986
20
267.647784479628
30
0.0
40
41.016238000000
100
AcDbArc
50
175.872769234765
51
201.451189000000
0
LINE
5
7dd
100
AcDbEntity
8
0-0
6
CONTINUOUS
62
7
100
AcDbLine
10
736.643891653986
20
277.647784479628
30
0.0
11
745.937916093644
21
277.647784479628
31
0.0
0
LINE
5
7de
100
AcDbEntity
8
0-0
6
CONTINUOUS
62
7
100
AcDbLine
10
745.737919093644
20
277.847781479628
30
0.0
11
742.979546653986
21
277.847781479628
31
0.0
0
ARC
5
7df
100
AcDbEntity
8
0-0
6
CONTINUOUS
62
7
100
AcDbCircle
10
737.701772653987
20
251.647792479628
30
0.0
40
1.250015000000
100
AcDbArc
50
306.870241000000
51
413.129759000000
0
ARC
5
7e0
100
AcDbEntity
8
0-0
6
CONTINUOUS
62
7
100
AcDbCircle
10
754.518852653986
20
239.347785479628
30
0.0
40
4.000000000000
100
AcDbArc
50
90.000000000000
51
120.140543000000
0
ARC
5
7e1
100
AcDbEntity
8
0-0
6
CONTINUOUS
62
7
100
AcDbCircle
10
737.036465653987
20
238.447798479628
30
0.0
40
4.000000000000
100
AcDbArc
50
270.000000000000
51
300.140543000000
0
ARC
5
7e2
100
AcDbEntity
8
0-0
6
CONTINUOUS
62
7
100
AcDbCircle
10
737.989839653986
20
242.438959479628
30
0.0
40
8.226440000000
100
AcDbArc
50
93.750111000000
51
256.263878000000
0
ARC
5
7e3
100
AcDbEntity
8
0-0
6
CONTINUOUS
62
7
100
AcDbCircle
10
738.989838653987
20
242.438959479628
30
0.0
40
8.226440000000
100
AcDbArc
50
93.750111000000
51
256.263878000000
0
ARC
5
7e4
100
AcDbEntity
8
0-0
6
CONTINUOUS
62
7
100
AcDbCircle
10
745.776734653986
20
253.321666479628
30
0.0
40
3.000000000000
100
AcDbArc
50
0.000003000000
51
30.578070000000
0
ARC
5
7e5
100
AcDbEntity
8
0-0
6
CONTINUOUS
62
7
100
AcDbCircle
10
746.176728653987
20
253.330271479628
30
0.0
40
3.000000000000
100
AcDbArc
50
0.000003000000
51
39.730470000000
0
ARC
5
7e6
100
AcDbEntity
8
0-0
6
CONTINUOUS
62
7
100
AcDbCircle
10
749.814034653986
20
253.330271479628
30
0.0
40
3.000000000000
100
AcDbArc
50
0.000003000000
51
39.730470000000
0
ARC
5
7e7
100
AcDbEntity
8
0-0
6
CONTINUOUS
62
7
100
AcDbCircle
10
749.479546653987
20
256.647784479628
30
0.0
40
1.000000000000
100
AcDbArc
50
180.000000000000
51
270.000000000000
0
ARC
5
7e8
100
AcDbEntity
8
0-0
6
CONTINUOUS
62
7
100
AcDbCircle
10
736.643891653986
20
259.647784479628
30
0.0
40
2.000000000000
100
AcDbArc
50
189.494240000000
51
270.000000000000
0
ARC
5
7e9
100
AcDbEntity
8
0-0
6
CONTINUOUS
62
7
100
AcDbCircle
10
736.643891653986
20
275.647784479628
30
0.0
40
2.000000000000
100
AcDbArc
50
89.999990000000
51
170.505760000000
0
ARC
5
7ea
100
AcDbEntity
8
0-0
6
CONTINUOUS
62
7
100
AcDbCircle
10
784.479548653986
20
267.647784479628
30
0.0
40
50.500000000000
100
AcDbArc
50
170.505760000000
51
189.494240000000
0
LINE
5
7eb
100
AcDbEntity
8
0-0
6
CONTINUOUS
62
7
100
AcDbLine
10
742.979546653986
20
277.847781479628
30
0.0
11
742.979546653986
21
277.647784479628
31
0.0
0
LINE
5
7ec
100
AcDbEntity
8
0-0
6
CONTINUOUS
62
7
100
AcDbLine
10
737.036465653987
20
234.447798479628
30
0.0
11
736.036466653986
21
234.447798479628
31
0.0
0
LINE
5
7ed
100
AcDbEntity
8
0-0
6
CONTINUOUS
62
7
100
AcDbLine
10
752.510361653986
20
242.806971479628
30
0.0
11
739.044956653987
21
234.988613479628
31
0.0
0
LINE
5
7ee
100
AcDbEntity
8
0-0
6
CONTINUOUS
62
7
100
AcDbLine
10
735.202291653986
20
250.647784479628
30
0.0
11
735.202291653986
21
252.647799479628
31
0.0
0
LINE
5
7ef
100
AcDbEntity
8
0-0
6
CONTINUOUS
62
7
100
AcDbLine
10
738.451787653986
20
250.647784479628
30
0.0
11
735.202291653986
21
250.647784479628
31
0.0
0
LINE
5
7f0
100
AcDbEntity
8
0-0
6
CONTINUOUS
62
7
100
AcDbLine
10
748.479546653986
20
256.647784479628
30
0.0
11
748.479546653986
21
257.647784479628
31
0.0
0
LINE
5
7f1
100
AcDbEntity
8
0-0
6
CONTINUOUS
62
7
100
AcDbLine
10
748.776734653986
20
253.321666479628
30
0.0
11
748.776734653986
21
252.647799479628
31
0.0
0
LINE
5
7f2
100
AcDbEntity
8
0-0
6
CONTINUOUS
62
7
100
AcDbLine
10
749.176728653986
20
250.421400479628
30
0.0
11
749.176728653986
21
253.330271479628
31
0.0
0
LINE
5
7f3
100
AcDbEntity
8
0-0
6
CONTINUOUS
62
7
100
AcDbLine
10
748.776734653986
20
252.647799479628
30
0.0
11
749.176728653986
21
250.421400479628
31
0.0
0
LINE
5
7f4
100
AcDbEntity
8
0-0
6
CONTINUOUS
62
7
100
AcDbLine
10
735.202291653987
20
252.647799479628
30
0.0
11
748.776734653986
21
252.647799479628
31
0.0
0
LINE
5
7f5
100
AcDbEntity
8
0-0
6
CONTINUOUS
62
7
100
AcDbLine
10
754.117247653986
20
257.647784479628
30
0.0
11
736.643891653987
21
257.647784479628
31
0.0
0
LINE
5
7f6
100
AcDbEntity
8
0-0
6
CONTINUOUS
62
7
100
AcDbLine
10
749.479546653986
20
255.647784479628
30
0.0
11
754.674210653987
21
255.647784479628
31
0.0
0
LINE
5
7f7
100
AcDbEntity
8
0-0
6
CONTINUOUS
62
7
100
AcDbLine
10
748.483910653986
20
255.247798479628
30
0.0
11
748.359548653986
21
254.847796479628
31
0.0
0
LINE
5
7f8
100
AcDbEntity
8
0-0
6
CONTINUOUS
62
7
100
AcDbLine
10
752.121213653986
20
255.247802479628
30
0.0
11
748.483910653986
21
255.247798479628
31
0.0
0
LINE
5
7f9
100
AcDbEntity
8
0-0
6
CONTINUOUS
62
7
100
AcDbLine
10
754.994221653987
20
254.647784479628
30
0.0
11
752.509244653986
21
254.647784479628
31
0.0
0
LINE
5
7fa
100
AcDbEntity
8
0-0
6
CONTINUOUS
62
7
100
AcDbLine
10
752.814034653986
20
252.647799479628
30
0.0
11
762.979546653986
21
252.647799479628
31
0.0
0
LINE
5
7fb
100
AcDbEntity
8
0-0
6
CONTINUOUS
62
7
100
AcDbLine
10
762.979546653987
20
243.347785479628
30
0.0
11
754.518852653986
21
243.347785479628
31
0.0
0
ARC
5
7fc
100
AcDbEntity
8
0-0
6
CONTINUOUS
62
7
100
AcDbCircle
10
729.837357653986
20
242.438959479628
30
0.0
40
8.226440000000
100
AcDbArc
50
93.750111000000
51
256.263878000000
0
ARC
5
7fd
100
AcDbEntity
8
0-0
6
CONTINUOUS
62
7
100
AcDbCircle
10
773.582886177318
20
289.600794142400
30
0.0
40
6.000000000000
100
AcDbArc
50
45.000000000000
51
89.485131000000
0
ARC
5
7fe
100
AcDbEntity
8
0-0
6
CONTINUOUS
62
7
100
AcDbCircle
10
801.932555609652
20
261.251124710067
30
0.0
40
6.000000000000
100
AcDbArc
50
0.514869000000
51
45.000000000000
0
ARC
5
7ff
100
AcDbEntity
8
0-0
6
CONTINUOUS
62
7
100
AcDbCircle
10
779.979546653987
20
267.647784479628
30
0.0
40
19.300000000000
100
AcDbArc
50
16.742529000000
51
73.257471000000
0
CIRCLE
5
800
100
AcDbEntity
8
0-0
6
CONTINUOUS
62
7
100
AcDbCircle
10
779.979546653987
20
267.647784479628
30
0.0
40
7.500000000000
0
CIRCLE
5
801
100
AcDbEntity
8
0-0
6
CONTINUOUS
62
7
100
AcDbCircle
10
801.192750089583
20
260.576716667763
30
0.0
40
2.600000000000
0
CIRCLE
5
802
100
AcDbEntity
8
0-0
6
CONTINUOUS
62
7
100
AcDbCircle
10
772.908478842121
20
288.860987915224
30
0.0
40
2.600000000000
0
CIRCLE
5
803
100
AcDbEntity
8
0-0
6
CONTINUOUS
62
7
100
AcDbCircle
10
779.979546653987
20
267.647784479628
30
0.0
40
5.750000000000
0
ARC
5
804
100
AcDbEntity
8
0-0
6
CONTINUOUS
62
7
100
AcDbCircle
10
744.624207594659
20
288.860987915224
30
0.0
40
7.000000000000
100
AcDbArc
50
89.485131000000
51
225.000010000000
0
CIRCLE
5
805
100
AcDbEntity
8
0-0
6
CONTINUOUS
62
7
100
AcDbCircle
10
801.192750089583
20
232.292445420301
30
0.0
40
2.600000000000
0
ARC
5
806
100
AcDbEntity
8
0-0
6
CONTINUOUS
62
7
100
AcDbCircle
10
801.192750089583
20
232.292445420301
30
0.0
40
7.000000000000
100
AcDbArc
50
224.999990000000
51
360.514869000000
0
CIRCLE
5
807
100
AcDbEntity
8
0-0
6
CONTINUOUS
62
7
100
AcDbCircle
10
744.624207594659
20
288.860987915224
30
0.0
40
2.600000000000
0
LINE
5
808
100
AcDbEntity
8
0-0
6
CONTINUOUS
62
7
100
AcDbLine
10
777.825526864438
20
293.843434829520
30
0.0
11
806.175196296771
21
265.493765397186
31
0.0
0
LINE
5
809
100
AcDbEntity
8
0-0
6
CONTINUOUS
62
7
100
AcDbLine
10
744.687109692593
20
295.860705117334
30
0.0
11
773.636802362277
21
295.600552047254
31
0.0
0
LINE
5
80a
100
AcDbEntity
8
0-0
6
CONTINUOUS
62
7
100
AcDbLine
10
796.243002621277
20
227.342697951995
30
0.0
11
739.674460126353
21
283.911240446919
31
0.0
0
LINE
5
80b
100
AcDbEntity
8
0-0
6
CONTINUOUS
62
7
100
AcDbLine
10
807.932313514506
20
261.305040895026
30
0.0
11
808.192467291693
21
232.355347518235
31
0.0
0
LINE
5
80c
100
AcDbEntity
8
0-1
6
PHANTOM
62
4
100
AcDbLine
10
813.692750089583
20
301.360987915224
30
0.0
11
732.124207594659
21
301.360987915224
31
0.0
0
LINE
5
80d
100
AcDbEntity
8
0-1
6
CENTER
62
4
100
AcDbLine
10
786.479546653987
20
120.000000000000
30
0.0
11
731.479546653986
21
120.000000000000
31
0.0
0
LINE
5
80e
100
AcDbEntity
8
0-1
6
DASHED
62
4
100
AcDbLine
10
803.792750089583
20
158.700003000000
30
0.0
11
803.792750089583
21
161.000002000000
31
0.0
0
LINE
5
80f
100
AcDbEntity
8
0-1
6
CENTER
62
4
100
AcDbLine
10
801.192750089583
20
163.259052000000
30
0.0
11
801.192750089583
21
157.021383000000
31
0.0
0
LINE
5
810
100
AcDbEntity
8
0-1
6
DASHED
62
4
100
AcDbLine
10
798.592750089583
20
158.700003000000
30
0.0
11
798.592750089583
21
161.000002000000
31
0.0
0
LINE
5
811
100
AcDbEntity
8
0-1
6
DASHED
62
4
100
AcDbLine
10
770.308478842121
20
161.000002000000
30
0.0
11
770.308478842121
21
158.700003000000
31
0.0
0
LINE
5
812
100
AcDbEntity
8
0-1
6
CENTER
62
4
100
AcDbLine
10
772.908478842121
20
157.021383000000
30
0.0
11
772.908478842121
21
163.155090000000
31
0.0
0
LINE
5
813
100
AcDbEntity
8
0-1
6
DASHED
62
4
100
AcDbLine
10
775.508478842121
20
161.000002000000
30
0.0
11
775.508478842121
21
158.700003000000
31
0.0
0
LINE
5
814
100
AcDbEntity
8
0-1
6
CENTER
62
4
100
AcDbLine
10
758.979546653987
20
147.500000000000
30
0.0
11
758.979546653987
21
92.500000000000
31
0.0
0
LINE
5
815
100
AcDbEntity
8
0-1
6
DASHED
62
4
100
AcDbLine
10
742.024207594659
20
161.000002000000
30
0.0
11
742.024207594659
21
158.700003000000
31
0.0
0
LINE
5
816
100
AcDbEntity
8
0-1
6
DASHED
62
4
100
AcDbLine
10
747.224207594659
20
158.700003000000
30
0.0
11
747.224207594659
21
161.000002000000
31
0.0
0
LINE
5
817
100
AcDbEntity
8
0-1
6
CENTER
62
4
100
AcDbLine
10
744.624207594659
20
163.155090000000
30
0.0
11
744.624207594659
21
157.021383000000
31
0.0
0
LINE
5
818
100
AcDbEntity
8
0-1
6
CENTER
62
4
100
AcDbLine
10
715.355339079823
20
163.155090000000
30
0.0
11
715.355339079823
21
157.021383000000
31
0.0
0
LINE
5
819
100
AcDbEntity
8
0-1
6
CENTER
62
4
100
AcDbLine
10
687.071067832361
20
157.021383000000
30
0.0
11
687.071067832361
21
163.155090000000
31
0.0
0
LINE
5
81a
100
AcDbEntity
8
0-1
6
CENTER
62
4
100
AcDbLine
10
658.786796584899
20
163.259052000000
30
0.0
11
658.786796584899
21
157.021383000000
31
0.0
0
LINE
5
81b
100
AcDbEntity
8
0-1
6
DASHED
62
4
100
AcDbLine
10
656.186796584899
20
158.700003000000
30
0.0
11
656.186796584899
21
161.000002000000
31
0.0
0
LINE
5
81c
100
AcDbEntity
8
0-1
6
DASHED
62
4
100
AcDbLine
10
661.386796584899
20
158.700003000000
30
0.0
11
661.386796584899
21
161.000002000000
31
0.0
0
LINE
5
81d
100
AcDbEntity
8
0-1
6
DASHED
62
4
100
AcDbLine
10
689.671067832361
20
161.000002000000
30
0.0
11
689.671067832361
21
158.700003000000
31
0.0
0
LINE
5
81e
100
AcDbEntity
8
0-1
6
DASHED
62
4
100
AcDbLine
10
684.471067832361
20
161.000002000000
30
0.0
11
684.471067832361
21
158.700003000000
31
0.0
0
LINE
5
81f
100
AcDbEntity
8
0-1
6
DASHED
62
4
100
AcDbLine
10
717.955339079823
20
161.000002000000
30
0.0
11
717.955339079823
21
158.700003000000
31
0.0
0
LINE
5
820
100
AcDbEntity
8
0-1
6
DASHED
62
4
100
AcDbLine
10
712.755339079823
20
158.700003000000
30
0.0
11
712.755339079823
21
161.000002000000
31
0.0
0
LINE
5
821
100
AcDbEntity
8
0-1
6
CENTER
62
4
100
AcDbLine
10
680.000000000000
20
165.746622000000
30
0.0
11
680.000000000000
21
90.000000000000
31
0.0
0
LINE
5
822
100
AcDbEntity
8
0-1
6
CENTER
62
4
100
AcDbLine
10
704.526632000000
20
120.000000000000
30
0.0
11
660.238348000000
21
120.000000000000
31
0.0
0
LINE
5
823
100
AcDbEntity
8
0-1
6
CENTER
62
4
100
AcDbLine
10
687.402320386406
20
39.890641473526
30
0.0
11
673.501967825840
21
39.890641473526
31
0.0
0
LINE
5
824
100
AcDbEntity
8
0-1
6
CENTER
62
4
100
AcDbLine
10
718.183766184074
20
21.505865162675
30
0.0
11
712.526911934581
21
15.849010913183
31
0.0
0
LINE
5
825
100
AcDbEntity
8
0-1
6
CENTER
62
4
100
AcDbLine
10
718.183766184074
20
15.849010913183
30
0.0
11
712.526911934581
21
21.505865162675
31
0.0
0
LINE
5
826
100
AcDbEntity
8
0-1
6
CENTER
62
4
100
AcDbLine
10
689.899494936611
20
15.849010913183
30
0.0
11
684.242640687119
21
21.505865162675
31
0.0
0
LINE
5
827
100
AcDbEntity
8
0-1
6
CENTER
62
4
100
AcDbLine
10
684.242640687119
20
15.849010913183
30
0.0
11
689.899494936612
21
21.505865162675
31
0.0
0
LINE
5
828
100
AcDbEntity
8
0-1
6
CENTER
62
4
100
AcDbLine
10
661.615223689150
20
44.133282160645
30
0.0
11
655.958369439657
21
49.790136410138
31
0.0
0
LINE
5
829
100
AcDbEntity
8
0-1
6
CENTER
62
4
100
AcDbLine
10
655.958369439657
20
78.074407657599
30
0.0
11
661.615223689149
21
72.417553408107
31
0.0
0
LINE
5
82a
100
AcDbEntity
8
0-1
6
CENTER
62
4
100
AcDbLine
10
655.958369439657
20
72.417553408107
30
0.0
11
661.615223689149
21
78.074407657599
31
0.0
0
LINE
5
82b
100
AcDbEntity
8
0-1
6
CENTER
62
4
100
AcDbLine
10
655.958369439657
20
44.133282160645
30
0.0
11
661.615223689150
21
49.790136410137
31
0.0
0
LINE
5
82c
100
AcDbEntity
8
0-1
6
CENTER
62
4
100
AcDbLine
10
656.731233000000
20
60.890641473526
30
0.0
11
711.731233000000
21
60.890641473526
31
0.0
0
LINE
5
82d
100
AcDbEntity
8
0-1
6
CENTER
62
4
100
AcDbLine
10
680.000000000000
20
90.890639473526
30
0.0
11
680.000000000000
21
15.590641473526
31
0.0
0
ARC
5
82e
100
AcDbEntity
8
0-0
6
CONTINUOUS
62
7
100
AcDbCircle
10
758.979546653987
20
120.000000000000
30
0.0
40
18.000000000000
100
AcDbArc
50
104.993200000000
51
120.732420000000
0
ARC
5
82f
100
AcDbEntity
8
0-0
6
CONTINUOUS
62
7
100
AcDbCircle
10
758.979546653987
20
120.000000000000
30
0.0
40
18.000000000000
100
AcDbArc
50
165.843800000000
51
314.156190000000
0
ARC
5
830
100
AcDbEntity
8
0-0
6
CONTINUOUS
62
7
100
AcDbCircle
10
758.979546653987
20
120.000000000000
30
0.0
40
18.000000000000
100
AcDbArc
50
356.387800000000
51
390.275818000000
0
ARC
5
831
100
AcDbEntity
8
0-0
6
CONTINUOUS
62
7
100
AcDbCircle
10
758.979546653987
20
120.000000000000
30
0.0
40
11.000000000000
100
AcDbArc
50
195.608740000000
51
284.391230000000
0
CIRCLE
5
832
100
AcDbEntity
8
0-0
6
CONTINUOUS
62
7
100
AcDbCircle
10
758.979546653987
20
120.000000000000
30
0.0
40
6.000000000000
0
CIRCLE
5
833
100
AcDbEntity
8
0-0
6
CONTINUOUS
62
7
100
AcDbCircle
10
758.979546653987
20
120.000000000000
30
0.0
40
2.000000000000
0
ARC
5
834
100
AcDbEntity
8
0-0
6
CONTINUOUS
62
7
100
AcDbCircle
10
734.632760653986
20
139.830128000000
30
0.0
40
1.000000000000
100
AcDbArc
50
330.000000000000
51
419.999995000000
0
ARC
5
835
100
AcDbEntity
8
0-0
6
CONTINUOUS
62
7
100
AcDbCircle
10
788.875376653986
20
106.781090000000
30
0.0
40
2.500000000000
100
AcDbArc
50
59.999995000000
51
149.510400000000
0
ARC
5
836
100
AcDbEntity
8
0-0
6
CONTINUOUS
62
7
100
AcDbCircle
10
737.370362653986
20
136.571793000000
30
0.0
40
3.000000000000
100
AcDbArc
50
150.000010000000
51
197.707040000000
0
ARC
5
837
100
AcDbEntity
8
0-0
6
CONTINUOUS
62
7
100
AcDbCircle
10
784.135736653986
20
109.571793000000
30
0.0
40
3.000000000000
100
AcDbArc
50
282.292960000000
51
330.000000000000
0
ARC
5
838
100
AcDbEntity
8
0-0
6
CONTINUOUS
62
7
100
AcDbCircle
10
758.979546653987
20
113.750000000000
30
0.0
40
3.250000000000
100
AcDbArc
50
180.000010000000
51
360.000000000000
0
ARC
5
839
100
AcDbEntity
8
0-0
6
CONTINUOUS
62
7
100
AcDbCircle
10
758.979546653987
20
126.250000000000
30
0.0
40
3.250000000000
100
AcDbArc
50
0.000000000000
51
180.000010000000
0
ARC
5
83a
100
AcDbEntity
8
0-0
6
CONTINUOUS
62
7
100
AcDbCircle
10
777.517296653986
20
124.308331000000
30
0.0
40
7.000000000000
100
AcDbArc
50
205.849710000000
51
240.000000000000
0
ARC
5
83b
100
AcDbEntity
8
0-0
6
CONTINUOUS
62
7
100
AcDbCircle
10
759.845574653986
20
119.500000000000
30
0.0
40
11.000000000000
100
AcDbArc
50
25.849696000000
51
59.999995000000
0
ARC
5
83c
100
AcDbEntity
8
0-0
6
CONTINUOUS
62
7
100
AcDbCircle
10
758.113518653986
20
120.500000000000
30
0.0
40
11.000000000000
100
AcDbArc
50
59.999995000000
51
94.150299000000
0
ARC
5
83d
100
AcDbEntity
8
0-0
6
CONTINUOUS
62
7
100
AcDbCircle
10
753.441796653986
20
138.208330000000
30
0.0
40
7.000000000000
100
AcDbArc
50
240.000000000000
51
274.150300000000
0
ARC
5
83e
100
AcDbEntity
8
0-0
6
CONTINUOUS
62
7
100
AcDbCircle
10
753.441796653986
20
138.208330000000
30
0.0
40
5.000000000000
100
AcDbArc
50
240.000000000000
51
274.150300000000
0
ARC
5
83f
100
AcDbEntity
8
0-0
6
CONTINUOUS
62
7
100
AcDbCircle
10
777.517296653986
20
124.308331000000
30
0.0
40
5.000000000000
100
AcDbArc
50
205.849710000000
51
240.000000000000
0
ARC
5
840
100
AcDbEntity
8
0-0
6
CONTINUOUS
62
7
100
AcDbCircle
10
758.113518653986
20
120.500000000000
30
0.0
40
13.000000000000
100
AcDbArc
50
59.999995000000
51
94.150299000000
0
ARC
5
841
100
AcDbEntity
8
0-0
6
CONTINUOUS
62
7
100
AcDbCircle
10
759.845574653986
20
119.500000000000
30
0.0
40
13.000000000000
100
AcDbArc
50
25.849696000000
51
59.999995000000
0
ARC
5
842
100
AcDbEntity
8
0-0
6
CONTINUOUS
62
7
100
AcDbCircle
10
760.233170653986
20
143.871342000000
30
0.0
40
27.000000000000
100
AcDbArc
50
197.707040000000
51
238.399720000000
0
ARC
5
843
100
AcDbEntity
8
0-0
6
CONTINUOUS
62
7
100
AcDbCircle
10
779.025917653986
20
133.021341000000
30
0.0
40
27.000000000000
100
AcDbArc
50
241.600280000000
51
282.292960000000
0
ARC
5
844
100
AcDbEntity
8
0-0
6
CONTINUOUS
62
7
100
AcDbCircle
10
764.279549653986
20
129.179869000000
30
0.0
40
20.000000000000
100
AcDbArc
50
204.535330000000
51
275.464660000000
0
ARC
5
845
100
AcDbEntity
8
0-0
6
CONTINUOUS
62
7
100
AcDbCircle
10
758.979546653987
20
120.000000000000
30
0.0
40
25.000000000000
100
AcDbArc
50
348.662930000000
51
396.964796000000
0
ARC
5
846
100
AcDbEntity
8
0-0
6
CONTINUOUS
62
7
100
AcDbCircle
10
758.979546653987
20
120.000000000000
30
0.0
40
25.000000000000
100
AcDbArc
50
153.972680000000
51
326.027330000000
0
ARC
5
847
100
AcDbEntity
8
0-0
6
CONTINUOUS
62
7
100
AcDbCircle
10
758.979546653987
20
120.000000000000
30
0.0
40
25.000000000000
100
AcDbArc
50
98.382605000000
51
131.337080000000
0
ARC
5
848
100
AcDbEntity
8
0-0
6
CONTINUOUS
62
7
100
AcDbCircle
10
790.444126653986
20
154.984503000000
30
0.0
40
1.984500000000
100
AcDbArc
50
328.918780000000
51
348.828190000000
0
ARC
5
849
100
AcDbEntity
8
0-0
6
CONTINUOUS
62
7
100
AcDbCircle
10
772.301888653986
20
154.984503000000
30
0.0
40
1.984500000000
100
AcDbArc
50
191.171790000000
51
211.081220000000
0
ARC
5
84a
100
AcDbEntity
8
0-0
6
CONTINUOUS
62
7
100
AcDbCircle
10
787.657206653986
20
154.984503000000
30
0.0
40
1.984500000000
100
AcDbArc
50
328.918780000000
51
348.828190000000
0
ARC
5
84b
100
AcDbEntity
8
0-0
6
CONTINUOUS
62
7
100
AcDbCircle
10
784.038296653986
20
154.984503000000
30
0.0
40
1.984500000000
100
AcDbArc
50
328.918780000000
51
348.828200000000
0
ARC
5
84c
100
AcDbEntity
8
0-0
6
CONTINUOUS
62
7
100
AcDbCircle
10
775.920800653986
20
154.984503000000
30
0.0
40
1.984500000000
100
AcDbArc
50
328.918780000000
51
348.828200000000
0
ARC
5
84d
100
AcDbEntity
8
0-0
6
CONTINUOUS
62
7
100
AcDbCircle
10
772.301888653986
20
154.984503000000
30
0.0
40
1.984500000000
100
AcDbArc
50
328.918780000000
51
335.754640000000
0
ARC
5
84e
100
AcDbEntity
8
0-0
6
CONTINUOUS
62
7
100
AcDbCircle
10
779.979546653987
20
154.984503000000
30
0.0
40
1.984500000000
100
AcDbArc
50
328.918780000000
51
348.828200000000
0
ARC
5
84f
100
AcDbEntity
8
0-0
6
CONTINUOUS
62
7
100
AcDbCircle
10
784.038296653986
20
154.984503000000
30
0.0
40
1.984500000000
100
AcDbArc
50
191.171780000000
51
211.081220000000
0
ARC
5
850
100
AcDbEntity
8
0-0
6
CONTINUOUS
62
7
100
AcDbCircle
10
796.279546653986
20
156.500003000000
30
0.0
40
0.300000000000
100
AcDbArc
50
197.003510000000
51
269.999960000000
0
ARC
5
851
100
AcDbEntity
8
0-0
6
CONTINUOUS
62
7
100
AcDbCircle
10
792.645656653986
20
155.388766000000
30
0.0
40
3.500000000000
100
AcDbArc
50
17.003496000000
51
71.096860000000
0
ARC
5
852
100
AcDbEntity
8
0-0
6
CONTINUOUS
62
7
100
AcDbCircle
10
787.657206653986
20
154.984503000000
30
0.0
40
1.984500000000
100
AcDbArc
50
204.245350000000
51
211.081220000000
0
ARC
5
853
100
AcDbEntity
8
0-0
6
CONTINUOUS
62
7
100
AcDbCircle
10
792.479546653987
20
154.984503000000
30
0.0
40
1.984500000000
100
AcDbArc
50
328.918780000000
51
348.828180000000
0
ARC
5
854
100
AcDbEntity
8
0-0
6
CONTINUOUS
62
7
100
AcDbCircle
10
792.097056653987
20
154.984503000000
30
0.0
40
1.984500000000
100
AcDbArc
50
328.918780000000
51
348.828190000000
0
ARC
5
855
100
AcDbEntity
8
0-0
6
CONTINUOUS
62
7
100
AcDbCircle
10
767.862038653986
20
154.984503000000
30
0.0
40
1.984500000000
100
AcDbArc
50
191.171790000000
51
211.081220000000
0
ARC
5
856
100
AcDbEntity
8
0-0
6
CONTINUOUS
62
7
100
AcDbCircle
10
769.514962653986
20
154.984503000000
30
0.0
40
1.984500000000
100
AcDbArc
50
191.171790000000
51
211.081220000000
0
ARC
5
857
100
AcDbEntity
8
0-0
6
CONTINUOUS
62
7
100
AcDbCircle
10
779.979546653987
20
154.984503000000
30
0.0
40
1.984500000000
100
AcDbArc
50
191.171780000000
51
211.081220000000
0
ARC
5
858
100
AcDbEntity
8
0-0
6
CONTINUOUS
62
7
100
AcDbCircle
10
767.479546653987
20
154.984503000000
30
0.0
40
1.984500000000
100
AcDbArc
50
191.171790000000
51
211.081220000000
0
ARC
5
859
100
AcDbEntity
8
0-0
6
CONTINUOUS
62
7
100
AcDbCircle
10
763.679543653986
20
156.500003000000
30
0.0
40
0.300000000000
100
AcDbArc
50
270.000020000000
51
342.996480000000
0
ARC
5
85a
100
AcDbEntity
8
0-0
6
CONTINUOUS
62
7
100
AcDbCircle
10
767.313439653986
20
155.388766000000
30
0.0
40
3.500000000000
100
AcDbArc
50
108.903100000000
51
162.996470000000
0
ARC
5
85b
100
AcDbEntity
8
0-0
6
CONTINUOUS
62
7
100
AcDbCircle
10
775.920800653986
20
154.984503000000
30
0.0
40
1.984500000000
100
AcDbArc
50
191.171780000000
51
211.081220000000
0
ARC
5
85c
100
AcDbEntity
8
0-0
6
CONTINUOUS
62
7
100
AcDbCircle
10
790.608786653986
20
137.419283000000
30
0.0
40
8.000000000000
100
AcDbArc
50
92.000032000000
51
143.325820000000
0
ARC
5
85d
100
AcDbEntity
8
0-0
6
CONTINUOUS
62
7
100
AcDbCircle
10
754.720765653986
20
147.720756000000
30
0.0
40
1.000000000000
100
AcDbArc
50
352.189580000000
51
370.000000000000
0
ARC
5
85e
100
AcDbEntity
8
0-0
6
CONTINUOUS
62
7
100
AcDbCircle
10
795.721976653986
20
150.960000000000
30
0.0
40
3.000000000000
100
AcDbArc
50
6.796802000000
51
89.999982000000
0
ARC
5
85f
100
AcDbEntity
8
0-0
6
CONTINUOUS
62
7
100
AcDbCircle
10
764.237114653987
20
150.960000000000
30
0.0
40
3.000000000000
100
AcDbArc
50
89.999982000000
51
152.248150000000
0
LINE
5
860
100
AcDbEntity
8
0-0
6
CONTINUOUS
62
7
100
AcDbLine
10
735.498780653986
20
139.330130000000
30
0.0
11
734.772278653986
21
138.071795000000
31
0.0
0
LINE
5
861
100
AcDbEntity
8
0-0
6
CONTINUOUS
62
7
100
AcDbLine
10
737.624207594659
20
161.000002000000
30
0.0
11
737.624207594659
21
158.700003000000
31
0.0
0
LINE
5
862
100
AcDbEntity
8
0-0
6
CONTINUOUS
62
7
100
AcDbLine
10
808.192467462781
20
161.000002000000
30
0.0
11
737.624207594659
21
161.000002000000
31
0.0
0
LINE
5
863
100
AcDbEntity
8
0-0
6
CONTINUOUS
62
7
100
AcDbLine
10
808.192467462781
20
158.700003000000
30
0.0
11
808.192467462781
21
161.000002000000
31
0.0
0
LINE
5
864
100
AcDbEntity
8
0-0
6
CONTINUOUS
62
7
100
AcDbLine
10
737.624207594659
20
158.700003000000
30
0.0
11
808.192467462781
21
158.700003000000
31
0.0
0
LINE
5
865
100
AcDbEntity
8
0-0
6
CONTINUOUS
62
7
100
AcDbLine
10
760.829544653986
20
150.926486000000
30
0.0
11
761.582200653986
21
152.356932000000
31
0.0
0
LINE
5
866
100
AcDbEntity
8
0-0
6
CONTINUOUS
62
7
100
AcDbLine
10
786.733806653986
20
108.071793000000
30
0.0
11
786.710306653986
21
108.031090000000
31
0.0
0
LINE
5
867
100
AcDbEntity
8
0-0
6
CONTINUOUS
62
7
100
AcDbLine
10
778.813439653987
20
109.456573000000
30
0.0
11
778.841904653986
21
111.856403000000
31
0.0
0
LINE
5
868
100
AcDbEntity
8
0-0
6
CONTINUOUS
62
7
100
AcDbLine
10
777.442009653986
20
111.873009000000
30
0.0
11
777.413544653986
21
109.473175000000
31
0.0
0
LINE
5
869
100
AcDbEntity
8
0-0
6
CONTINUOUS
62
7
100
AcDbLine
10
773.941208653986
20
109.514359000000
30
0.0
11
773.969674653986
21
111.914192000000
31
0.0
0
LINE
5
86a
100
AcDbEntity
8
0-0
6
CONTINUOUS
62
7
100
AcDbLine
10
782.313202653986
20
109.415062000000
30
0.0
11
773.941208653986
21
109.514359000000
31
0.0
0
LINE
5
86b
100
AcDbEntity
8
0-0
6
CONTINUOUS
62
7
100
AcDbLine
10
782.341660653987
20
111.814896000000
30
0.0
11
782.313202653986
21
109.415062000000
31
0.0
0
LINE
5
86c
100
AcDbEntity
8
0-0
6
CONTINUOUS
62
7
100
AcDbLine
10
773.969674653986
20
111.914192000000
30
0.0
11
782.341660653987
21
111.814896000000
31
0.0
0
LINE
5
86d
100
AcDbEntity
8
0-0
6
CONTINUOUS
62
7
100
AcDbLine
10
794.589466653986
20
108.678204000000
30
0.0
11
775.017296653986
21
119.978203000000
31
0.0
0
LINE
5
86e
100
AcDbEntity
8
0-0
6
CONTINUOUS
62
7
100
AcDbLine
10
793.589466653986
20
106.946152000000
30
0.0
11
794.589466653986
21
108.678204000000
31
0.0
0
LINE
5
86f
100
AcDbEntity
8
0-0
6
CONTINUOUS
62
7
100
AcDbLine
10
774.017296653986
20
118.246151000000
30
0.0
11
793.589466653986
21
106.946152000000
31
0.0
0
LINE
5
870
100
AcDbEntity
8
0-0
6
CONTINUOUS
62
7
100
AcDbLine
10
767.340241653986
20
108.681149000000
30
0.0
11
773.187172653986
21
118.808331000000
31
0.0
0
LINE
5
871
100
AcDbEntity
8
0-0
6
CONTINUOUS
62
7
100
AcDbLine
10
762.229546653987
20
113.750000000000
30
0.0
11
762.229546653987
21
114.956440000000
31
0.0
0
LINE
5
872
100
AcDbEntity
8
0-0
6
CONTINUOUS
62
7
100
AcDbLine
10
755.729546653986
20
114.956440000000
30
0.0
11
755.729546653986
21
113.750000000000
31
0.0
0
LINE
5
873
100
AcDbEntity
8
0-0
6
CONTINUOUS
62
7
100
AcDbLine
10
755.729546653986
20
126.250000000000
30
0.0
11
755.729546653986
21
125.043560000000
31
0.0
0
LINE
5
874
100
AcDbEntity
8
0-0
6
CONTINUOUS
62
7
100
AcDbLine
10
729.763401653986
20
143.796154000000
30
0.0
11
749.941796653986
21
132.146151000000
31
0.0
0
LINE
5
875
100
AcDbEntity
8
0-0
6
CONTINUOUS
62
7
100
AcDbLine
10
730.763398653986
20
145.528203000000
30
0.0
11
729.763398653986
21
143.796152000000
31
0.0
0
LINE
5
876
100
AcDbEntity
8
0-0
6
CONTINUOUS
62
7
100
AcDbLine
10
750.941796653986
20
133.878201000000
30
0.0
11
730.763401653986
21
145.528205000000
31
0.0
0
LINE
5
877
100
AcDbEntity
8
0-0
6
CONTINUOUS
62
7
100
AcDbLine
10
752.814042653986
20
133.721022000000
30
0.0
11
752.562973653986
21
133.286167000000
31
0.0
0
LINE
5
878
100
AcDbEntity
8
0-0
6
CONTINUOUS
62
7
100
AcDbLine
10
749.176735653987
20
135.821020000000
30
0.0
11
752.814042653986
21
133.721022000000
31
0.0
0
LINE
5
879
100
AcDbEntity
8
0-0
6
CONTINUOUS
62
7
100
AcDbLine
10
748.776734653986
20
135.128201000000
30
0.0
11
749.176735653987
21
135.821020000000
31
0.0
0
LINE
5
87a
100
AcDbEntity
8
0-0
6
CONTINUOUS
62
7
100
AcDbLine
10
746.176735653987
20
130.624868000000
30
0.0
11
747.776734653986
21
133.396151000000
31
0.0
0
LINE
5
87b
100
AcDbEntity
8
0-0
6
CONTINUOUS
62
7
100
AcDbLine
10
749.814034653986
20
128.524870000000
30
0.0
11
746.176735653987
21
130.624868000000
31
0.0
0
LINE
5
87c
100
AcDbEntity
8
0-0
6
CONTINUOUS
62
7
100
AcDbLine
10
751.518822653986
20
131.477640000000
30
0.0
11
749.814034653986
21
128.524870000000
31
0.0
0
LINE
5
87d
100
AcDbEntity
8
0-0
6
CONTINUOUS
62
7
100
AcDbLine
10
757.317414653986
20
131.471155000000
30
0.0
11
753.948403653986
21
131.226688000000
31
0.0
0
LINE
5
87e
100
AcDbEntity
8
0-0
6
CONTINUOUS
62
7
100
AcDbLine
10
753.803658653986
20
133.221441000000
30
0.0
11
757.172669653987
21
133.465908000000
31
0.0
0
LINE
5
87f
100
AcDbEntity
8
0-0
6
CONTINUOUS
62
7
100
AcDbLine
10
755.711487653986
20
147.584860000000
30
0.0
11
753.740654653986
21
133.216871000000
31
0.0
0
LINE
5
880
100
AcDbEntity
8
0-0
6
CONTINUOUS
62
7
100
AcDbLine
10
755.705574653986
20
147.894405000000
30
0.0
11
755.341561653986
21
149.958807000000
31
0.0
0
LINE
5
881
100
AcDbEntity
8
0-0
6
CONTINUOUS
62
7
100
AcDbLine
10
753.226838653986
20
147.555075000000
30
0.0
11
755.688858653986
21
147.989196000000
31
0.0
0
LINE
5
882
100
AcDbEntity
8
0-0
6
CONTINUOUS
62
7
100
AcDbLine
10
752.879548653986
20
149.524687000000
30
0.0
11
753.226838653986
21
147.555070000000
31
0.0
0
LINE
5
883
100
AcDbEntity
8
0-0
6
CONTINUOUS
62
7
100
AcDbLine
10
764.124482653986
20
151.507477000000
30
0.0
11
752.879532653986
21
149.524690000000
31
0.0
0
LINE
5
884
100
AcDbEntity
8
0-0
6
CONTINUOUS
62
7
100
AcDbLine
10
766.979546653987
20
130.367680000000
30
0.0
11
766.979546653987
21
150.240620000000
31
0.0
0
LINE
5
885
100
AcDbEntity
8
0-0
6
CONTINUOUS
62
7
100
AcDbLine
10
766.345566653986
20
130.758329000000
30
0.0
11
764.613518653986
21
131.758329000000
31
0.0
0
LINE
5
886
100
AcDbEntity
8
0-0
6
CONTINUOUS
62
7
100
AcDbLine
10
763.613518653986
20
130.026279000000
30
0.0
11
765.345566653986
21
129.026279000000
31
0.0
0
LINE
5
887
100
AcDbEntity
8
0-0
6
CONTINUOUS
62
7
100
AcDbLine
10
762.229546653987
20
125.043560000000
30
0.0
11
762.229546653987
21
126.250000000000
31
0.0
0
LINE
5
888
100
AcDbEntity
8
0-0
6
CONTINUOUS
62
7
100
AcDbLine
10
771.217713653986
20
121.256252000000
30
0.0
11
769.744919653986
21
124.296135000000
31
0.0
0
LINE
5
889
100
AcDbEntity
8
0-0
6
CONTINUOUS
62
7
100
AcDbLine
10
771.544800653986
20
125.168156000000
30
0.0
11
773.017594653986
21
122.128273000000
31
0.0
0
LINE
5
88a
100
AcDbEntity
8
0-0
6
CONTINUOUS
62
7
100
AcDbLine
10
784.179046653986
20
142.178553000000
30
0.0
11
771.561898653986
21
125.132874000000
31
0.0
0
LINE
5
88b
100
AcDbEntity
8
0-0
6
CONTINUOUS
62
7
100
AcDbLine
10
799.279546653986
20
145.726950000000
30
0.0
11
790.329586653986
21
145.414411000000
31
0.0
0
LINE
5
88c
100
AcDbEntity
8
0-0
6
CONTINUOUS
62
7
100
AcDbLine
10
799.279546653986
20
146.460068000000
30
0.0
11
799.279546653986
21
145.726950000000
31
0.0
0
LINE
5
88d
100
AcDbEntity
8
0-0
6
CONTINUOUS
62
7
100
AcDbLine
10
798.700906653986
20
151.315047000000
30
0.0
11
799.279546653986
21
146.460067000000
31
0.0
0
LINE
5
88e
100
AcDbEntity
8
0-0
6
CONTINUOUS
62
7
100
AcDbLine
10
764.237114653987
20
153.960000000000
30
0.0
11
795.721976653986
21
153.960000000000
31
0.0
0
LINE
5
88f
100
AcDbEntity
8
0-0
6
CONTINUOUS
62
7
100
AcDbLine
10
763.679543653986
20
154.600003000000
30
0.0
11
763.679543653986
21
156.200003000000
31
0.0
0
LINE
5
890
100
AcDbEntity
8
0-0
6
CONTINUOUS
62
7
100
AcDbLine
10
796.279546653986
20
154.600003000000
30
0.0
11
763.679543653986
21
154.600003000000
31
0.0
0
LINE
5
891
100
AcDbEntity
8
0-0
6
CONTINUOUS
62
7
100
AcDbLine
10
796.279546653986
20
156.200003000000
30
0.0
11
796.279546653986
21
154.600003000000
31
0.0
0
LINE
5
892
100
AcDbEntity
8
0-0
6
CONTINUOUS
62
7
100
AcDbLine
10
763.679543653986
20
156.200003000000
30
0.0
11
796.279546653986
21
156.200003000000
31
0.0
0
ARC
5
893
100
AcDbEntity
8
0-0
6
CONTINUOUS
62
7
100
AcDbCircle
10
787.528406653986
20
135.920528000000
30
0.0
40
2.500000000000
100
AcDbArc
50
113.000000000000
51
202.510400000000
0
ARC
5
894
100
AcDbEntity
8
0-0
6
CONTINUOUS
62
7
100
AcDbCircle
10
782.447258653986
20
133.814772000000
30
0.0
40
3.000000000000
100
AcDbArc
50
335.292960000000
51
383.000000000000
0
ARC
5
895
100
AcDbEntity
8
0-0
6
CONTINUOUS
62
7
100
AcDbCircle
10
763.971016653986
20
116.238655000000
30
0.0
40
3.250000000000
100
AcDbArc
50
233.000010000000
51
413.000000000000
0
ARC
5
896
100
AcDbEntity
8
0-0
6
CONTINUOUS
62
7
100
AcDbCircle
10
753.988076653986
20
123.761345000000
30
0.0
40
3.250000000000
100
AcDbArc
50
53.000000000000
51
232.999990000000
0
ARC
5
897
100
AcDbEntity
8
0-0
6
CONTINUOUS
62
7
100
AcDbCircle
10
766.695061653986
20
137.397726000000
30
0.0
40
7.000000000000
100
AcDbArc
50
258.849700000000
51
293.000000000000
0
ARC
5
898
100
AcDbEntity
8
0-0
6
CONTINUOUS
62
7
100
AcDbCircle
10
759.900048653986
20
120.390732000000
30
0.0
40
11.000000000000
100
AcDbArc
50
78.849698000000
51
113.000000000000
0
ARC
5
899
100
AcDbEntity
8
0-0
6
CONTINUOUS
62
7
100
AcDbCircle
10
758.059044653986
20
119.609268000000
30
0.0
40
11.000000000000
100
AcDbArc
50
113.000000000000
51
147.150310000000
0
ARC
5
89a
100
AcDbEntity
8
0-0
6
CONTINUOUS
62
7
100
AcDbCircle
10
741.105027653986
20
126.535400000000
30
0.0
40
7.000000000000
100
AcDbArc
50
293.000000000000
51
327.150300000000
0
ARC
5
89b
100
AcDbEntity
8
0-0
6
CONTINUOUS
62
7
100
AcDbCircle
10
741.105027653986
20
126.535400000000
30
0.0
40
5.000000000000
100
AcDbArc
50
293.000000000000
51
327.150300000000
0
ARC
5
89c
100
AcDbEntity
8
0-0
6
CONTINUOUS
62
7
100
AcDbCircle
10
766.695061653986
20
137.397726000000
30
0.0
40
5.000000000000
100
AcDbArc
50
258.849700000000
51
293.000000000000
0
ARC
5
89d
100
AcDbEntity
8
0-0
6
CONTINUOUS
62
7
100
AcDbCircle
10
758.059044653986
20
119.609268000000
30
0.0
40
13.000000000000
100
AcDbArc
50
113.000000000000
51
147.150310000000
0
ARC
5
89e
100
AcDbEntity
8
0-0
6
CONTINUOUS
62
7
100
AcDbCircle
10
759.900048653986
20
120.390732000000
30
0.0
40
13.000000000000
100
AcDbArc
50
78.849698000000
51
113.000000000000
0
ARC
5
89f
100
AcDbEntity
8
0-0
6
CONTINUOUS
62
7
100
AcDbCircle
10
740.669495653986
20
135.367321000000
30
0.0
40
27.000000000000
100
AcDbArc
50
250.707040000000
51
291.399720000000
0
ARC
5
8a0
100
AcDbEntity
8
0-0
6
CONTINUOUS
62
7
100
AcDbCircle
10
760.644448653986
20
143.846186000000
30
0.0
40
27.000000000000
100
AcDbArc
50
294.600280000000
51
335.292960000000
0
ARC
5
8a1
100
AcDbEntity
8
0-0
6
CONTINUOUS
62
7
100
AcDbCircle
10
754.837792653986
20
129.757351000000
30
0.0
40
20.000000000000
100
AcDbArc
50
257.535330000000
51
328.464660000000
0
LINE
5
8a2
100
AcDbEntity
8
0-0
6
CONTINUOUS
62
7
100
AcDbLine
10
775.283097653986
20
116.438572000000
30
0.0
11
770.926445653987
21
108.892632000000
31
0.0
0
LINE
5
8a3
100
AcDbEntity
8
0-0
6
CONTINUOUS
62
7
100
AcDbLine
10
752.979531653986
20
131.575829000000
30
0.0
11
754.820542653986
21
132.357290000000
31
0.0
0
LINE
5
8a4
100
AcDbEntity
8
0-0
6
CONTINUOUS
62
7
100
AcDbLine
10
755.602005653986
20
130.516281000000
30
0.0
11
753.760994653986
21
129.734819000000
31
0.0
0
LINE
5
8a5
100
AcDbEntity
8
0-0
6
CONTINUOUS
62
7
100
AcDbLine
10
755.943978653986
20
126.356903000000
30
0.0
11
756.907479653986
21
125.630852000000
31
0.0
0
LINE
5
8a6
100
AcDbEntity
8
0-0
6
CONTINUOUS
62
7
100
AcDbLine
10
752.032181653986
20
121.165775000000
30
0.0
11
752.995682653986
21
120.439724000000
31
0.0
0
LINE
5
8a7
100
AcDbEntity
8
0-0
6
CONTINUOUS
62
7
100
AcDbLine
10
742.789219653986
20
116.169426000000
30
0.0
11
741.538884653986
21
119.115036000000
31
0.0
0
LINE
5
8a8
100
AcDbEntity
8
0-0
6
CONTINUOUS
62
7
100
AcDbLine
10
746.655339653986
20
117.810493000000
30
0.0
11
742.789219653986
21
116.169426000000
31
0.0
0
LINE
5
8a9
100
AcDbEntity
8
0-0
6
CONTINUOUS
62
7
100
AcDbLine
10
745.323117653986
20
120.949013000000
30
0.0
11
746.655339653986
21
117.810493000000
31
0.0
0
LINE
5
8aa
100
AcDbEntity
8
0-0
6
CONTINUOUS
62
7
100
AcDbLine
10
748.817978653986
20
125.576077000000
30
0.0
11
746.985699653986
21
122.738342000000
31
0.0
0
LINE
5
8ab
100
AcDbEntity
8
0-0
6
CONTINUOUS
62
7
100
AcDbLine
10
745.305504653986
20
123.823215000000
30
0.0
11
747.137787653986
21
126.660950000000
31
0.0
0
LINE
5
8ac
100
AcDbEntity
8
0-0
6
CONTINUOUS
62
7
100
AcDbLine
10
744.310952653986
20
123.333523000000
30
0.0
11
744.507149653987
21
122.871311000000
31
0.0
0
LINE
5
8ad
100
AcDbEntity
8
0-0
6
CONTINUOUS
62
7
100
AcDbLine
10
740.444832653986
20
121.692455000000
30
0.0
11
744.310952653986
21
123.333523000000
31
0.0
0
LINE
5
8ae
100
AcDbEntity
8
0-0
6
CONTINUOUS
62
7
100
AcDbLine
10
740.757420653986
20
120.956047000000
30
0.0
11
740.444832653986
21
121.692455000000
31
0.0
0
LINE
5
8af
100
AcDbEntity
8
0-0
6
CONTINUOUS
62
7
100
AcDbLine
10
785.208776653986
20
134.986967000000
30
0.0
11
785.227136653986
21
134.943701000000
31
0.0
0
LINE
5
8b0
100
AcDbEntity
8
0-0
6
CONTINUOUS
62
7
100
AcDbLine
10
779.336235653986
20
129.494862000000
30
0.0
11
777.436776653987
21
130.961843000000
31
0.0
0
LINE
5
8b1
100
AcDbEntity
8
0-0
6
CONTINUOUS
62
7
100
AcDbLine
10
776.581032653986
20
129.853827000000
30
0.0
11
778.480492653986
21
128.386845000000
31
0.0
0
LINE
5
8b2
100
AcDbEntity
8
0-0
6
CONTINUOUS
62
7
100
AcDbLine
10
781.475586653986
20
132.264908000000
30
0.0
11
776.357903653987
21
125.638500000000
31
0.0
0
LINE
5
8b3
100
AcDbEntity
8
0-0
6
CONTINUOUS
62
7
100
AcDbLine
10
779.576134653986
20
133.731890000000
30
0.0
11
781.475586653986
21
132.264908000000
31
0.0
0
LINE
5
8b4
100
AcDbEntity
8
0-0
6
CONTINUOUS
62
7
100
AcDbLine
10
774.458443653986
20
127.105484000000
30
0.0
11
779.576134653986
21
133.731890000000
31
0.0
0
LINE
5
8b5
100
AcDbEntity
8
0-0
6
CONTINUOUS
62
7
100
AcDbLine
10
776.357903653987
20
125.638500000000
30
0.0
11
774.458443653986
21
127.105484000000
31
0.0
0
LINE
5
8b6
100
AcDbEntity
8
0-0
6
CONTINUOUS
62
7
100
AcDbLine
10
771.635544653986
20
130.877270000000
30
0.0
11
775.040101653986
21
122.856632000000
31
0.0
0
LINE
5
8b7
100
AcDbEntity
8
0-0
6
CONTINUOUS
62
7
100
AcDbLine
10
762.027268653986
20
131.183088000000
30
0.0
11
765.341370653987
21
130.529863000000
31
0.0
0
LINE
5
8b8
100
AcDbEntity
8
0-0
6
CONTINUOUS
62
7
100
AcDbLine
10
765.728142653986
20
132.492111000000
30
0.0
11
762.414032653986
21
133.145334000000
31
0.0
0
LINE
5
8b9
100
AcDbEntity
8
0-0
6
CONTINUOUS
62
7
100
AcDbLine
10
789.452126653986
20
141.625725000000
30
0.0
11
768.648713653986
21
132.795198000000
31
0.0
0
LINE
5
8ba
100
AcDbEntity
8
0-0
6
CONTINUOUS
62
7
100
AcDbLine
10
790.233586653986
20
139.784714000000
30
0.0
11
789.452126653986
21
141.625725000000
31
0.0
0
LINE
5
8bb
100
AcDbEntity
8
0-0
6
CONTINUOUS
62
7
100
AcDbLine
10
769.430176653986
20
130.954189000000
30
0.0
11
790.233586653986
21
139.784714000000
31
0.0
0
LINE
5
8bc
100
AcDbEntity
8
0-0
6
CONTINUOUS
62
7
100
AcDbLine
10
773.050774653986
20
119.865292000000
30
0.0
11
768.481614653986
21
130.629551000000
31
0.0
0
LINE
5
8bd
100
AcDbEntity
8
0-0
6
CONTINUOUS
62
7
100
AcDbLine
10
764.963410653986
20
119.560272000000
30
0.0
11
765.926918653986
21
118.834217000000
31
0.0
0
LINE
5
8be
100
AcDbEntity
8
0-0
6
CONTINUOUS
62
7
100
AcDbLine
10
761.051613653987
20
114.369141000000
30
0.0
11
762.015122653986
21
113.643085000000
31
0.0
0
LINE
5
8bf
100
AcDbEntity
8
0-0
6
CONTINUOUS
62
7
100
AcDbLine
10
722.355339079823
20
161.000002000000
30
0.0
11
722.355339079823
21
158.700003000000
31
0.0
0
LINE
5
8c0
100
AcDbEntity
8
0-0
6
CONTINUOUS
62
7
100
AcDbLine
10
651.787079211701
20
161.000002000000
30
0.0
11
722.355339079823
21
161.000002000000
31
0.0
0
LINE
5
8c1
100
AcDbEntity
8
0-0
6
CONTINUOUS
62
7
100
AcDbLine
10
651.787079211701
20
158.700003000000
30
0.0
11
651.787079211701
21
161.000002000000
31
0.0
0
LINE
5
8c2
100
AcDbEntity
8
0-0
6
CONTINUOUS
62
7
100
AcDbLine
10
722.355339079823
20
158.700003000000
30
0.0
11
651.787079211701
21
158.700003000000
31
0.0
0
ARC
5
8c3
100
AcDbEntity
8
0-0
6
CONTINUOUS
62
7
100
AcDbCircle
10
699.400002000000
20
116.500000000000
30
0.0
40
2.500000000000
100
AcDbArc
50
270.000000000000
51
360.000000000000
0
ARC
5
8c4
100
AcDbEntity
8
0-0
6
CONTINUOUS
62
7
100
AcDbCircle
10
699.400002000000
20
123.500000000000
30
0.0
40
2.500000000000
100
AcDbArc
50
0.000000000000
51
90.000000000000
0
ARC
5
8c5
100
AcDbEntity
8
0-0
6
CONTINUOUS
62
7
100
AcDbCircle
10
700.199986000000
20
107.947998000000
30
0.0
40
1.000000000000
100
AcDbArc
50
59.078746000000
51
180.000010000000
0
ARC
5
8c6
100
AcDbEntity
8
0-0
6
CONTINUOUS
62
7
100
AcDbCircle
10
695.499985000000
20
108.983383000000
30
0.0
40
0.500000000000
100
AcDbArc
50
179.999990000000
51
242.303450000000
0
ARC
5
8c7
100
AcDbEntity
8
0-0
6
CONTINUOUS
62
7
100
AcDbCircle
10
707.520676000000
20
120.169697000000
30
0.0
40
13.246488000000
100
AcDbArc
50
239.078750000000
51
307.070220000000
0
ARC
5
8c8
100
AcDbEntity
8
0-0
6
CONTINUOUS
62
7
100
AcDbCircle
10
696.199986000000
20
106.921822000000
30
0.0
40
1.000000000000
100
AcDbArc
50
0.000000000000
51
62.303456000000
0
ARC
5
8c9
100
AcDbEntity
8
0-0
6
CONTINUOUS
62
7
100
AcDbCircle
10
697.500000000000
20
108.983383000000
30
0.0
40
0.500000000000
100
AcDbArc
50
179.999990000000
51
242.303280000000
0
ARC
5
8ca
100
AcDbEntity
8
0-0
6
CONTINUOUS
62
7
100
AcDbCircle
10
694.326118000000
20
131.096153000000
30
0.0
40
3.000000000000
100
AcDbArc
50
90.000003000000
51
120.578070000000
0
ARC
5
8cb
100
AcDbEntity
8
0-0
6
CONTINUOUS
62
7
100
AcDbCircle
10
710.799999000000
20
125.263306000000
30
0.0
40
6.500000000000
100
AcDbArc
50
179.999990000000
51
237.363880000000
0
ARC
5
8cc
100
AcDbEntity
8
0-0
6
CONTINUOUS
62
7
100
AcDbCircle
10
698.199986000000
20
106.921822000000
30
0.0
40
1.000000000000
100
AcDbArc
50
0.000000000000
51
62.303292000000
0
ARC
5
8cd
100
AcDbEntity
8
0-0
6
CONTINUOUS
62
7
100
AcDbCircle
10
694.317513000000
20
132.821024000000
30
0.0
40
3.000000000000
100
AcDbArc
50
90.000003000000
51
129.730470000000
0
ARC
5
8ce
100
AcDbEntity
8
0-0
6
CONTINUOUS
62
7
100
AcDbCircle
10
704.693733000000
20
133.728207000000
30
0.0
40
11.800000000000
100
AcDbArc
50
47.139285000000
51
90.030349000000
0
ARC
5
8cf
100
AcDbEntity
8
0-0
6
CONTINUOUS
62
7
100
AcDbCircle
10
711.699986000000
20
141.278202000000
30
0.0
40
1.500000000000
100
AcDbArc
50
0.000000000000
51
47.139285000000
0
ARC
5
8d0
100
AcDbEntity
8
0-0
6
CONTINUOUS
62
7
100
AcDbCircle
10
711.699986000000
20
139.546152000000
30
0.0
40
1.500000000000
100
AcDbArc
50
317.101410000000
51
407.139285000000
0
ARC
5
8d1
100
AcDbEntity
8
0-0
6
CONTINUOUS
62
7
100
AcDbCircle
10
704.693733000000
20
131.996155000000
30
0.0
40
11.800000000000
100
AcDbArc
50
47.139285000000
51
90.030349000000
0
ARC
5
8d2
100
AcDbEntity
8
0-0
6
CONTINUOUS
62
7
100
AcDbCircle
10
705.464432000000
20
129.316319000000
30
0.0
40
14.500000000000
100
AcDbArc
50
93.022068000000
51
124.672730000000
0
ARC
5
8d3
100
AcDbEntity
8
0-0
6
CONTINUOUS
62
7
100
AcDbCircle
10
696.999985000000
20
140.830128000000
30
0.0
40
2.000000000000
100
AcDbArc
50
128.358340000000
51
180.000010000000
0
ARC
5
8d4
100
AcDbEntity
8
0-0
6
CONTINUOUS
62
7
100
AcDbCircle
10
697.500000000000
20
140.830128000000
30
0.0
40
0.500000000000
100
AcDbArc
50
124.672730000000
51
180.000010000000
0
ARC
5
8d5
100
AcDbEntity
8
0-0
6
CONTINUOUS
62
7
100
AcDbCircle
10
704.757210000000
20
131.028316000000
30
0.0
40
14.500000000000
100
AcDbArc
50
90.226109000000
51
128.358340000000
0
ARC
5
8d6
100
AcDbEntity
8
0-0
6
CONTINUOUS
62
7
100
AcDbCircle
10
697.000000000000
20
127.599998000000
30
0.0
40
1.900000000000
100
AcDbArc
50
0.000000000000
51
90.000003000000
0
ARC
5
8d7
100
AcDbEntity
8
0-0
6
CONTINUOUS
62
7
100
AcDbCircle
10
649.789760000000
20
120.936440000000
30
0.0
40
15.000000000000
100
AcDbArc
50
344.395130000000
51
375.804926000000
0
ARC
5
8d8
100
AcDbEntity
8
0-0
6
CONTINUOUS
62
7
100
AcDbCircle
10
673.424568000000
20
97.078773000000
30
0.0
40
30.000000000000
100
AcDbArc
50
99.641648000000
51
107.058780000000
0
ARC
5
8d9
100
AcDbEntity
8
0-0
6
CONTINUOUS
62
7
100
AcDbCircle
10
668.574760000000
20
165.516060000000
30
0.0
40
50.000000000000
100
AcDbArc
50
266.050760000000
51
269.799740000000
0
ARC
5
8da
100
AcDbEntity
8
0-0
6
CONTINUOUS
62
7
100
AcDbCircle
10
665.199997000000
20
116.632412000000
30
0.0
40
1.000000000000
100
AcDbArc
50
164.395130000000
51
266.050760000000
0
ARC
5
8db
100
AcDbEntity
8
0-0
6
CONTINUOUS
62
7
100
AcDbCircle
10
664.800003000000
20
125.185303000000
30
0.0
40
0.600000000000
100
AcDbArc
50
107.058780000000
51
195.804930000000
0
ARC
5
8dc
100
AcDbEntity
8
0-0
6
CONTINUOUS
62
7
100
AcDbCircle
10
669.000000000000
20
130.299999000000
30
0.0
40
2.000000000000
100
AcDbArc
50
105.605690000000
51
180.000010000000
0
ARC
5
8dd
100
AcDbEntity
8
0-0
6
CONTINUOUS
62
7
100
AcDbCircle
10
714.299984000000
20
112.928204000000
30
0.0
40
2.000000000000
100
AcDbArc
50
0.000000000000
51
57.363897000000
0
ARC
5
8de
100
AcDbEntity
8
0-0
6
CONTINUOUS
62
7
100
AcDbCircle
10
697.000000000000
20
112.400002000000
30
0.0
40
1.900000000000
100
AcDbArc
50
270.000000000000
51
360.000000000000
0
ARC
5
8df
100
AcDbEntity
8
0-0
6
CONTINUOUS
62
7
100
AcDbCircle
10
694.326118000000
20
128.996153000000
30
0.0
40
3.000000000000
100
AcDbArc
50
90.000003000000
51
120.578070000000
0
ARC
5
8e0
100
AcDbEntity
8
0-0
6
CONTINUOUS
62
7
100
AcDbCircle
10
714.299984000000
20
111.196152000000
30
0.0
40
2.000000000000
100
AcDbArc
50
307.070220000000
51
417.363897000000
0
ARC
5
8e1
100
AcDbEntity
8
0-0
6
CONTINUOUS
62
7
100
AcDbCircle
10
710.799999000000
20
123.531258000000
30
0.0
40
6.500000000000
100
AcDbArc
50
179.999990000000
51
237.363880000000
0
ARC
5
8e2
100
AcDbEntity
8
0-0
6
CONTINUOUS
62
7
100
AcDbCircle
10
666.150620000000
20
117.905098000000
30
0.0
40
3.000000000000
100
AcDbArc
50
207.928260000000
51
236.619150000000
0
ARC
5
8e3
100
AcDbEntity
8
0-0
6
CONTINUOUS
62
7
100
AcDbCircle
10
669.000000000000
20
109.700001000000
30
0.0
40
2.000000000000
100
AcDbArc
50
179.999990000000
51
254.394300000000
0
ARC
5
8e4
100
AcDbEntity
8
0-0
6
CONTINUOUS
62
7
100
AcDbCircle
10
666.150620000000
20
122.094910000000
30
0.0
40
3.000000000000
100
AcDbArc
50
126.649320000000
51
152.071770000000
0
ARC
5
8e5
100
AcDbEntity
8
0-0
6
CONTINUOUS
62
7
100
AcDbCircle
10
680.000000000000
20
95.000000000000
30
0.0
40
50.000000000000
100
AcDbArc
50
80.405929000000
51
99.594089000000
0
ARC
5
8e6
100
AcDbEntity
8
0-0
6
CONTINUOUS
62
7
100
AcDbCircle
10
672.000000000000
20
142.328640000000
30
0.0
40
2.000000000000
100
AcDbArc
50
99.594164000000
51
180.000020000000
0
ARC
5
8e7
100
AcDbEntity
8
0-0
6
CONTINUOUS
62
7
100
AcDbCircle
10
688.000000000000
20
142.328640000000
30
0.0
40
2.000000000000
100
AcDbArc
50
0.000000000000
51
80.405854000000
0
ARC
5
8e8
100
AcDbEntity
8
0-0
6
CONTINUOUS
62
7
100
AcDbCircle
10
691.000000000000
20
130.000000000000
30
0.0
40
1.000000000000
100
AcDbArc
50
0.000000000000
51
89.999982000000
0
ARC
5
8e9
100
AcDbEntity
8
0-0
6
CONTINUOUS
62
7
100
AcDbCircle
10
691.000000000000
20
110.000000000000
30
0.0
40
1.000000000000
100
AcDbArc
50
270.000020000000
51
360.000000000000
0
ARC
5
8ea
100
AcDbEntity
8
0-0
6
CONTINUOUS
62
7
100
AcDbCircle
10
680.000000000000
20
145.000000000000
30
0.0
40
50.000000000000
100
AcDbArc
50
260.405910000000
51
279.594070000000
0
ARC
5
8eb
100
AcDbEntity
8
0-0
6
CONTINUOUS
62
7
100
AcDbCircle
10
688.000000000000
20
97.671360000000
30
0.0
40
2.000000000000
100
AcDbArc
50
279.594150000000
51
360.000000000000
0
ARC
5
8ec
100
AcDbEntity
8
0-0
6
CONTINUOUS
62
7
100
AcDbCircle
10
672.000000000000
20
97.671360000000
30
0.0
40
2.000000000000
100
AcDbArc
50
179.999980000000
51
260.405830000000
0
ARC
5
8ed
100
AcDbEntity
8
0-0
6
CONTINUOUS
62
7
100
AcDbCircle
10
687.677658000000
20
154.984503000000
30
0.0
40
1.984500000000
100
AcDbArc
50
328.918780000000
51
348.828190000000
0
ARC
5
8ee
100
AcDbEntity
8
0-0
6
CONTINUOUS
62
7
100
AcDbCircle
10
684.058746000000
20
154.984503000000
30
0.0
40
1.984500000000
100
AcDbArc
50
328.918780000000
51
348.828200000000
0
ARC
5
8ef
100
AcDbEntity
8
0-0
6
CONTINUOUS
62
7
100
AcDbCircle
10
675.941254000000
20
154.984503000000
30
0.0
40
1.984500000000
100
AcDbArc
50
328.918780000000
51
348.828200000000
0
ARC
5
8f0
100
AcDbEntity
8
0-0
6
CONTINUOUS
62
7
100
AcDbCircle
10
672.322342000000
20
154.984503000000
30
0.0
40
1.984500000000
100
AcDbArc
50
328.918780000000
51
335.754640000000
0
ARC
5
8f1
100
AcDbEntity
8
0-0
6
CONTINUOUS
62
7
100
AcDbCircle
10
692.117508000000
20
154.984503000000
30
0.0
40
1.984500000000
100
AcDbArc
50
328.918780000000
51
348.828190000000
0
ARC
5
8f2
100
AcDbEntity
8
0-0
6
CONTINUOUS
62
7
100
AcDbCircle
10
690.464584000000
20
154.984503000000
30
0.0
40
1.984500000000
100
AcDbArc
50
328.918780000000
51
348.828190000000
0
ARC
5
8f3
100
AcDbEntity
8
0-0
6
CONTINUOUS
62
7
100
AcDbCircle
10
687.677658000000
20
154.984503000000
30
0.0
40
1.984500000000
100
AcDbArc
50
204.245350000000
51
211.081220000000
0
ARC
5
8f4
100
AcDbEntity
8
0-0
6
CONTINUOUS
62
7
100
AcDbCircle
10
684.058746000000
20
154.984503000000
30
0.0
40
1.984500000000
100
AcDbArc
50
191.171780000000
51
211.081220000000
0
ARC
5
8f5
100
AcDbEntity
8
0-0
6
CONTINUOUS
62
7
100
AcDbCircle
10
692.666107000000
20
155.388766000000
30
0.0
40
3.500000000000
100
AcDbArc
50
17.003496000000
51
71.096860000000
0
ARC
5
8f6
100
AcDbEntity
8
0-0
6
CONTINUOUS
62
7
100
AcDbCircle
10
696.299999000000
20
156.500003000000
30
0.0
40
0.300000000000
100
AcDbArc
50
197.003510000000
51
269.999960000000
0
ARC
5
8f7
100
AcDbEntity
8
0-0
6
CONTINUOUS
62
7
100
AcDbCircle
10
692.500000000000
20
154.984503000000
30
0.0
40
1.984500000000
100
AcDbArc
50
328.918780000000
51
348.828180000000
0
ARC
5
8f8
100
AcDbEntity
8
0-0
6
CONTINUOUS
62
7
100
AcDbCircle
10
680.000000000000
20
154.984503000000
30
0.0
40
1.984500000000
100
AcDbArc
50
328.918780000000
51
348.828200000000
0
ARC
5
8f9
100
AcDbEntity
8
0-0
6
CONTINUOUS
62
7
100
AcDbCircle
10
667.882492000000
20
154.984503000000
30
0.0
40
1.984500000000
100
AcDbArc
50
191.171790000000
51
211.081220000000
0
ARC
5
8fa
100
AcDbEntity
8
0-0
6
CONTINUOUS
62
7
100
AcDbCircle
10
669.535416000000
20
154.984503000000
30
0.0
40
1.984500000000
100
AcDbArc
50
191.171790000000
51
211.081220000000
0
ARC
5
8fb
100
AcDbEntity
8
0-0
6
CONTINUOUS
62
7
100
AcDbCircle
10
672.322342000000
20
154.984503000000
30
0.0
40
1.984500000000
100
AcDbArc
50
191.171790000000
51
211.081220000000
0
ARC
5
8fc
100
AcDbEntity
8
0-0
6
CONTINUOUS
62
7
100
AcDbCircle
10
675.941254000000
20
154.984503000000
30
0.0
40
1.984500000000
100
AcDbArc
50
191.171780000000
51
211.081220000000
0
ARC
5
8fd
100
AcDbEntity
8
0-0
6
CONTINUOUS
62
7
100
AcDbCircle
10
667.333893000000
20
155.388766000000
30
0.0
40
3.500000000000
100
AcDbArc
50
108.903100000000
51
162.996470000000
0
ARC
5
8fe
100
AcDbEntity
8
0-0
6
CONTINUOUS
62
7
100
AcDbCircle
10
663.699997000000
20
156.500003000000
30
0.0
40
0.300000000000
100
AcDbArc
50
270.000020000000
51
342.996480000000
0
ARC
5
8ff
100
AcDbEntity
8
0-0
6
CONTINUOUS
62
7
100
AcDbCircle
10
667.500000000000
20
154.984503000000
30
0.0
40
1.984500000000
100
AcDbArc
50
191.171790000000
51
211.081220000000
0
ARC
5
900
100
AcDbEntity
8
0-0
6
CONTINUOUS
62
7
100
AcDbCircle
10
680.000000000000
20
154.984503000000
30
0.0
40
1.984500000000
100
AcDbArc
50
191.171780000000
51
211.081220000000
0
ARC
5
901
100
AcDbEntity
8
0-0
6
CONTINUOUS
62
7
100
AcDbCircle
10
695.742432000000
20
150.960000000000
30
0.0
40
3.000000000000
100
AcDbArc
50
1.340848000000
51
89.999982000000
0
ARC
5
902
100
AcDbEntity
8
0-0
6
CONTINUOUS
62
7
100
AcDbCircle
10
693.000000000000
20
148.003365000000
30
0.0
40
2.000000000000
100
AcDbArc
50
359.999970000000
51
427.973571000000
0
ARC
5
903
100
AcDbEntity
8
0-0
6
CONTINUOUS
62
7
100
AcDbCircle
10
692.941002000000
20
137.096415000000
30
0.0
40
32.000000000000
100
AcDbArc
50
178.659120000000
51
204.299430000000
0
ARC
5
904
100
AcDbEntity
8
0-0
6
CONTINUOUS
62
7
100
AcDbCircle
10
680.000000000000
20
243.538254000000
30
0.0
40
92.611763000000
100
AcDbArc
50
261.461760000000
51
278.538220000000
0
ARC
5
905
100
AcDbEntity
8
0-0
6
CONTINUOUS
62
7
100
AcDbCircle
10
680.000000000000
20
433.802000000000
30
0.0
40
284.277340000000
100
AcDbArc
50
267.227590000000
51
272.772390000000
0
ARC
5
906
100
AcDbEntity
8
0-0
6
CONTINUOUS
62
7
100
AcDbCircle
10
667.000000000000
20
148.003365000000
30
0.0
40
2.000000000000
100
AcDbArc
50
112.026390000000
51
179.999990000000
0
ARC
5
907
100
AcDbEntity
8
0-0
6
CONTINUOUS
62
7
100
AcDbCircle
10
680.000000000000
20
336.271330000000
30
0.0
40
188.716250000000
100
AcDbArc
50
266.049950000000
51
273.950030000000
0
ARC
5
908
100
AcDbEntity
8
0-0
6
CONTINUOUS
62
7
100
AcDbCircle
10
664.257568000000
20
150.960000000000
30
0.0
40
3.000000000000
100
AcDbArc
50
89.999982000000
51
178.659120000000
0
LINE
5
909
100
AcDbEntity
8
0-0
6
CONTINUOUS
62
7
100
AcDbLine
10
668.723083000000
20
146.692452000000
30
0.0
11
668.170074000000
21
147.926233000000
31
0.0
0
LINE
5
90a
100
AcDbEntity
8
0-0
6
CONTINUOUS
62
7
100
AcDbLine
10
691.276909000000
20
146.692457000000
30
0.0
11
668.723091000000
21
146.692457000000
31
0.0
0
LINE
5
90b
100
AcDbEntity
8
0-0
6
CONTINUOUS
62
7
100
AcDbLine
10
713.199986000000
20
139.546152000000
30
0.0
11
713.199986000000
21
141.278202000000
31
0.0
0
LINE
5
90c
100
AcDbEntity
8
0-0
6
CONTINUOUS
62
7
100
AcDbLine
10
706.000000000000
20
131.208332000000
30
0.0
11
712.798820000000
21
138.525099000000
31
0.0
0
LINE
5
90d
100
AcDbEntity
8
0-0
6
CONTINUOUS
62
7
100
AcDbLine
10
691.000000000000
20
131.000000000000
30
0.0
11
690.000000000000
21
131.000000000000
31
0.0
0
LINE
5
90e
100
AcDbEntity
8
0-0
6
CONTINUOUS
62
7
100
AcDbLine
10
706.000000000000
20
131.208330000000
30
0.0
11
697.000000000000
21
131.208330000000
31
0.0
0
LINE
5
90f
100
AcDbEntity
8
0-0
6
CONTINUOUS
62
7
100
AcDbLine
10
704.299999000000
20
123.531258000000
30
0.0
11
704.299999000000
21
131.208330000000
31
0.0
0
LINE
5
910
100
AcDbEntity
8
0-0
6
CONTINUOUS
62
7
100
AcDbLine
10
715.378590000000
20
114.612431000000
30
0.0
11
707.294540000000
21
119.789577000000
31
0.0
0
LINE
5
911
100
AcDbEntity
8
0-0
6
CONTINUOUS
62
7
100
AcDbLine
10
716.299984000000
20
112.928204000000
30
0.0
11
716.299984000000
21
111.196152000000
31
0.0
0
LINE
5
912
100
AcDbEntity
8
0-0
6
CONTINUOUS
62
7
100
AcDbLine
10
707.294544000000
20
118.057526000000
30
0.0
11
715.378590000000
21
112.880383000000
31
0.0
0
LINE
5
913
100
AcDbEntity
8
0-0
6
CONTINUOUS
62
7
100
AcDbLine
10
697.199986000000
20
106.021339000000
30
0.0
11
699.199986000000
21
106.021339000000
31
0.0
0
LINE
5
914
100
AcDbEntity
8
0-0
6
CONTINUOUS
62
7
100
AcDbLine
10
697.199986000000
20
106.921822000000
30
0.0
11
697.199986000000
21
106.021339000000
31
0.0
0
LINE
5
915
100
AcDbEntity
8
0-0
6
CONTINUOUS
62
7
100
AcDbLine
10
691.000000000000
20
109.000000000000
30
0.0
11
690.000000000000
21
109.000000000000
31
0.0
0
LINE
5
916
100
AcDbEntity
8
0-0
6
CONTINUOUS
62
7
100
AcDbLine
10
692.000000000000
20
130.000000000000
30
0.0
11
692.000000000000
21
110.000000000000
31
0.0
0
LINE
5
917
100
AcDbEntity
8
0-0
6
CONTINUOUS
62
7
100
AcDbLine
10
692.000000000000
20
123.250000000000
30
0.0
11
693.000000000000
21
123.250000000000
31
0.0
0
LINE
5
918
100
AcDbEntity
8
0-0
6
CONTINUOUS
62
7
100
AcDbLine
10
693.000000000000
20
116.750000000000
30
0.0
11
692.000000000000
21
116.750000000000
31
0.0
0
LINE
5
919
100
AcDbEntity
8
0-0
6
CONTINUOUS
62
7
100
AcDbLine
10
698.187500000000
20
116.750000000000
30
0.0
11
698.900002000000
21
116.750000000000
31
0.0
0
LINE
5
91a
100
AcDbEntity
8
0-0
6
CONTINUOUS
62
7
100
AcDbLine
10
698.900002000000
20
116.299999000000
30
0.0
11
697.000000000000
21
117.500000000000
31
0.0
0
LINE
5
91b
100
AcDbEntity
8
0-0
6
CONTINUOUS
62
7
100
AcDbLine
10
701.900002000000
20
123.500000000000
30
0.0
11
701.900002000000
21
116.500000000000
31
0.0
0
LINE
5
91c
100
AcDbEntity
8
0-0
6
CONTINUOUS
62
7
100
AcDbLine
10
698.187500000000
20
123.250000000000
30
0.0
11
698.900002000000
21
123.250000000000
31
0.0
0
LINE
5
91d
100
AcDbEntity
8
0-0
6
CONTINUOUS
62
7
100
AcDbLine
10
698.899998000000
20
123.700001000000
30
0.0
11
697.000004000000
21
122.500000000000
31
0.0
0
LINE
5
91e
100
AcDbEntity
8
0-0
6
CONTINUOUS
62
7
100
AcDbLine
10
698.900002000000
20
126.000000000000
30
0.0
11
699.400002000000
21
126.000000000000
31
0.0
0
LINE
5
91f
100
AcDbEntity
8
0-0
6
CONTINUOUS
62
7
100
AcDbLine
10
698.900002000000
20
112.400002000000
30
0.0
11
698.900002000000
21
127.599998000000
31
0.0
0
LINE
5
920
100
AcDbEntity
8
0-0
6
CONTINUOUS
62
7
100
AcDbLine
10
699.400002000000
20
114.000000000000
30
0.0
11
698.900002000000
21
114.000000000000
31
0.0
0
LINE
5
921
100
AcDbEntity
8
0-0
6
CONTINUOUS
62
7
100
AcDbLine
10
699.199986000000
20
106.021339000000
30
0.0
11
699.199986000000
21
114.000000000000
31
0.0
0
LINE
5
922
100
AcDbEntity
8
0-0
6
CONTINUOUS
62
7
100
AcDbLine
10
697.267605000000
20
108.540676000000
30
0.0
11
698.664776000000
21
107.807247000000
31
0.0
0
LINE
5
923
100
AcDbEntity
8
0-0
6
CONTINUOUS
62
7
100
AcDbLine
10
695.267586000000
20
108.540672000000
30
0.0
11
696.664776000000
21
107.807243000000
31
0.0
0
LINE
5
924
100
AcDbEntity
8
0-0
6
CONTINUOUS
62
7
100
AcDbLine
10
694.999985000000
20
148.003365000000
30
0.0
11
694.999985000000
21
108.983383000000
31
0.0
0
LINE
5
925
100
AcDbEntity
8
0-0
6
CONTINUOUS
62
7
100
AcDbLine
10
698.899326000000
20
144.292374000000
30
0.0
11
698.741611000000
21
151.030203000000
31
0.0
0
LINE
5
926
100
AcDbEntity
8
0-0
6
CONTINUOUS
62
7
100
AcDbLine
10
697.000000000000
20
108.983383000000
30
0.0
11
697.000000000000
21
140.830128000000
31
0.0
0
LINE
5
927
100
AcDbEntity
8
0-0
6
CONTINUOUS
62
7
100
AcDbLine
10
694.999985000000
20
109.179871000000
30
0.0
11
697.000000000000
21
109.179871000000
31
0.0
0
LINE
5
928
100
AcDbEntity
8
0-0
6
CONTINUOUS
62
7
100
AcDbLine
10
694.499985000000
20
109.415062000000
30
0.0
11
694.999985000000
21
109.415062000000
31
0.0
0
LINE
5
929
100
AcDbEntity
8
0-0
6
CONTINUOUS
62
7
100
AcDbLine
10
694.499985000000
20
111.914192000000
30
0.0
11
694.499985000000
21
109.415062000000
31
0.0
0
LINE
5
92a
100
AcDbEntity
8
0-0
6
CONTINUOUS
62
7
100
AcDbLine
10
694.999985000000
20
111.914192000000
30
0.0
11
694.499985000000
21
111.914192000000
31
0.0
0
LINE
5
92b
100
AcDbEntity
8
0-0
6
CONTINUOUS
62
7
100
AcDbLine
10
692.999985000000
20
113.051895000000
30
0.0
11
694.999985000000
21
113.051895000000
31
0.0
0
LINE
5
92c
100
AcDbEntity
8
0-0
6
CONTINUOUS
62
7
100
AcDbLine
10
693.000000000000
20
131.687140000000
30
0.0
11
693.000000000000
21
113.051891000000
31
0.0
0
LINE
5
92d
100
AcDbEntity
8
0-0
6
CONTINUOUS
62
7
100
AcDbLine
10
694.326118000000
20
131.996153000000
30
0.0
11
694.999985000000
21
131.996153000000
31
0.0
0
LINE
5
92e
100
AcDbEntity
8
0-0
6
CONTINUOUS
62
7
100
AcDbLine
10
694.999985000000
20
134.096153000000
30
0.0
11
694.326118000000
21
134.096153000000
31
0.0
0
LINE
5
92f
100
AcDbEntity
8
0-0
6
CONTINUOUS
62
7
100
AcDbLine
10
694.317513000000
20
135.821024000000
30
0.0
11
694.999985000000
21
135.821024000000
31
0.0
0
LINE
5
930
100
AcDbEntity
8
0-0
6
CONTINUOUS
62
7
100
AcDbLine
10
692.799988000000
20
133.678963000000
30
0.0
11
692.399986000000
21
135.128202000000
31
0.0
0
LINE
5
931
100
AcDbEntity
8
0-0
6
CONTINUOUS
62
7
100
AcDbLine
10
692.799988000000
20
131.578964000000
30
0.0
11
692.799988000000
21
133.678963000000
31
0.0
0
LINE
5
932
100
AcDbEntity
8
0-0
6
CONTINUOUS
62
7
100
AcDbLine
10
692.399986000000
20
133.028204000000
30
0.0
11
692.799980000000
21
131.578962000000
31
0.0
0
LINE
5
933
100
AcDbEntity
8
0-0
6
CONTINUOUS
62
7
100
AcDbLine
10
692.399986000000
20
135.128204000000
30
0.0
11
692.399986000000
21
133.028204000000
31
0.0
0
LINE
5
934
100
AcDbEntity
8
0-0
6
CONTINUOUS
62
7
100
AcDbLine
10
693.000000000000
20
148.003366000000
30
0.0
11
693.000000000000
21
135.516233000000
31
0.0
0
LINE
5
935
100
AcDbEntity
8
0-0
6
CONTINUOUS
62
7
100
AcDbLine
10
691.276894000000
20
146.692459000000
30
0.0
11
691.829903000000
21
147.926241000000
31
0.0
0
LINE
5
936
100
AcDbEntity
8
0-0
6
CONTINUOUS
62
7
100
AcDbLine
10
690.000000000000
20
97.671360000000
30
0.0
11
690.000000000000
21
142.328640000000
31
0.0
0
LINE
5
937
100
AcDbEntity
8
0-0
6
CONTINUOUS
62
7
100
AcDbLine
10
670.000000000000
20
142.328640000000
30
0.0
11
670.000000000000
21
97.671360000000
31
0.0
0
LINE
5
938
100
AcDbEntity
8
0-0
6
CONTINUOUS
62
7
100
AcDbLine
10
668.461967000000
20
132.226273000000
30
0.0
11
669.799995000000
21
132.600000000000
31
0.0
0
LINE
5
939
100
AcDbEntity
8
0-0
6
CONTINUOUS
62
7
100
AcDbLine
10
667.000000000000
20
148.003366000000
30
0.0
11
667.000000000000
21
126.382782000000
31
0.0
0
LINE
5
93a
100
AcDbEntity
8
0-0
6
CONTINUOUS
62
7
100
AcDbLine
10
665.000015000000
20
125.871601000000
30
0.0
11
665.000015000000
21
148.003365000000
31
0.0
0
LINE
5
93b
100
AcDbEntity
8
0-0
6
CONTINUOUS
62
7
100
AcDbLine
10
664.500015000000
20
123.870468000000
30
0.0
11
664.500015000000
21
118.002411000000
31
0.0
0
LINE
5
93c
100
AcDbEntity
8
0-0
6
CONTINUOUS
62
7
100
AcDbLine
10
663.500015000000
20
116.500000000000
30
0.0
11
663.500015000000
21
123.500000000000
31
0.0
0
LINE
5
93d
100
AcDbEntity
8
0-0
6
CONTINUOUS
62
7
100
AcDbLine
10
664.647675000000
20
115.798775000000
30
0.0
11
664.499985000000
21
115.400017000000
31
0.0
0
LINE
5
93e
100
AcDbEntity
8
0-0
6
CONTINUOUS
62
7
100
AcDbLine
10
664.500015000000
20
115.400002000000
30
0.0
11
664.500015000000
21
115.918251000000
31
0.0
0
LINE
5
93f
100
AcDbEntity
8
0-0
6
CONTINUOUS
62
7
100
AcDbLine
10
665.000015000000
20
113.051895000000
30
0.0
11
667.000015000000
21
113.051895000000
31
0.0
0
LINE
5
940
100
AcDbEntity
8
0-0
6
CONTINUOUS
62
7
100
AcDbLine
10
665.000015000000
20
115.644012000000
30
0.0
11
665.000015000000
21
113.051895000000
31
0.0
0
LINE
5
941
100
AcDbEntity
8
0-0
6
CONTINUOUS
62
7
100
AcDbLine
10
667.000000000000
20
109.700001000000
30
0.0
11
667.000000000000
21
115.540863000000
31
0.0
0
LINE
5
942
100
AcDbEntity
8
0-0
6
CONTINUOUS
62
7
100
AcDbLine
10
669.800003000000
20
107.399998000000
30
0.0
11
668.461975000000
21
107.773724000000
31
0.0
0
LINE
5
943
100
AcDbEntity
8
0-0
6
CONTINUOUS
62
7
100
AcDbLine
10
669.800003000000
20
104.000000000000
30
0.0
11
670.000000000000
21
104.000000000000
31
0.0
0
LINE
5
944
100
AcDbEntity
8
0-0
6
CONTINUOUS
62
7
100
AcDbLine
10
669.800003000000
20
136.000000000000
30
0.0
11
669.800003000000
21
104.000000000000
31
0.0
0
LINE
5
945
100
AcDbEntity
8
0-0
6
CONTINUOUS
62
7
100
AcDbLine
10
669.800003000000
20
136.000000000000
30
0.0
11
670.000000000000
21
136.000000000000
31
0.0
0
LINE
5
946
100
AcDbEntity
8
0-0
6
CONTINUOUS
62
7
100
AcDbLine
10
661.258385000000
20
151.030202000000
30
0.0
11
660.949760000000
21
137.845245000000
31
0.0
0
LINE
5
947
100
AcDbEntity
8
0-0
6
CONTINUOUS
62
7
100
AcDbLine
10
695.742432000000
20
153.960000000000
30
0.0
11
664.257568000000
21
153.960000000000
31
0.0
0
LINE
5
948
100
AcDbEntity
8
0-0
6
CONTINUOUS
62
7
100
AcDbLine
10
663.699997000000
20
156.200003000000
30
0.0
11
696.299999000000
21
156.200003000000
31
0.0
0
LINE
5
949
100
AcDbEntity
8
0-0
6
CONTINUOUS
62
7
100
AcDbLine
10
663.699997000000
20
154.600003000000
30
0.0
11
663.699997000000
21
156.200003000000
31
0.0
0
LINE
5
94a
100
AcDbEntity
8
0-0
6
CONTINUOUS
62
7
100
AcDbLine
10
696.299999000000
20
154.600003000000
30
0.0
11
663.699997000000
21
154.600003000000
31
0.0
0
LINE
5
94b
100
AcDbEntity
8
0-0
6
CONTINUOUS
62
7
100
AcDbLine
10
696.299999000000
20
156.200003000000
30
0.0
11
696.299999000000
21
154.600003000000
31
0.0
0
LINE
5
94c
100
AcDbEntity
8
0-0
6
CONTINUOUS
62
7
100
AcDbLine
10
710.936375305060
20
32.995896728808
30
0.0
11
720.305086527633
21
23.627185506235
31
0.0
0
LINE
5
94d
100
AcDbEntity
8
0-0
6
CONTINUOUS
62
7
100
AcDbLine
10
663.736544032709
20
80.195728001159
30
0.0
11
669.800003000000
21
74.132269033868
31
0.0
0
CIRCLE
5
94e
100
AcDbEntity
8
0-0
6
CONTINUOUS
62
7
100
AcDbCircle
10
715.355339059327
20
18.677438037929
30
0.0
40
2.600000000000
0
ARC
5
94f
100
AcDbEntity
8
0-0
6
CONTINUOUS
62
7
100
AcDbCircle
10
715.355339059327
20
18.677438037929
30
0.0
40
7.000000000000
100
AcDbArc
50
269.485131000000
51
405.000010000000
0
LINE
5
950
100
AcDbEntity
8
0-0
6
CONTINUOUS
62
7
100
AcDbLine
10
715.292436961393
20
11.677720835820
30
0.0
11
686.342743584603
21
11.937874613006
31
0.0
0
ARC
5
951
100
AcDbEntity
8
0-0
6
CONTINUOUS
62
7
100
AcDbCircle
10
686.396659769561
20
17.937632517860
30
0.0
40
6.000000000000
100
AcDbArc
50
225.000000000000
51
269.485131000000
0
LINE
5
952
100
AcDbEntity
8
0-0
6
CONTINUOUS
62
7
100
AcDbLine
10
682.154019082442
20
13.694991830741
30
0.0
11
674.440221788288
21
21.408789124895
31
0.0
0
ARC
5
953
100
AcDbEntity
8
0-0
6
CONTINUOUS
62
7
100
AcDbCircle
10
687.071067811866
20
18.677438037929
30
0.0
40
2.600000000000
100
AcDbArc
50
43.816584468067
51
346.119249302767
0
LINE
5
954
100
AcDbEntity
8
0-0
6
CONTINUOUS
62
7
100
AcDbLine
10
661.518147651370
20
34.330863261813
30
0.0
11
653.804349650108
21
42.044661263074
31
0.0
0
CIRCLE
5
955
100
AcDbEntity
8
0-0
6
CONTINUOUS
62
7
100
AcDbCircle
10
658.786796564404
20
46.961709285391
30
0.0
40
2.600000000000
0
ARC
5
956
100
AcDbEntity
8
0-0
6
CONTINUOUS
62
7
100
AcDbCircle
10
658.046990337228
20
46.287301950194
30
0.0
40
6.000000000000
100
AcDbArc
50
180.514869000000
51
225.000000000000
0
ARC
5
957
100
AcDbEntity
8
0-0
6
CONTINUOUS
62
7
100
AcDbCircle
10
658.786796564403
20
75.245980532853
30
0.0
40
7.000000000000
100
AcDbArc
50
44.999990000000
51
180.514869000000
0
CIRCLE
5
958
100
AcDbEntity
8
0-0
6
CONTINUOUS
62
7
100
AcDbCircle
10
658.786796564403
20
75.245980532853
30
0.0
40
2.600000000000
0
LINE
5
959
100
AcDbEntity
8
0-0
6
CONTINUOUS
62
7
100
AcDbLine
10
652.047232432374
20
46.233385765235
30
0.0
11
651.787079362294
21
75.183078434919
31
0.0
0
ARC
5
95a
100
AcDbEntity
8
0-0
6
CONTINUOUS
62
7
100
AcDbCircle
10
695.999992240937
20
75.669490342537
30
0.0
40
5.308056483220
100
AcDbArc
50
80.048727729321
51
100.859088407182
0
ARC
5
95b
100
AcDbEntity
8
0-0
6
CONTINUOUS
62
7
100
AcDbCircle
10
680.000000000000
20
39.890641473526
30
0.0
40
19.300000000000
100
AcDbArc
50
141.005038085477
51
342.900544768734
0
ARC
5
95c
100
AcDbEntity
8
0-0
6
CONTINUOUS
62
7
100
AcDbCircle
10
705.208825000000
20
38.900935473525
30
0.0
40
8.226440000000
100
AcDbArc
50
193.207605598694
51
346.263878000000
0
ARC
5
95d
100
AcDbEntity
8
0-0
6
CONTINUOUS
62
7
100
AcDbCircle
10
708.299999000000
20
65.351335473526
30
0.0
40
4.000000000000
100
AcDbArc
50
149.859457000000
51
180.000000000000
0
ARC
5
95e
100
AcDbEntity
8
0-0
6
CONTINUOUS
62
7
100
AcDbCircle
10
666.150619264293
20
62.985550085672
30
0.0
40
3.000000000000
100
AcDbArc
50
123.380850000000
51
152.071740000000
0
ARC
5
95f
100
AcDbEntity
8
0-0
6
CONTINUOUS
62
7
100
AcDbCircle
10
691.000000000000
20
51.390641473525
30
0.0
40
1.000000000000
100
AcDbArc
50
270.000000000000
51
360.000000000000
0
ARC
5
960
100
AcDbEntity
8
0-0
6
CONTINUOUS
62
7
100
AcDbCircle
10
709.199986000000
20
82.833722473526
30
0.0
40
4.000000000000
100
AcDbArc
50
329.859457000000
51
360.000000000000
0
ARC
5
961
100
AcDbEntity
8
0-0
6
CONTINUOUS
62
7
100
AcDbCircle
10
691.000000000000
20
70.390641473526
30
0.0
40
1.000000000000
100
AcDbArc
50
0.000000000000
51
90.000000000000
0
ARC
5
962
100
AcDbEntity
8
0-0
6
CONTINUOUS
62
7
100
AcDbCircle
10
688.000000000000
20
83.226296473526
30
0.0
40
2.000000000000
100
AcDbArc
50
0.000000000000
51
80.505760000000
0
ARC
5
963
100
AcDbEntity
8
0-0
6
CONTINUOUS
62
7
100
AcDbCircle
10
672.000000000000
20
83.226296473526
30
0.0
40
2.000000000000
100
AcDbArc
50
99.494240000000
51
180.000010000000
0
ARC
5
964
100
AcDbEntity
8
0-0
6
CONTINUOUS
62
7
100
AcDbCircle
10
680.000000000000
20
35.390639473526
30
0.0
40
50.500000000000
100
AcDbArc
50
80.505760000000
51
99.494240000000
0
ARC
5
965
100
AcDbEntity
8
0-0
6
CONTINUOUS
62
7
100
AcDbCircle
10
680.000000000000
20
86.390643473525
30
0.0
40
50.500000000000
100
AcDbArc
50
260.505760000000
51
279.494240000000
0
ARC
5
966
100
AcDbEntity
8
0-0
6
CONTINUOUS
62
7
100
AcDbCircle
10
688.000000000000
20
38.554986473525
30
0.0
40
2.000000000000
100
AcDbArc
50
279.494240000000
51
360.000000000000
0
ARC
5
967
100
AcDbEntity
8
0-0
6
CONTINUOUS
62
7
100
AcDbCircle
10
672.000000000000
20
38.554986473525
30
0.0
40
2.000000000000
100
AcDbArc
50
180.000000000000
51
260.505760000000
0
ARC
5
968
100
AcDbEntity
8
0-0
6
CONTINUOUS
62
7
100
AcDbCircle
10
708.299999000000
20
56.429947473525
30
0.0
40
4.000000000000
100
AcDbArc
50
180.000000000000
51
210.140543000000
0
ARC
5
969
100
AcDbEntity
8
0-0
6
CONTINUOUS
62
7
100
AcDbCircle
10
709.199986000000
20
38.947560473525
30
0.0
40
4.000000000000
100
AcDbArc
50
0.000000000000
51
30.140543000000
0
ARC
5
96a
100
AcDbEntity
8
0-0
6
CONTINUOUS
62
7
100
AcDbCircle
10
669.000000000000
20
50.590642473526
30
0.0
40
2.000000000000
100
AcDbArc
50
179.999990000000
51
254.394300000000
0
ARC
5
96b
100
AcDbEntity
8
0-0
6
CONTINUOUS
62
7
100
AcDbCircle
10
669.000000000000
20
71.190640473525
30
0.0
40
2.000000000000
100
AcDbArc
50
105.605690000000
51
180.000010000000
0
ARC
5
96c
100
AcDbEntity
8
0-0
6
CONTINUOUS
62
7
100
AcDbCircle
10
666.150620000000
20
58.795835472510
30
0.0
40
3.000000000000
100
AcDbArc
50
207.928260000000
51
236.619150000000
0
ARC
5
96d
100
AcDbEntity
8
0-0
6
CONTINUOUS
62
7
100
AcDbCircle
10
699.400001999999
20
64.390641473526
30
0.0
40
2.500000000000
100
AcDbArc
50
0.000000000000
51
90.000000000000
0
ARC
5
96e
100
AcDbEntity
8
0-0
6
CONTINUOUS
62
7
100
AcDbCircle
10
699.400001999999
20
57.390641473526
30
0.0
40
2.500000000000
100
AcDbArc
50
270.000000000000
51
360.000000000000
0
ARC
5
96f
100
AcDbEntity
8
0-0
6
CONTINUOUS
62
7
100
AcDbCircle
10
705.208825000000
20
39.900934473525
30
0.0
40
8.226440000000
100
AcDbArc
50
223.077541016284
51
346.263878000000
0
ARC
5
970
100
AcDbEntity
8
0-0
6
CONTINUOUS
62
7
100
AcDbCircle
10
696.999999481872
20
60.890641473526
30
0.0
40
1.900002518128
100
AcDbArc
50
270.000000000000
51
450.000000000000
0
ARC
5
971
100
AcDbEntity
8
0-0
6
CONTINUOUS
62
7
100
AcDbCircle
10
680.000000000000
20
39.890641473526
30
0.0
40
19.300000000000
100
AcDbArc
50
26.976710939114
51
29.458345846155
0
ARC
5
972
100
AcDbEntity
8
0-0
6
CONTINUOUS
62
7
100
AcDbCircle
10
704.428555870207
20
78.793377701033
30
0.0
40
9.657244555382
100
AcDbArc
50
24.732004757483
51
167.506623548332
0
ARC
5
973
100
AcDbEntity
8
0-0
6
CONTINUOUS
62
7
100
AcDbCircle
10
695.499985000000
20
50.729714120948
30
0.0
40
0.500000000000
100
AcDbArc
50
180.000000000000
51
239.537148218919
0
ARC
5
974
100
AcDbEntity
8
0-0
6
CONTINUOUS
62
7
100
AcDbCircle
10
696.699986000000
20
48.863757827804
30
0.0
40
0.500000000000
100
AcDbArc
50
0.000000000000
51
59.537148218918
0
ARC
5
975
100
AcDbEntity
8
0-0
6
CONTINUOUS
62
7
100
AcDbCircle
10
697.499999481872
20
51.385070456884
30
0.0
40
0.500000000000
100
AcDbArc
50
180.000000000000
51
239.537148218917
0
ARC
5
976
100
AcDbEntity
8
0-0
6
CONTINUOUS
62
7
100
AcDbCircle
10
698.699986000000
20
49.519122681572
30
0.0
40
0.500000000000
100
AcDbArc
50
0.000000000000
51
59.537148218916
0
ARC
5
977
100
AcDbEntity
8
0-0
6
CONTINUOUS
62
7
100
AcDbCircle
10
696.899999481872
20
80.799192019893
30
0.0
40
0.100000000000
100
AcDbArc
50
0.000000000000
51
80.048727729350
0
LINE
5
978
100
AcDbEntity
8
0-0
6
CONTINUOUS
62
7
100
AcDbLine
10
698.900001999999
20
66.890641473526
30
0.0
11
699.400001999999
21
66.890641473526
31
0.0
0
LINE
5
979
100
AcDbEntity
8
0-0
6
CONTINUOUS
62
7
100
AcDbLine
10
703.055201707840
20
69.321773750441
30
0.0
11
698.606503943427
21
69.321773750441
31
0.0
0
LINE
5
97a
100
AcDbEntity
8
0-0
6
CONTINUOUS
62
7
100
AcDbLine
10
712.659171000000
20
80.825231473526
30
0.0
11
704.840813000000
21
67.359826473526
31
0.0
0
LINE
5
97b
100
AcDbEntity
8
0-0
6
CONTINUOUS
62
7
100
AcDbLine
10
712.918078135349
20
80.674903379205
30
0.0
11
713.084190222065
21
81.878234346288
31
0.0
0
LINE
5
97c
100
AcDbEntity
8
0-0
6
CONTINUOUS
62
7
100
AcDbLine
10
705.099720135349
20
67.209498379205
30
0.0
11
712.918078135349
21
80.674903379205
31
0.0
0
LINE
5
97d
100
AcDbEntity
8
0-0
6
CONTINUOUS
62
7
100
AcDbLine
10
704.335983417966
20
65.886667581092
30
0.0
11
705.099720135349
21
67.209498379205
31
0.0
0
LINE
5
97e
100
AcDbEntity
8
0-0
6
CONTINUOUS
62
7
100
AcDbLine
10
704.299999000000
20
65.351335473526
30
0.0
11
704.299999000000
21
56.890641473526
31
0.0
0
LINE
5
97f
100
AcDbEntity
8
0-0
6
CONTINUOUS
62
7
100
AcDbLine
10
701.900001999999
20
57.390641473526
30
0.0
11
701.900001999999
21
64.390641473526
31
0.0
0
LINE
5
980
100
AcDbEntity
8
0-0
6
CONTINUOUS
62
7
100
AcDbLine
10
693.000000000000
20
57.640641473526
30
0.0
11
692.000000000000
21
57.640641473526
31
0.0
0
LINE
5
981
100
AcDbEntity
8
0-0
6
CONTINUOUS
62
7
100
AcDbLine
10
698.900001999999
20
57.640641473526
30
0.0
11
696.999999481872
21
57.640641473526
31
0.0
0
LINE
5
982
100
AcDbEntity
8
0-0
6
CONTINUOUS
62
7
100
AcDbLine
10
698.900001999999
20
54.890641473526
30
0.0
11
699.400001999999
21
54.890641473526
31
0.0
0
LINE
5
983
100
AcDbEntity
8
0-0
6
CONTINUOUS
62
7
100
AcDbLine
10
698.900001999999
20
66.890641473526
30
0.0
11
698.900001999999
21
54.890641473526
31
0.0
0
LINE
5
984
100
AcDbEntity
8
0-0
6
CONTINUOUS
62
7
100
AcDbLine
10
696.999999481872
20
64.140641473526
30
0.0
11
698.900001999999
21
64.140641473526
31
0.0
0
LINE
5
985
100
AcDbEntity
8
0-0
6
CONTINUOUS
62
7
100
AcDbLine
10
692.000000000000
20
64.140641473526
30
0.0
11
693.000000000000
21
64.140641473526
31
0.0
0
LINE
5
986
100
AcDbEntity
8
0-0
6
CONTINUOUS
62
7
100
AcDbLine
10
690.000000000000
20
71.390641473526
30
0.0
11
691.000000000000
21
71.390641473526
31
0.0
0
LINE
5
987
100
AcDbEntity
8
0-0
6
CONTINUOUS
62
7
100
AcDbLine
10
690.000000000000
20
38.554986473525
30
0.0
11
690.000000000000
21
83.226296473526
31
0.0
0
LINE
5
988
100
AcDbEntity
8
0-0
6
CONTINUOUS
62
7
100
AcDbLine
10
713.199986000000
20
38.947560473525
30
0.0
11
713.199986000000
21
36.947562473525
31
0.0
0
LINE
5
989
100
AcDbEntity
8
0-0
6
CONTINUOUS
62
7
100
AcDbLine
10
704.840813000000
20
54.421456473525
30
0.0
11
712.659171000000
21
40.956051473525
31
0.0
0
LINE
5
98a
100
AcDbEntity
8
0-0
6
CONTINUOUS
62
7
100
AcDbLine
10
699.778735670412
20
47.922713670695
30
0.0
11
707.339132888385
21
47.922713670695
31
0.0
0
LINE
5
98b
100
AcDbEntity
8
0-0
6
CONTINUOUS
62
7
100
AcDbLine
10
696.953475805767
20
49.294736850927
30
0.0
11
695.246495194233
21
50.298735097825
31
0.0
0
LINE
5
98c
100
AcDbEntity
8
0-0
6
CONTINUOUS
62
7
100
AcDbLine
10
697.199986000000
20
37.021357609832
30
0.0
11
697.199986000000
21
48.863757827804
31
0.0
0
LINE
5
98d
100
AcDbEntity
8
0-0
6
CONTINUOUS
62
7
100
AcDbLine
10
699.199986000000
20
49.519122681572
30
0.0
11
699.199986000000
21
34.282378703073
31
0.0
0
LINE
5
98e
100
AcDbEntity
8
0-0
6
CONTINUOUS
62
7
100
AcDbLine
10
697.246509676105
20
50.954091433761
30
0.0
11
698.953475805767
21
49.950101704695
31
0.0
0
LINE
5
98f
100
AcDbEntity
8
0-0
6
CONTINUOUS
62
7
100
AcDbLine
10
696.999999481872
20
80.799192019893
30
0.0
11
696.999999481872
21
51.385070456884
31
0.0
0
LINE
5
990
100
AcDbEntity
8
0-0
6
CONTINUOUS
62
7
100
AcDbLine
10
694.999985000000
20
50.729714120948
30
0.0
11
694.999985000000
21
80.882498029768
31
0.0
0
LINE
5
991
100
AcDbEntity
8
0-0
6
CONTINUOUS
62
7
100
AcDbLine
10
693.000000000000
20
70.944807119932
30
0.0
11
693.000000000000
21
51.305105981333
31
0.0
0
LINE
5
992
100
AcDbEntity
8
0-0
6
CONTINUOUS
62
7
100
AcDbLine
10
693.000000000000
20
70.944807119932
30
0.0
11
694.999985000000
21
70.944807119932
31
0.0
0
LINE
5
993
100
AcDbEntity
8
0-0
6
CONTINUOUS
62
7
100
AcDbLine
10
692.000000000000
20
51.390641473525
30
0.0
11
692.000000000000
21
70.390641473526
31
0.0
0
LINE
5
994
100
AcDbEntity
8
0-0
6
CONTINUOUS
62
7
100
AcDbLine
10
690.000000000000
20
50.390641473525
30
0.0
11
691.000000000000
21
50.390641473525
31
0.0
0
LINE
5
995
100
AcDbEntity
8
0-0
6
CONTINUOUS
62
7
100
AcDbLine
10
670.000000000000
20
44.890641473526
30
0.0
11
669.800003000000
21
44.890641473526
31
0.0
0
LINE
5
996
100
AcDbEntity
8
0-0
6
CONTINUOUS
62
7
100
AcDbLine
10
670.000000000000
20
83.226296473526
30
0.0
11
670.000000000000
21
38.554986473525
31
0.0
0
LINE
5
997
100
AcDbEntity
8
0-0
6
CONTINUOUS
62
7
100
AcDbLine
10
669.799995000000
20
73.490641473526
30
0.0
11
668.461967000000
21
73.116914473526
31
0.0
0
LINE
5
998
100
AcDbEntity
8
0-0
6
CONTINUOUS
62
7
100
AcDbLine
10
669.800003000000
20
76.890641473526
30
0.0
11
670.000000000000
21
76.890641473526
31
0.0
0
LINE
5
999
100
AcDbEntity
8
0-0
6
CONTINUOUS
62
7
100
AcDbLine
10
669.800003000000
20
44.890641473526
30
0.0
11
669.800003000000
21
76.890641473526
31
0.0
0
LINE
5
99a
100
AcDbEntity
8
0-0
6
CONTINUOUS
62
7
100
AcDbLine
10
668.461975000000
20
48.664365473526
30
0.0
11
669.800003000000
21
48.290639473525
31
0.0
0
LINE
5
99b
100
AcDbEntity
8
0-0
6
CONTINUOUS
62
7
100
AcDbLine
10
667.000000000000
20
71.190640124460
30
0.0
11
667.000000000000
21
50.590642473526
31
0.0
0
LINE
5
99c
100
AcDbEntity
8
0-0
6
CONTINUOUS
62
7
100
AcDbLine
10
665.000015000000
20
70.944807119932
30
0.0
11
667.000000000000
21
70.944807119932
31
0.0
0
LINE
5
99d
100
AcDbEntity
8
0-0
6
CONTINUOUS
62
7
100
AcDbLine
10
665.000015000000
20
52.035206101365
30
0.0
11
665.000015000000
21
70.944807119932
31
0.0
0
LINE
5
99e
100
AcDbEntity
8
0-0
6
CONTINUOUS
62
7
100
AcDbLine
10
664.499985000000
20
56.290756472510
30
0.0
11
665.000015000001
21
57.640827472510
31
0.0
0
LINE
5
99f
100
AcDbEntity
8
0-0
6
CONTINUOUS
62
7
100
AcDbLine
10
664.500015000000
20
65.490645498005
30
0.0
11
664.500015000000
21
56.290643473525
31
0.0
0
LINE
5
9a0
100
AcDbEntity
8
0-0
6
CONTINUOUS
62
7
100
AcDbLine
10
665.000014264294
20
64.140558085672
30
0.0
11
664.499984264293
21
65.490629085672
31
0.0
0
LINE
5
9a1
100
AcDbEntity
8
0-0
6
CONTINUOUS
62
7
100
AcDbLine
10
663.500015000000
20
57.390641473526
30
0.0
11
663.500015000000
21
64.390641473526
31
0.0
0
ARC
5
9a2
100
AcDbEntity
8
0-0
6
CONTINUOUS
62
7
100
AcDbCircle
10
680.000000000000
20
39.890641473526
30
0.0
40
17.300000000000
100
AcDbArc
50
138.715711283315
51
353.809365378708
0
ARC
5
9a3
100
AcDbEntity
8
0-0
6
CONTINUOUS
62
7
100
AcDbCircle
10
680.000000000000
20
39.890641473526
30
0.0
40
17.300000000000
100
AcDbArc
50
10.685754202634
51
41.284288716687
0
LINE
5
9a4
100
AcDbEntity
8
0-1
6
CENTER
62
4
100
AcDbLine
10
779.979546653987
20
130.266636000000
30
0.0
11
779.979546653987
21
166.000277000000
31
0.0
0
TEXT
5
9a5
100
AcDbEntity
8
0-0
62
7
370
-3
100
AcDbText
10
890.513
20
303.024
30
0.0
40
3.618
1
CAP5-UR25
41
0.376
50
0.000
100
AcDbText
0
TEXT
5
9a6
100
AcDbEntity
8
0-0
62
7
370
-3
100
AcDbText
10
1032.579
20
301.635
30
0.0
40
3.618
1
CAP5-UR40
41
0.392
50
0.000
100
AcDbText
0
LINE
5
9a7
100
AcDbEntity
8
0-1
6
CONTINUOUS
62
4
100
AcDbLine
10
1095.863203530964
20
168.200003930435
30
0.0
11
1095.863203530964
21
170.700003000000
31
0.0
0
LINE
5
9a8
100
AcDbEntity
8
0-1
6
CONTINUOUS
62
4
100
AcDbLine
10
1095.863203530964
20
158.700003000000
30
0.0
11
1095.863203530964
21
161.599989519371
31
0.0
0
LINE
5
9a9
100
AcDbEntity
8
0-1
6
CONTINUOUS
62
4
100
AcDbLine
10
1091.563203340229
20
168.200019878985
30
0.0
11
1091.563203340229
21
170.700003000000
31
0.0
0
LINE
5
9aa
100
AcDbEntity
8
0-1
6
CONTINUOUS
62
4
100
AcDbLine
10
1091.563203340229
20
158.700003000000
30
0.0
11
1091.563203340229
21
161.600004289862
31
0.0
0
LINE
5
9ab
100
AcDbEntity
8
0-1
6
CONTINUOUS
62
4
100
AcDbLine
10
1096.213203435596
20
170.350002618530
30
0.0
11
1091.213203435596
21
170.350002618530
31
0.0
0
ARC
5
9ac
100
AcDbEntity
8
0-1
6
PHANTOM
62
4
100
AcDbCircle
10
1083.213203435596
20
174.707109543945
30
0.0
40
0.500000000000
100
AcDbArc
50
315.000000000000
51
360.000000000000
0
ARC
5
9ad
100
AcDbEntity
8
0-1
6
PHANTOM
62
4
100
AcDbCircle
10
1082.006096845325
20
173.500002000000
30
0.0
40
0.500000000000
100
AcDbArc
50
270.000000000000
51
315.000000000000
0
ARC
5
9ae
100
AcDbEntity
8
0-1
6
PHANTOM
62
4
100
AcDbCircle
10
1104.213203435596
20
174.707109543945
30
0.0
40
0.500000000000
100
AcDbArc
50
180.000000000000
51
224.999984741211
0
ARC
5
9af
100
AcDbEntity
8
0-1
6
PHANTOM
62
4
100
AcDbCircle
10
1105.420310979542
20
173.500002000000
30
0.0
40
0.500000000000
100
AcDbArc
50
225.000000000000
51
270.000000000000
0
ARC
5
9b0
100
AcDbEntity
8
0-1
6
PHANTOM
62
4
100
AcDbCircle
10
1101.213203435596
20
169.292894456054
30
0.0
40
0.500000000000
100
AcDbArc
50
0.000000000000
51
45.000000000000
0
ARC
5
9b1
100
AcDbEntity
8
0-1
6
PHANTOM
62
4
100
AcDbCircle
10
1100.006095891651
20
170.500002000000
30
0.0
40
0.500000000000
100
AcDbArc
50
45.000000000000
51
90.000000000000
0
ARC
5
9b2
100
AcDbEntity
8
0-1
6
PHANTOM
62
4
100
AcDbCircle
10
1087.420310025867
20
170.500002000000
30
0.0
40
0.500000000000
100
AcDbArc
50
90.000000000000
51
135.000000000000
0
ARC
5
9b3
100
AcDbEntity
8
0-1
6
PHANTOM
62
4
100
AcDbCircle
10
1086.213203435596
20
169.292894456054
30
0.0
40
0.500000000000
100
AcDbArc
50
135.000000000000
51
180.000000000000
0
ARC
5
9b4
100
AcDbEntity
8
0-1
6
PHANTOM
62
4
100
AcDbCircle
10
1099.313203817066
20
163.281969163086
30
0.0
40
0.500000000000
100
AcDbArc
50
153.434936523438
51
180.000000000000
0
ARC
5
9b5
100
AcDbEntity
8
0-1
6
PHANTOM
62
4
100
AcDbCircle
10
1101.213203435596
20
165.100000474121
30
0.0
40
0.500000000000
100
AcDbArc
50
270.000000000000
51
360.000000000000
0
ARC
5
9b6
100
AcDbEntity
8
0-1
6
PHANTOM
62
4
100
AcDbCircle
10
1086.213203435596
20
165.100000474121
30
0.0
40
0.500000000000
100
AcDbArc
50
180.000000000000
51
270.000000000000
0
ARC
5
9b7
100
AcDbEntity
8
0-1
6
PHANTOM
62
4
100
AcDbCircle
10
1088.113203054127
20
163.281969163086
30
0.0
40
0.500000000000
100
AcDbArc
50
359.999984741211
51
386.565048217773
0
ARC
5
9b8
100
AcDbEntity
8
0-1
6
PHANTOM
62
4
100
AcDbCircle
10
1109.613204961475
20
173.500002000000
30
0.0
40
0.500000000000
100
AcDbArc
50
270.000000000000
51
360.000000000000
0
ARC
5
9b9
100
AcDbEntity
8
0-1
6
PHANTOM
62
4
100
AcDbCircle
10
1111.431236272510
20
175.400001618530
30
0.0
40
0.500000000000
100
AcDbArc
50
90.000000000000
51
116.565048217773
0
ARC
5
9ba
100
AcDbEntity
8
0-1
6
PHANTOM
62
4
100
AcDbCircle
10
1077.813203340229
20
173.500002000000
30
0.0
40
0.500000000000
100
AcDbArc
50
180.000000000000
51
270.000000000000
0
ARC
5
9bb
100
AcDbEntity
8
0-1
6
PHANTOM
62
4
100
AcDbCircle
10
1075.995169406589
20
175.400001618530
30
0.0
40
0.500000000000
100
AcDbArc
50
63.434936523438
51
90.000000000000
0
ARC
5
9bc
100
AcDbEntity
8
0-1
6
PHANTOM
62
4
100
AcDbCircle
10
1088.113203054127
20
161.500002000000
30
0.0
40
0.500000000000
100
AcDbArc
50
270.000000000000
51
359.999984741211
0
ARC
5
9bd
100
AcDbEntity
8
0-1
6
PHANTOM
62
4
100
AcDbCircle
10
1099.313203817066
20
161.500002000000
30
0.0
40
0.500000000000
100
AcDbArc
50
180.000000000000
51
270.000000000000
0
ARC
5
9be
100
AcDbEntity
8
0-1
6
PHANTOM
62
4
100
AcDbCircle
10
1113.213203435596
20
175.400001618530
30
0.0
40
0.500000000000
100
AcDbArc
50
0.000000000000
51
90.000000000000
0
ARC
5
9bf
100
AcDbEntity
8
0-1
6
PHANTOM
62
4
100
AcDbCircle
10
1074.213203435596
20
175.400001618530
30
0.0
40
0.500000000000
100
AcDbArc
50
90.000000000000
51
180.000000000000
0
ARC
5
9c0
100
AcDbEntity
8
0-1
6
PHANTOM
62
4
100
AcDbCircle
10
1112.213203435596
20
162.500002000000
30
0.0
40
1.500000000000
100
AcDbArc
50
270.000000000000
51
360.000000000000
0
ARC
5
9c1
100
AcDbEntity
8
0-1
6
PHANTOM
62
4
100
AcDbCircle
10
1075.213203435596
20
162.500002000000
30
0.0
40
1.500000000000
100
AcDbArc
50
180.000000000000
51
270.000000000000
0
ARC
5
9c2
100
AcDbEntity
8
0-1
6
PHANTOM
62
4
100
AcDbCircle
10
1076.813203340229
20
174.990984055664
30
0.0
40
0.500000000000
100
AcDbArc
50
0.000000000000
51
63.434936523437
0
ARC
5
9c3
100
AcDbEntity
8
0-1
6
PHANTOM
62
4
100
AcDbCircle
10
1110.613204961475
20
174.990984055664
30
0.0
40
0.500000000000
100
AcDbArc
50
116.565048217773
51
180.000000000000
0
ARC
5
9c4
100
AcDbEntity
8
0-1
6
PHANTOM
62
4
100
AcDbCircle
10
1087.704186444935
20
164.100000474121
30
0.0
40
0.500000000000
100
AcDbArc
50
26.565048217773
51
90.000000000000
0
ARC
5
9c5
100
AcDbEntity
8
0-1
6
PHANTOM
62
4
100
AcDbCircle
10
1099.722221379932
20
164.100000474121
30
0.0
40
0.500000000000
100
AcDbArc
50
90.000000000000
51
153.434936523438
0
LINE
5
9c6
100
AcDbEntity
8
0-1
6
PHANTOM
62
4
100
AcDbLine
10
1083.713203435596
20
174.707109543945
30
0.0
11
1083.713203435596
21
179.985788437988
31
0.0
0
LINE
5
9c7
100
AcDbEntity
8
0-1
6
PHANTOM
62
4
100
AcDbLine
10
1083.566757207569
20
174.353555771972
30
0.0
11
1082.359649663624
21
173.146448228027
31
0.0
0
LINE
5
9c8
100
AcDbEntity
8
0-1
6
PHANTOM
62
4
100
AcDbLine
10
1082.006096845325
20
173.000002000000
30
0.0
11
1077.813203340229
21
173.000002000000
31
0.0
0
LINE
5
9c9
100
AcDbEntity
8
0-1
6
PHANTOM
62
4
100
AcDbLine
10
1103.713203435596
20
174.707109543945
30
0.0
11
1103.713203435596
21
179.985788437988
31
0.0
0
LINE
5
9ca
100
AcDbEntity
8
0-1
6
PHANTOM
62
4
100
AcDbLine
10
1103.859649663624
20
174.353555771972
30
0.0
11
1105.066757207569
21
173.146448228027
31
0.0
0
LINE
5
9cb
100
AcDbEntity
8
0-1
6
PHANTOM
62
4
100
AcDbLine
10
1105.420310979542
20
173.000002000000
30
0.0
11
1109.613204961475
21
173.000002000000
31
0.0
0
LINE
5
9cc
100
AcDbEntity
8
0-1
6
PHANTOM
62
4
100
AcDbLine
10
1101.713203435596
20
169.292894456054
30
0.0
11
1101.713203435596
21
165.100000474121
31
0.0
0
LINE
5
9cd
100
AcDbEntity
8
0-1
6
PHANTOM
62
4
100
AcDbLine
10
1101.566757207569
20
169.646448228027
30
0.0
11
1100.359649663624
21
170.853555771972
31
0.0
0
LINE
5
9ce
100
AcDbEntity
8
0-1
6
PHANTOM
62
4
100
AcDbLine
10
1100.006095891651
20
171.000002000000
30
0.0
11
1087.420310025867
21
171.000002000000
31
0.0
0
LINE
5
9cf
100
AcDbEntity
8
0-1
6
PHANTOM
62
4
100
AcDbLine
10
1087.066757207569
20
170.853555771972
30
0.0
11
1085.859649663624
21
169.646448228027
31
0.0
0
LINE
5
9d0
100
AcDbEntity
8
0-1
6
PHANTOM
62
4
100
AcDbLine
10
1085.713203435596
20
169.292894456054
30
0.0
11
1085.713203435596
21
165.100000474121
31
0.0
0
LINE
5
9d1
100
AcDbEntity
8
0-1
6
PHANTOM
62
4
100
AcDbLine
10
1098.813203817066
20
163.281969163086
30
0.0
11
1098.813203817066
21
161.500002000000
31
0.0
0
LINE
5
9d2
100
AcDbEntity
8
0-1
6
PHANTOM
62
4
100
AcDbLine
10
1098.865989690479
20
163.505575272705
30
0.0
11
1099.275007253345
21
164.323610398437
31
0.0
0
LINE
5
9d3
100
AcDbEntity
8
0-1
6
PHANTOM
62
4
100
AcDbLine
10
1101.213203435596
20
164.600000474121
30
0.0
11
1099.722221379932
21
164.600000474121
31
0.0
0
LINE
5
9d4
100
AcDbEntity
8
0-1
6
PHANTOM
62
4
100
AcDbLine
10
1086.213203435596
20
164.600000474121
30
0.0
11
1087.704186444935
21
164.600000474121
31
0.0
0
LINE
5
9d5
100
AcDbEntity
8
0-1
6
PHANTOM
62
4
100
AcDbLine
10
1088.560417180714
20
163.505575272705
30
0.0
11
1088.151399617847
21
164.323610398437
31
0.0
0
LINE
5
9d6
100
AcDbEntity
8
0-1
6
PHANTOM
62
4
100
AcDbLine
10
1088.613203054127
20
163.281969163086
30
0.0
11
1088.613203054127
21
161.500002000000
31
0.0
0
LINE
5
9d7
100
AcDbEntity
8
0-1
6
PHANTOM
62
4
100
AcDbLine
10
1110.113204961475
20
173.500002000000
30
0.0
11
1110.113204961475
21
174.990984055664
31
0.0
0
LINE
5
9d8
100
AcDbEntity
8
0-1
6
PHANTOM
62
4
100
AcDbLine
10
1111.207630162891
20
175.847215745117
30
0.0
11
1110.389595037159
21
175.438198182251
31
0.0
0
LINE
5
9d9
100
AcDbEntity
8
0-1
6
PHANTOM
62
4
100
AcDbLine
10
1111.431236272510
20
175.900001618530
30
0.0
11
1113.213203435596
21
175.900001618530
31
0.0
0
LINE
5
9da
100
AcDbEntity
8
0-1
6
PHANTOM
62
4
100
AcDbLine
10
1077.313203340229
20
173.500002000000
30
0.0
11
1077.313203340229
21
174.990984055664
31
0.0
0
LINE
5
9db
100
AcDbEntity
8
0-1
6
PHANTOM
62
4
100
AcDbLine
10
1076.218776231464
20
175.847215745117
30
0.0
11
1077.036810165104
21
175.438198182251
31
0.0
0
LINE
5
9dc
100
AcDbEntity
8
0-1
6
PHANTOM
62
4
100
AcDbLine
10
1075.995169406589
20
175.900001618530
30
0.0
11
1074.213203435596
21
175.900001618530
31
0.0
0
LINE
5
9dd
100
AcDbEntity
8
0-1
6
PHANTOM
62
4
100
AcDbLine
10
1088.113203054127
20
161.000002000000
30
0.0
11
1075.213203435596
21
161.000002000000
31
0.0
0
LINE
5
9de
100
AcDbEntity
8
0-1
6
PHANTOM
62
4
100
AcDbLine
10
1099.313203817066
20
161.000002000000
30
0.0
11
1112.213203435596
21
161.000002000000
31
0.0
0
LINE
5
9df
100
AcDbEntity
8
0-1
6
PHANTOM
62
4
100
AcDbLine
10
1113.713203435596
20
175.400001618530
30
0.0
11
1113.713203435596
21
162.500002000000
31
0.0
0
LINE
5
9e0
100
AcDbEntity
8
0-1
6
PHANTOM
62
4
100
AcDbLine
10
1073.713203435596
20
175.400001618530
30
0.0
11
1073.713203435596
21
162.500002000000
31
0.0
0
LINE
5
9e1
100
AcDbEntity
8
0-1
6
CENTER
62
4
100
AcDbLine
10
1079.000000000000
20
120.000000000000
30
0.0
11
1024.000000000000
21
120.000000000000
31
0.0
0
LINE
5
9e2
100
AcDbEntity
8
0-1
6
CENTER
62
4
100
AcDbLine
10
1093.713203435596
20
163.259052000000
30
0.0
11
1093.713203435596
21
157.021383000000
31
0.0
0
LINE
5
9e3
100
AcDbEntity
8
0-1
6
CENTER
62
4
100
AcDbLine
10
1072.500000000000
20
130.266636000000
30
0.0
11
1072.500000000000
21
166.000277000000
31
0.0
0
LINE
5
9e4
100
AcDbEntity
8
0-1
6
CENTER
62
4
100
AcDbLine
10
1051.500000000000
20
147.500000000000
30
0.0
11
1051.500000000000
21
92.500000000000
31
0.0
0
LINE
5
9e5
100
AcDbEntity
8
0-1
6
CENTER
62
4
100
AcDbLine
10
1037.144660940673
20
163.155090000000
30
0.0
11
1037.144660940673
21
157.021383000000
31
0.0
0
LINE
5
9e6
100
AcDbEntity
8
0-0
6
CONTINUOUS
62
7
100
AcDbLine
10
1096.213203435596
20
161.599988317122
30
0.0
11
1096.213203435596
21
158.700003000000
31
0.0
0
LINE
5
9e7
100
AcDbEntity
8
0-0
6
CONTINUOUS
62
7
100
AcDbLine
10
1091.213203435596
20
161.600005492111
30
0.0
11
1091.213203435596
21
158.700003000000
31
0.0
0
LINE
5
9e8
100
AcDbEntity
8
0-0
6
CONTINUOUS
62
7
100
AcDbLine
10
1096.213203435596
20
170.350002618530
30
0.0
11
1096.213203435596
21
168.200002632297
31
0.0
0
LINE
5
9e9
100
AcDbEntity
8
0-0
6
CONTINUOUS
62
7
100
AcDbLine
10
1091.213203435596
20
170.350002618530
30
0.0
11
1091.213203435596
21
168.200021177122
31
0.0
0
POLYLINE
5
9ea
100
AcDbEntity
8
0-0
6
CONTINUOUS
62
  7
100
AcDb2dPolyline
66
1
10
0.0
20
0.0
30
0.0
70
0
0
VERTEX
5
9eb
100
AcDbEntity
8
0-0
6
CONTINUOUS
62
  7
100
AcDbVertex
100
AcDb2dVertex
10
1100.391930770046
20
166.364759920437
30
0.0
0
VERTEX
5
9ec
100
AcDbEntity
8
0-0
6
CONTINUOUS
62
  7
100
AcDbVertex
100
AcDb2dVertex
10
1100.713169263671
20
164.600001904613
30
0.0
0
VERTEX
5
9ed
100
AcDbEntity
8
0-0
6
CONTINUOUS
62
  7
100
AcDbVertex
100
AcDb2dVertex
10
1098.800623831357
20
164.600001904613
30
0.0
0
SEQEND
5
9ee
100
AcDbEntity
8
0-0
0
LINE
5
9ef
100
AcDbEntity
8
0-0
6
CONTINUOUS
62
7
100
AcDbLine
10
1097.213085788526
20
168.200024885607
30
0.0
11
1100.391930770046
21
166.364759920437
31
0.0
0
LINE
5
9f0
100
AcDbEntity
8
0-0
6
CONTINUOUS
62
7
100
AcDbLine
10
1088.888225585071
20
161.600013478405
30
0.0
11
1098.538181286084
21
161.599980330828
31
0.0
0
LINE
5
9f1
100
AcDbEntity
8
0-0
6
CONTINUOUS
62
7
100
AcDbLine
10
1098.800685243430
20
164.600001904613
30
0.0
11
1098.538181286084
21
161.599980330828
31
0.0
0
POLYLINE
5
9f2
100
AcDbEntity
8
0-0
6
CONTINUOUS
62
  7
100
AcDb2dPolyline
66
1
10
0.0
20
0.0
30
0.0
70
0
0
VERTEX
5
9f3
100
AcDbEntity
8
0-0
6
CONTINUOUS
62
  7
100
AcDbVertex
100
AcDb2dVertex
10
1087.034487957296
20
166.364759920437
30
0.0
0
VERTEX
5
9f4
100
AcDbEntity
8
0-0
6
CONTINUOUS
62
  7
100
AcDbVertex
100
AcDb2dVertex
10
1086.713249463671
20
164.600001904613
30
0.0
0
VERTEX
5
9f5
100
AcDbEntity
8
0-0
6
CONTINUOUS
62
  7
100
AcDbVertex
100
AcDb2dVertex
10
1088.625794895985
20
164.600001904613
30
0.0
0
SEQEND
5
9f6
100
AcDbEntity
8
0-0
0
LINE
5
9f7
100
AcDbEntity
8
0-0
6
CONTINUOUS
62
7
100
AcDbLine
10
1090.213332938816
20
168.200024885607
30
0.0
11
1087.034487957296
21
166.364759920437
31
0.0
0
LINE
5
9f8
100
AcDbEntity
8
0-0
6
CONTINUOUS
62
7
100
AcDbLine
10
1088.625794895985
20
164.600001904613
30
0.0
11
1088.888225585071
21
161.600013478405
31
0.0
0
LINE
5
9f9
100
AcDbEntity
8
0-0
6
CONTINUOUS
62
7
100
AcDbLine
10
1097.213167734556
20
168.199998923465
30
0.0
11
1090.213332938816
21
168.200024885607
31
0.0
0
LINE
5
9fa
100
AcDbEntity
8
0-0
6
CONTINUOUS
62
7
100
AcDbLine
10
1091.563203340229
20
170.700003000000
30
0.0
11
1091.213203435596
21
170.350002618530
31
0.0
0
LINE
5
9fb
100
AcDbEntity
8
0-0
6
CONTINUOUS
62
7
100
AcDbLine
10
1096.213203435596
20
170.350002618530
30
0.0
11
1095.863203530964
21
170.700003000000
31
0.0
0
LINE
5
9fc
100
AcDbEntity
8
0-0
6
CONTINUOUS
62
7
100
AcDbLine
10
1091.563203340229
20
170.700003000000
30
0.0
11
1095.863203530964
21
170.700003000000
31
0.0
0
LINE
5
9fd
100
AcDbEntity
8
0-0
6
CONTINUOUS
62
7
100
AcDbLine
10
1097.963203435596
20
154.200003000000
30
0.0
11
1089.463203435596
21
154.200003000000
31
0.0
0
POLYLINE
5
9fe
100
AcDbEntity
8
0-0
6
CONTINUOUS
62
  7
100
AcDb2dPolyline
66
1
10
0.0
20
0.0
30
0.0
70
0
0
VERTEX
5
9ff
100
AcDbEntity
8
0-0
6
CONTINUOUS
62
  7
100
AcDbVertex
100
AcDb2dVertex
10
1089.963203435596
20
153.700003000000
30
0.0
0
VERTEX
5
a00
100
AcDbEntity
8
0-0
6
CONTINUOUS
62
  7
100
AcDbVertex
100
AcDb2dVertex
10
1089.463203435596
20
154.200003000000
30
0.0
0
VERTEX
5
a01
100
AcDbEntity
8
0-0
6
CONTINUOUS
62
  7
100
AcDbVertex
100
AcDb2dVertex
10
1089.463203435596
20
158.700003000000
30
0.0
0
SEQEND
5
a02
100
AcDbEntity
8
0-0
0
LINE
5
a03
100
AcDbEntity
8
0-0
6
CONTINUOUS
62
7
100
AcDbLine
10
1089.963203435596
20
153.700003000000
30
0.0
11
1097.463203435596
21
153.700003000000
31
0.0
0
LINE
5
a04
100
AcDbEntity
8
0-0
6
CONTINUOUS
62
7
100
AcDbLine
10
1097.963203435596
20
154.200003000000
30
0.0
11
1097.463203435596
21
153.700003000000
31
0.0
0
LINE
5
a05
100
AcDbEntity
8
0-0
6
CONTINUOUS
62
7
100
AcDbLine
10
1097.963203435596
20
154.200003000000
30
0.0
11
1097.963203435596
21
158.700003000000
31
0.0
0
LINE
5
a06
100
AcDbEntity
8
0-0
6
CONTINUOUS
62
7
100
AcDbLine
10
1091.284631972965
20
154.200003000000
30
0.0
11
1091.284631972965
21
158.700003000000
31
0.0
0
LINE
5
a07
100
AcDbEntity
8
0-0
6
CONTINUOUS
62
7
100
AcDbLine
10
1090.070346360859
20
154.200003000000
30
0.0
11
1090.070346360859
21
158.700003000000
31
0.0
0
LINE
5
a08
100
AcDbEntity
8
0-0
6
CONTINUOUS
62
7
100
AcDbLine
10
1090.677489047703
20
154.200003000000
30
0.0
11
1090.677489047703
21
158.700003000000
31
0.0
0
LINE
5
a09
100
AcDbEntity
8
0-0
6
CONTINUOUS
62
7
100
AcDbLine
10
1091.891774898228
20
154.200003000000
30
0.0
11
1091.891774898228
21
158.700003000000
31
0.0
0
LINE
5
a0a
100
AcDbEntity
8
0-0
6
CONTINUOUS
62
7
100
AcDbLine
10
1092.498917704281
20
154.200003000000
30
0.0
11
1092.498917704281
21
158.700003000000
31
0.0
0
ARC
5
a0b
100
AcDbEntity
8
0-0
6
CONTINUOUS
62
7
100
AcDbCircle
10
1051.500000000000
20
120.000000000000
30
0.0
40
18.000000000000
100
AcDbArc
50
104.993200000000
51
120.732420000000
0
ARC
5
a0c
100
AcDbEntity
8
0-0
6
CONTINUOUS
62
7
100
AcDbCircle
10
1051.500000000000
20
120.000000000000
30
0.0
40
18.000000000000
100
AcDbArc
50
165.843800000000
51
314.156190000000
0
ARC
5
a0d
100
AcDbEntity
8
0-0
6
CONTINUOUS
62
7
100
AcDbCircle
10
1051.500000000000
20
120.000000000000
30
0.0
40
18.000000000000
100
AcDbArc
50
356.387800000000
51
390.275818000000
0
ARC
5
a0e
100
AcDbEntity
8
0-0
6
CONTINUOUS
62
7
100
AcDbCircle
10
1051.500000000000
20
120.000000000000
30
0.0
40
11.000000000000
100
AcDbArc
50
195.608740000000
51
284.391230000000
0
CIRCLE
5
a0f
100
AcDbEntity
8
0-0
6
CONTINUOUS
62
7
100
AcDbCircle
10
1051.500000000000
20
120.000000000000
30
0.0
40
6.000000000000
0
CIRCLE
5
a10
100
AcDbEntity
8
0-0
6
CONTINUOUS
62
7
100
AcDbCircle
10
1051.500000000000
20
120.000000000000
30
0.0
40
2.000000000000
0
ARC
5
a11
100
AcDbEntity
8
0-0
6
CONTINUOUS
62
7
100
AcDbCircle
10
1027.153214000000
20
139.830128000000
30
0.0
40
1.000000000000
100
AcDbArc
50
330.000000000000
51
419.999995000000
0
ARC
5
a12
100
AcDbEntity
8
0-0
6
CONTINUOUS
62
7
100
AcDbCircle
10
1081.395830000000
20
106.781090000000
30
0.0
40
2.500000000000
100
AcDbArc
50
59.999995000000
51
149.510400000000
0
ARC
5
a13
100
AcDbEntity
8
0-0
6
CONTINUOUS
62
7
100
AcDbCircle
10
1029.890816000000
20
136.571793000000
30
0.0
40
3.000000000000
100
AcDbArc
50
150.000010000000
51
197.707040000000
0
ARC
5
a14
100
AcDbEntity
8
0-0
6
CONTINUOUS
62
7
100
AcDbCircle
10
1076.656190000000
20
109.571793000000
30
0.0
40
3.000000000000
100
AcDbArc
50
282.292960000000
51
330.000000000000
0
ARC
5
a15
100
AcDbEntity
8
0-0
6
CONTINUOUS
62
7
100
AcDbCircle
10
1051.500000000000
20
113.750000000000
30
0.0
40
3.250000000000
100
AcDbArc
50
180.000010000000
51
360.000000000000
0
ARC
5
a16
100
AcDbEntity
8
0-0
6
CONTINUOUS
62
7
100
AcDbCircle
10
1051.500000000000
20
126.250000000000
30
0.0
40
3.250000000000
100
AcDbArc
50
0.000000000000
51
180.000010000000
0
ARC
5
a17
100
AcDbEntity
8
0-0
6
CONTINUOUS
62
7
100
AcDbCircle
10
1070.037750000000
20
124.308331000000
30
0.0
40
7.000000000000
100
AcDbArc
50
205.849710000000
51
240.000000000000
0
ARC
5
a18
100
AcDbEntity
8
0-0
6
CONTINUOUS
62
7
100
AcDbCircle
10
1052.366028000000
20
119.500000000000
30
0.0
40
11.000000000000
100
AcDbArc
50
25.849696000000
51
59.999995000000
0
ARC
5
a19
100
AcDbEntity
8
0-0
6
CONTINUOUS
62
7
100
AcDbCircle
10
1050.633972000000
20
120.500000000000
30
0.0
40
11.000000000000
100
AcDbArc
50
59.999995000000
51
94.150299000000
0
ARC
5
a1a
100
AcDbEntity
8
0-0
6
CONTINUOUS
62
7
100
AcDbCircle
10
1045.962250000000
20
138.208330000000
30
0.0
40
7.000000000000
100
AcDbArc
50
240.000000000000
51
274.150300000000
0
ARC
5
a1b
100
AcDbEntity
8
0-0
6
CONTINUOUS
62
7
100
AcDbCircle
10
1045.962250000000
20
138.208330000000
30
0.0
40
5.000000000000
100
AcDbArc
50
240.000000000000
51
274.150300000000
0
ARC
5
a1c
100
AcDbEntity
8
0-0
6
CONTINUOUS
62
7
100
AcDbCircle
10
1070.037750000000
20
124.308331000000
30
0.0
40
5.000000000000
100
AcDbArc
50
205.849710000000
51
240.000000000000
0
ARC
5
a1d
100
AcDbEntity
8
0-0
6
CONTINUOUS
62
7
100
AcDbCircle
10
1050.633972000000
20
120.500000000000
30
0.0
40
13.000000000000
100
AcDbArc
50
59.999995000000
51
94.150299000000
0
ARC
5
a1e
100
AcDbEntity
8
0-0
6
CONTINUOUS
62
7
100
AcDbCircle
10
1052.366028000000
20
119.500000000000
30
0.0
40
13.000000000000
100
AcDbArc
50
25.849696000000
51
59.999995000000
0
ARC
5
a1f
100
AcDbEntity
8
0-0
6
CONTINUOUS
62
7
100
AcDbCircle
10
1052.753624000000
20
143.871342000000
30
0.0
40
27.000000000000
100
AcDbArc
50
197.707040000000
51
238.399720000000
0
ARC
5
a20
100
AcDbEntity
8
0-0
6
CONTINUOUS
62
7
100
AcDbCircle
10
1071.546371000000
20
133.021341000000
30
0.0
40
27.000000000000
100
AcDbArc
50
241.600280000000
51
282.292960000000
0
ARC
5
a21
100
AcDbEntity
8
0-0
6
CONTINUOUS
62
7
100
AcDbCircle
10
1056.800003000000
20
129.179869000000
30
0.0
40
20.000000000000
100
AcDbArc
50
204.535330000000
51
275.464660000000
0
ARC
5
a22
100
AcDbEntity
8
0-0
6
CONTINUOUS
62
7
100
AcDbCircle
10
1051.500000000000
20
120.000000000000
30
0.0
40
25.000000000000
100
AcDbArc
50
348.662930000000
51
396.964796000000
0
ARC
5
a23
100
AcDbEntity
8
0-0
6
CONTINUOUS
62
7
100
AcDbCircle
10
1051.500000000000
20
120.000000000000
30
0.0
40
25.000000000000
100
AcDbArc
50
153.972680000000
51
326.027330000000
0
ARC
5
a24
100
AcDbEntity
8
0-0
6
CONTINUOUS
62
7
100
AcDbCircle
10
1051.500000000000
20
120.000000000000
30
0.0
40
25.000000000000
100
AcDbArc
50
98.382605000000
51
131.337080000000
0
ARC
5
a25
100
AcDbEntity
8
0-0
6
CONTINUOUS
62
7
100
AcDbCircle
10
1082.964580000000
20
154.984503000000
30
0.0
40
1.984500000000
100
AcDbArc
50
328.918780000000
51
348.828190000000
0
ARC
5
a26
100
AcDbEntity
8
0-0
6
CONTINUOUS
62
7
100
AcDbCircle
10
1064.822342000000
20
154.984503000000
30
0.0
40
1.984500000000
100
AcDbArc
50
191.171790000000
51
211.081220000000
0
ARC
5
a27
100
AcDbEntity
8
0-0
6
CONTINUOUS
62
7
100
AcDbCircle
10
1080.177660000000
20
154.984503000000
30
0.0
40
1.984500000000
100
AcDbArc
50
328.918780000000
51
348.828190000000
0
ARC
5
a28
100
AcDbEntity
8
0-0
6
CONTINUOUS
62
7
100
AcDbCircle
10
1076.558750000000
20
154.984503000000
30
0.0
40
1.984500000000
100
AcDbArc
50
328.918780000000
51
348.828200000000
0
ARC
5
a29
100
AcDbEntity
8
0-0
6
CONTINUOUS
62
7
100
AcDbCircle
10
1068.441254000000
20
154.984503000000
30
0.0
40
1.984500000000
100
AcDbArc
50
328.918780000000
51
348.828200000000
0
ARC
5
a2a
100
AcDbEntity
8
0-0
6
CONTINUOUS
62
7
100
AcDbCircle
10
1064.822342000000
20
154.984503000000
30
0.0
40
1.984500000000
100
AcDbArc
50
328.918780000000
51
335.754640000000
0
ARC
5
a2b
100
AcDbEntity
8
0-0
6
CONTINUOUS
62
7
100
AcDbCircle
10
1072.500000000000
20
154.984503000000
30
0.0
40
1.984500000000
100
AcDbArc
50
328.918780000000
51
348.828200000000
0
ARC
5
a2c
100
AcDbEntity
8
0-0
6
CONTINUOUS
62
7
100
AcDbCircle
10
1076.558750000000
20
154.984503000000
30
0.0
40
1.984500000000
100
AcDbArc
50
191.171780000000
51
211.081220000000
0
ARC
5
a2d
100
AcDbEntity
8
0-0
6
CONTINUOUS
62
7
100
AcDbCircle
10
1088.800000000000
20
156.500003000000
30
0.0
40
0.300000000000
100
AcDbArc
50
197.003510000000
51
269.999960000000
0
ARC
5
a2e
100
AcDbEntity
8
0-0
6
CONTINUOUS
62
7
100
AcDbCircle
10
1085.166110000000
20
155.388766000000
30
0.0
40
3.500000000000
100
AcDbArc
50
17.003496000000
51
71.096860000000
0
ARC
5
a2f
100
AcDbEntity
8
0-0
6
CONTINUOUS
62
7
100
AcDbCircle
10
1080.177660000000
20
154.984503000000
30
0.0
40
1.984500000000
100
AcDbArc
50
204.245350000000
51
211.081220000000
0
ARC
5
a30
100
AcDbEntity
8
0-0
6
CONTINUOUS
62
7
100
AcDbCircle
10
1085.000000000000
20
154.984503000000
30
0.0
40
1.984500000000
100
AcDbArc
50
328.918780000000
51
348.828180000000
0
ARC
5
a31
100
AcDbEntity
8
0-0
6
CONTINUOUS
62
7
100
AcDbCircle
10
1084.617510000000
20
154.984503000000
30
0.0
40
1.984500000000
100
AcDbArc
50
328.918780000000
51
348.828190000000
0
ARC
5
a32
100
AcDbEntity
8
0-0
6
CONTINUOUS
62
7
100
AcDbCircle
10
1060.382492000000
20
154.984503000000
30
0.0
40
1.984500000000
100
AcDbArc
50
191.171790000000
51
211.081220000000
0
ARC
5
a33
100
AcDbEntity
8
0-0
6
CONTINUOUS
62
7
100
AcDbCircle
10
1062.035416000000
20
154.984503000000
30
0.0
40
1.984500000000
100
AcDbArc
50
191.171790000000
51
211.081220000000
0
ARC
5
a34
100
AcDbEntity
8
0-0
6
CONTINUOUS
62
7
100
AcDbCircle
10
1072.500000000000
20
154.984503000000
30
0.0
40
1.984500000000
100
AcDbArc
50
191.171780000000
51
211.081220000000
0
ARC
5
a35
100
AcDbEntity
8
0-0
6
CONTINUOUS
62
7
100
AcDbCircle
10
1060.000000000000
20
154.984503000000
30
0.0
40
1.984500000000
100
AcDbArc
50
191.171790000000
51
211.081220000000
0
ARC
5
a36
100
AcDbEntity
8
0-0
6
CONTINUOUS
62
7
100
AcDbCircle
10
1056.199997000000
20
156.500003000000
30
0.0
40
0.300000000000
100
AcDbArc
50
270.000020000000
51
342.996480000000
0
ARC
5
a37
100
AcDbEntity
8
0-0
6
CONTINUOUS
62
7
100
AcDbCircle
10
1059.833893000000
20
155.388766000000
30
0.0
40
3.500000000000
100
AcDbArc
50
108.903100000000
51
162.996470000000
0
ARC
5
a38
100
AcDbEntity
8
0-0
6
CONTINUOUS
62
7
100
AcDbCircle
10
1068.441254000000
20
154.984503000000
30
0.0
40
1.984500000000
100
AcDbArc
50
191.171780000000
51
211.081220000000
0
ARC
5
a39
100
AcDbEntity
8
0-0
6
CONTINUOUS
62
7
100
AcDbCircle
10
1083.129240000000
20
137.419283000000
30
0.0
40
8.000000000000
100
AcDbArc
50
92.000032000000
51
143.325820000000
0
ARC
5
a3a
100
AcDbEntity
8
0-0
6
CONTINUOUS
62
7
100
AcDbCircle
10
1047.241219000000
20
147.720756000000
30
0.0
40
1.000000000000
100
AcDbArc
50
352.189580000000
51
370.000000000000
0
ARC
5
a3b
100
AcDbEntity
8
0-0
6
CONTINUOUS
62
7
100
AcDbCircle
10
1088.242430000000
20
150.960000000000
30
0.0
40
3.000000000000
100
AcDbArc
50
6.796802000000
51
89.999982000000
0
ARC
5
a3c
100
AcDbEntity
8
0-0
6
CONTINUOUS
62
7
100
AcDbCircle
10
1056.757568000000
20
150.960000000000
30
0.0
40
3.000000000000
100
AcDbArc
50
89.999982000000
51
152.248150000000
0
LINE
5
a3d
100
AcDbEntity
8
0-0
6
CONTINUOUS
62
7
100
AcDbLine
10
1028.019234000000
20
139.330130000000
30
0.0
11
1027.292732000000
21
138.071795000000
31
0.0
0
LINE
5
a3e
100
AcDbEntity
8
0-0
6
CONTINUOUS
62
7
100
AcDbLine
10
1030.144660940673
20
161.000002000000
30
0.0
11
1030.144660940673
21
158.700003000000
31
0.0
0
LINE
5
a3f
100
AcDbEntity
8
0-0
6
CONTINUOUS
62
7
100
AcDbLine
10
1100.712920808794
20
161.000002000000
30
0.0
11
1030.144660940673
21
161.000002000000
31
0.0
0
LINE
5
a40
100
AcDbEntity
8
0-0
6
CONTINUOUS
62
7
100
AcDbLine
10
1100.712920808794
20
158.700003000000
30
0.0
11
1100.712920808794
21
161.000002000000
31
0.0
0
LINE
5
a41
100
AcDbEntity
8
0-0
6
CONTINUOUS
62
7
100
AcDbLine
10
1030.144660940673
20
158.700003000000
30
0.0
11
1100.712920808794
21
158.700003000000
31
0.0
0
LINE
5
a42
100
AcDbEntity
8
0-0
6
CONTINUOUS
62
7
100
AcDbLine
10
1053.349998000000
20
150.926486000000
30
0.0
11
1054.102654000000
21
152.356932000000
31
0.0
0
LINE
5
a43
100
AcDbEntity
8
0-0
6
CONTINUOUS
62
7
100
AcDbLine
10
1079.254260000000
20
108.071793000000
30
0.0
11
1079.230760000000
21
108.031090000000
31
0.0
0
LINE
5
a44
100
AcDbEntity
8
0-0
6
CONTINUOUS
62
7
100
AcDbLine
10
1071.333893000000
20
109.456573000000
30
0.0
11
1071.362358000000
21
111.856403000000
31
0.0
0
LINE
5
a45
100
AcDbEntity
8
0-0
6
CONTINUOUS
62
7
100
AcDbLine
10
1069.962463000000
20
111.873009000000
30
0.0
11
1069.933998000000
21
109.473175000000
31
0.0
0
LINE
5
a46
100
AcDbEntity
8
0-0
6
CONTINUOUS
62
7
100
AcDbLine
10
1066.461662000000
20
109.514359000000
30
0.0
11
1066.490128000000
21
111.914192000000
31
0.0
0
LINE
5
a47
100
AcDbEntity
8
0-0
6
CONTINUOUS
62
7
100
AcDbLine
10
1074.833656000000
20
109.415062000000
30
0.0
11
1066.461662000000
21
109.514359000000
31
0.0
0
LINE
5
a48
100
AcDbEntity
8
0-0
6
CONTINUOUS
62
7
100
AcDbLine
10
1074.862114000000
20
111.814896000000
30
0.0
11
1074.833656000000
21
109.415062000000
31
0.0
0
LINE
5
a49
100
AcDbEntity
8
0-0
6
CONTINUOUS
62
7
100
AcDbLine
10
1066.490128000000
20
111.914192000000
30
0.0
11
1074.862114000000
21
111.814896000000
31
0.0
0
LINE
5
a4a
100
AcDbEntity
8
0-0
6
CONTINUOUS
62
7
100
AcDbLine
10
1087.109920000000
20
108.678204000000
30
0.0
11
1067.537750000000
21
119.978203000000
31
0.0
0
LINE
5
a4b
100
AcDbEntity
8
0-0
6
CONTINUOUS
62
7
100
AcDbLine
10
1086.109920000000
20
106.946152000000
30
0.0
11
1087.109920000000
21
108.678204000000
31
0.0
0
LINE
5
a4c
100
AcDbEntity
8
0-0
6
CONTINUOUS
62
7
100
AcDbLine
10
1066.537750000000
20
118.246151000000
30
0.0
11
1086.109920000000
21
106.946152000000
31
0.0
0
LINE
5
a4d
100
AcDbEntity
8
0-0
6
CONTINUOUS
62
7
100
AcDbLine
10
1059.860695000000
20
108.681149000000
30
0.0
11
1065.707626000000
21
118.808331000000
31
0.0
0
LINE
5
a4e
100
AcDbEntity
8
0-0
6
CONTINUOUS
62
7
100
AcDbLine
10
1054.750000000000
20
113.750000000000
30
0.0
11
1054.750000000000
21
114.956440000000
31
0.0
0
LINE
5
a4f
100
AcDbEntity
8
0-0
6
CONTINUOUS
62
7
100
AcDbLine
10
1048.250000000000
20
114.956440000000
30
0.0
11
1048.250000000000
21
113.750000000000
31
0.0
0
LINE
5
a50
100
AcDbEntity
8
0-0
6
CONTINUOUS
62
7
100
AcDbLine
10
1048.250000000000
20
126.250000000000
30
0.0
11
1048.250000000000
21
125.043560000000
31
0.0
0
LINE
5
a51
100
AcDbEntity
8
0-0
6
CONTINUOUS
62
7
100
AcDbLine
10
1022.283855000000
20
143.796154000000
30
0.0
11
1042.462250000000
21
132.146151000000
31
0.0
0
LINE
5
a52
100
AcDbEntity
8
0-0
6
CONTINUOUS
62
7
100
AcDbLine
10
1023.283852000000
20
145.528203000000
30
0.0
11
1022.283852000000
21
143.796152000000
31
0.0
0
LINE
5
a53
100
AcDbEntity
8
0-0
6
CONTINUOUS
62
7
100
AcDbLine
10
1043.462250000000
20
133.878201000000
30
0.0
11
1023.283855000000
21
145.528205000000
31
0.0
0
LINE
5
a54
100
AcDbEntity
8
0-0
6
CONTINUOUS
62
7
100
AcDbLine
10
1045.334496000000
20
133.721022000000
30
0.0
11
1045.083427000000
21
133.286167000000
31
0.0
0
LINE
5
a55
100
AcDbEntity
8
0-0
6
CONTINUOUS
62
7
100
AcDbLine
10
1041.697189000000
20
135.821020000000
30
0.0
11
1045.334496000000
21
133.721022000000
31
0.0
0
LINE
5
a56
100
AcDbEntity
8
0-0
6
CONTINUOUS
62
7
100
AcDbLine
10
1041.297188000000
20
135.128201000000
30
0.0
11
1041.697189000000
21
135.821020000000
31
0.0
0
LINE
5
a57
100
AcDbEntity
8
0-0
6
CONTINUOUS
62
7
100
AcDbLine
10
1038.697189000000
20
130.624868000000
30
0.0
11
1040.297188000000
21
133.396151000000
31
0.0
0
LINE
5
a58
100
AcDbEntity
8
0-0
6
CONTINUOUS
62
7
100
AcDbLine
10
1042.334488000000
20
128.524870000000
30
0.0
11
1038.697189000000
21
130.624868000000
31
0.0
0
LINE
5
a59
100
AcDbEntity
8
0-0
6
CONTINUOUS
62
7
100
AcDbLine
10
1044.039276000000
20
131.477640000000
30
0.0
11
1042.334488000000
21
128.524870000000
31
0.0
0
LINE
5
a5a
100
AcDbEntity
8
0-0
6
CONTINUOUS
62
7
100
AcDbLine
10
1049.837868000000
20
131.471155000000
30
0.0
11
1046.468857000000
21
131.226688000000
31
0.0
0
LINE
5
a5b
100
AcDbEntity
8
0-0
6
CONTINUOUS
62
7
100
AcDbLine
10
1046.324112000000
20
133.221441000000
30
0.0
11
1049.693123000000
21
133.465908000000
31
0.0
0
LINE
5
a5c
100
AcDbEntity
8
0-0
6
CONTINUOUS
62
7
100
AcDbLine
10
1048.231941000000
20
147.584860000000
30
0.0
11
1046.261108000000
21
133.216871000000
31
0.0
0
LINE
5
a5d
100
AcDbEntity
8
0-0
6
CONTINUOUS
62
7
100
AcDbLine
10
1048.226028000000
20
147.894405000000
30
0.0
11
1047.862015000000
21
149.958807000000
31
0.0
0
LINE
5
a5e
100
AcDbEntity
8
0-0
6
CONTINUOUS
62
7
100
AcDbLine
10
1045.747292000000
20
147.555075000000
30
0.0
11
1048.209312000000
21
147.989196000000
31
0.0
0
LINE
5
a5f
100
AcDbEntity
8
0-0
6
CONTINUOUS
62
7
100
AcDbLine
10
1045.400002000000
20
149.524687000000
30
0.0
11
1045.747292000000
21
147.555070000000
31
0.0
0
LINE
5
a60
100
AcDbEntity
8
0-0
6
CONTINUOUS
62
7
100
AcDbLine
10
1056.644936000000
20
151.507477000000
30
0.0
11
1045.399986000000
21
149.524690000000
31
0.0
0
LINE
5
a61
100
AcDbEntity
8
0-0
6
CONTINUOUS
62
7
100
AcDbLine
10
1059.500000000000
20
130.367680000000
30
0.0
11
1059.500000000000
21
150.240620000000
31
0.0
0
LINE
5
a62
100
AcDbEntity
8
0-0
6
CONTINUOUS
62
7
100
AcDbLine
10
1058.866020000000
20
130.758329000000
30
0.0
11
1057.133972000000
21
131.758329000000
31
0.0
0
LINE
5
a63
100
AcDbEntity
8
0-0
6
CONTINUOUS
62
7
100
AcDbLine
10
1056.133972000000
20
130.026279000000
30
0.0
11
1057.866020000000
21
129.026279000000
31
0.0
0
LINE
5
a64
100
AcDbEntity
8
0-0
6
CONTINUOUS
62
7
100
AcDbLine
10
1054.750000000000
20
125.043560000000
30
0.0
11
1054.750000000000
21
126.250000000000
31
0.0
0
LINE
5
a65
100
AcDbEntity
8
0-0
6
CONTINUOUS
62
7
100
AcDbLine
10
1063.738167000000
20
121.256252000000
30
0.0
11
1062.265373000000
21
124.296135000000
31
0.0
0
LINE
5
a66
100
AcDbEntity
8
0-0
6
CONTINUOUS
62
7
100
AcDbLine
10
1064.065254000000
20
125.168156000000
30
0.0
11
1065.538048000000
21
122.128273000000
31
0.0
0
LINE
5
a67
100
AcDbEntity
8
0-0
6
CONTINUOUS
62
7
100
AcDbLine
10
1076.699500000000
20
142.178553000000
30
0.0
11
1064.082352000000
21
125.132874000000
31
0.0
0
LINE
5
a68
100
AcDbEntity
8
0-0
6
CONTINUOUS
62
7
100
AcDbLine
10
1091.800000000000
20
145.726950000000
30
0.0
11
1082.850040000000
21
145.414411000000
31
0.0
0
LINE
5
a69
100
AcDbEntity
8
0-0
6
CONTINUOUS
62
7
100
AcDbLine
10
1091.800000000000
20
146.460068000000
30
0.0
11
1091.800000000000
21
145.726950000000
31
0.0
0
LINE
5
a6a
100
AcDbEntity
8
0-0
6
CONTINUOUS
62
7
100
AcDbLine
10
1091.221360000000
20
151.315047000000
30
0.0
11
1091.800000000000
21
146.460067000000
31
0.0
0
LINE
5
a6b
100
AcDbEntity
8
0-0
6
CONTINUOUS
62
7
100
AcDbLine
10
1056.757568000000
20
153.960000000000
30
0.0
11
1088.242430000000
21
153.960000000000
31
0.0
0
LINE
5
a6c
100
AcDbEntity
8
0-0
6
CONTINUOUS
62
7
100
AcDbLine
10
1056.199997000000
20
154.600003000000
30
0.0
11
1056.199997000000
21
156.200003000000
31
0.0
0
LINE
5
a6d
100
AcDbEntity
8
0-0
6
CONTINUOUS
62
7
100
AcDbLine
10
1088.800000000000
20
154.600003000000
30
0.0
11
1056.199997000000
21
154.600003000000
31
0.0
0
LINE
5
a6e
100
AcDbEntity
8
0-0
6
CONTINUOUS
62
7
100
AcDbLine
10
1088.800000000000
20
156.200003000000
30
0.0
11
1088.800000000000
21
154.600003000000
31
0.0
0
LINE
5
a6f
100
AcDbEntity
8
0-0
6
CONTINUOUS
62
7
100
AcDbLine
10
1056.199997000000
20
156.200003000000
30
0.0
11
1088.800000000000
21
156.200003000000
31
0.0
0
ARC
5
a70
100
AcDbEntity
8
0-0
6
CONTINUOUS
62
7
100
AcDbCircle
10
1080.048860000000
20
135.920528000000
30
0.0
40
2.500000000000
100
AcDbArc
50
113.000000000000
51
202.510400000000
0
ARC
5
a71
100
AcDbEntity
8
0-0
6
CONTINUOUS
62
7
100
AcDbCircle
10
1074.967712000000
20
133.814772000000
30
0.0
40
3.000000000000
100
AcDbArc
50
335.292960000000
51
383.000000000000
0
ARC
5
a72
100
AcDbEntity
8
0-0
6
CONTINUOUS
62
7
100
AcDbCircle
10
1056.491470000000
20
116.238655000000
30
0.0
40
3.250000000000
100
AcDbArc
50
233.000010000000
51
413.000000000000
0
ARC
5
a73
100
AcDbEntity
8
0-0
6
CONTINUOUS
62
7
100
AcDbCircle
10
1046.508530000000
20
123.761345000000
30
0.0
40
3.250000000000
100
AcDbArc
50
53.000000000000
51
232.999990000000
0
ARC
5
a74
100
AcDbEntity
8
0-0
6
CONTINUOUS
62
7
100
AcDbCircle
10
1059.215515000000
20
137.397726000000
30
0.0
40
7.000000000000
100
AcDbArc
50
258.849700000000
51
293.000000000000
0
ARC
5
a75
100
AcDbEntity
8
0-0
6
CONTINUOUS
62
7
100
AcDbCircle
10
1052.420502000000
20
120.390732000000
30
0.0
40
11.000000000000
100
AcDbArc
50
78.849698000000
51
113.000000000000
0
ARC
5
a76
100
AcDbEntity
8
0-0
6
CONTINUOUS
62
7
100
AcDbCircle
10
1050.579498000000
20
119.609268000000
30
0.0
40
11.000000000000
100
AcDbArc
50
113.000000000000
51
147.150310000000
0
ARC
5
a77
100
AcDbEntity
8
0-0
6
CONTINUOUS
62
7
100
AcDbCircle
10
1033.625481000000
20
126.535400000000
30
0.0
40
7.000000000000
100
AcDbArc
50
293.000000000000
51
327.150300000000
0
ARC
5
a78
100
AcDbEntity
8
0-0
6
CONTINUOUS
62
7
100
AcDbCircle
10
1033.625481000000
20
126.535400000000
30
0.0
40
5.000000000000
100
AcDbArc
50
293.000000000000
51
327.150300000000
0
ARC
5
a79
100
AcDbEntity
8
0-0
6
CONTINUOUS
62
7
100
AcDbCircle
10
1059.215515000000
20
137.397726000000
30
0.0
40
5.000000000000
100
AcDbArc
50
258.849700000000
51
293.000000000000
0
ARC
5
a7a
100
AcDbEntity
8
0-0
6
CONTINUOUS
62
7
100
AcDbCircle
10
1050.579498000000
20
119.609268000000
30
0.0
40
13.000000000000
100
AcDbArc
50
113.000000000000
51
147.150310000000
0
ARC
5
a7b
100
AcDbEntity
8
0-0
6
CONTINUOUS
62
7
100
AcDbCircle
10
1052.420502000000
20
120.390732000000
30
0.0
40
13.000000000000
100
AcDbArc
50
78.849698000000
51
113.000000000000
0
ARC
5
a7c
100
AcDbEntity
8
0-0
6
CONTINUOUS
62
7
100
AcDbCircle
10
1033.189949000000
20
135.367321000000
30
0.0
40
27.000000000000
100
AcDbArc
50
250.707040000000
51
291.399720000000
0
ARC
5
a7d
100
AcDbEntity
8
0-0
6
CONTINUOUS
62
7
100
AcDbCircle
10
1053.164902000000
20
143.846186000000
30
0.0
40
27.000000000000
100
AcDbArc
50
294.600280000000
51
335.292960000000
0
ARC
5
a7e
100
AcDbEntity
8
0-0
6
CONTINUOUS
62
7
100
AcDbCircle
10
1047.358246000000
20
129.757351000000
30
0.0
40
20.000000000000
100
AcDbArc
50
257.535330000000
51
328.464660000000
0
LINE
5
a7f
100
AcDbEntity
8
0-0
6
CONTINUOUS
62
7
100
AcDbLine
10
1067.803551000000
20
116.438572000000
30
0.0
11
1063.446899000000
21
108.892632000000
31
0.0
0
LINE
5
a80
100
AcDbEntity
8
0-0
6
CONTINUOUS
62
7
100
AcDbLine
10
1045.499985000000
20
131.575829000000
30
0.0
11
1047.340996000000
21
132.357290000000
31
0.0
0
LINE
5
a81
100
AcDbEntity
8
0-0
6
CONTINUOUS
62
7
100
AcDbLine
10
1048.122459000000
20
130.516281000000
30
0.0
11
1046.281448000000
21
129.734819000000
31
0.0
0
LINE
5
a82
100
AcDbEntity
8
0-0
6
CONTINUOUS
62
7
100
AcDbLine
10
1048.464432000000
20
126.356903000000
30
0.0
11
1049.427933000000
21
125.630852000000
31
0.0
0
LINE
5
a83
100
AcDbEntity
8
0-0
6
CONTINUOUS
62
7
100
AcDbLine
10
1044.552635000000
20
121.165775000000
30
0.0
11
1045.516136000000
21
120.439724000000
31
0.0
0
LINE
5
a84
100
AcDbEntity
8
0-0
6
CONTINUOUS
62
7
100
AcDbLine
10
1035.309673000000
20
116.169426000000
30
0.0
11
1034.059338000000
21
119.115036000000
31
0.0
0
LINE
5
a85
100
AcDbEntity
8
0-0
6
CONTINUOUS
62
7
100
AcDbLine
10
1039.175793000000
20
117.810493000000
30
0.0
11
1035.309673000000
21
116.169426000000
31
0.0
0
LINE
5
a86
100
AcDbEntity
8
0-0
6
CONTINUOUS
62
7
100
AcDbLine
10
1037.843571000000
20
120.949013000000
30
0.0
11
1039.175793000000
21
117.810493000000
31
0.0
0
LINE
5
a87
100
AcDbEntity
8
0-0
6
CONTINUOUS
62
7
100
AcDbLine
10
1041.338432000000
20
125.576077000000
30
0.0
11
1039.506153000000
21
122.738342000000
31
0.0
0
LINE
5
a88
100
AcDbEntity
8
0-0
6
CONTINUOUS
62
7
100
AcDbLine
10
1037.825958000000
20
123.823215000000
30
0.0
11
1039.658241000000
21
126.660950000000
31
0.0
0
LINE
5
a89
100
AcDbEntity
8
0-0
6
CONTINUOUS
62
7
100
AcDbLine
10
1036.831406000000
20
123.333523000000
30
0.0
11
1037.027603000000
21
122.871311000000
31
0.0
0
LINE
5
a8a
100
AcDbEntity
8
0-0
6
CONTINUOUS
62
7
100
AcDbLine
10
1032.965286000000
20
121.692455000000
30
0.0
11
1036.831406000000
21
123.333523000000
31
0.0
0
LINE
5
a8b
100
AcDbEntity
8
0-0
6
CONTINUOUS
62
7
100
AcDbLine
10
1033.277874000000
20
120.956047000000
30
0.0
11
1032.965286000000
21
121.692455000000
31
0.0
0
LINE
5
a8c
100
AcDbEntity
8
0-0
6
CONTINUOUS
62
7
100
AcDbLine
10
1077.729230000000
20
134.986967000000
30
0.0
11
1077.747590000000
21
134.943701000000
31
0.0
0
LINE
5
a8d
100
AcDbEntity
8
0-0
6
CONTINUOUS
62
7
100
AcDbLine
10
1071.856689000000
20
129.494862000000
30
0.0
11
1069.957230000000
21
130.961843000000
31
0.0
0
LINE
5
a8e
100
AcDbEntity
8
0-0
6
CONTINUOUS
62
7
100
AcDbLine
10
1069.101486000000
20
129.853827000000
30
0.0
11
1071.000946000000
21
128.386845000000
31
0.0
0
LINE
5
a8f
100
AcDbEntity
8
0-0
6
CONTINUOUS
62
7
100
AcDbLine
10
1073.996040000000
20
132.264908000000
30
0.0
11
1068.878357000000
21
125.638500000000
31
0.0
0
LINE
5
a90
100
AcDbEntity
8
0-0
6
CONTINUOUS
62
7
100
AcDbLine
10
1072.096588000000
20
133.731890000000
30
0.0
11
1073.996040000000
21
132.264908000000
31
0.0
0
LINE
5
a91
100
AcDbEntity
8
0-0
6
CONTINUOUS
62
7
100
AcDbLine
10
1066.978897000000
20
127.105484000000
30
0.0
11
1072.096588000000
21
133.731890000000
31
0.0
0
LINE
5
a92
100
AcDbEntity
8
0-0
6
CONTINUOUS
62
7
100
AcDbLine
10
1068.878357000000
20
125.638500000000
30
0.0
11
1066.978897000000
21
127.105484000000
31
0.0
0
LINE
5
a93
100
AcDbEntity
8
0-0
6
CONTINUOUS
62
7
100
AcDbLine
10
1064.155998000000
20
130.877270000000
30
0.0
11
1067.560555000000
21
122.856632000000
31
0.0
0
LINE
5
a94
100
AcDbEntity
8
0-0
6
CONTINUOUS
62
7
100
AcDbLine
10
1054.547722000000
20
131.183088000000
30
0.0
11
1057.861824000000
21
130.529863000000
31
0.0
0
LINE
5
a95
100
AcDbEntity
8
0-0
6
CONTINUOUS
62
7
100
AcDbLine
10
1058.248596000000
20
132.492111000000
30
0.0
11
1054.934486000000
21
133.145334000000
31
0.0
0
LINE
5
a96
100
AcDbEntity
8
0-0
6
CONTINUOUS
62
7
100
AcDbLine
10
1081.972580000000
20
141.625725000000
30
0.0
11
1061.169167000000
21
132.795198000000
31
0.0
0
LINE
5
a97
100
AcDbEntity
8
0-0
6
CONTINUOUS
62
7
100
AcDbLine
10
1082.754040000000
20
139.784714000000
30
0.0
11
1081.972580000000
21
141.625725000000
31
0.0
0
LINE
5
a98
100
AcDbEntity
8
0-0
6
CONTINUOUS
62
7
100
AcDbLine
10
1061.950630000000
20
130.954189000000
30
0.0
11
1082.754040000000
21
139.784714000000
31
0.0
0
LINE
5
a99
100
AcDbEntity
8
0-0
6
CONTINUOUS
62
7
100
AcDbLine
10
1065.571228000000
20
119.865292000000
30
0.0
11
1061.002068000000
21
130.629551000000
31
0.0
0
LINE
5
a9a
100
AcDbEntity
8
0-0
6
CONTINUOUS
62
7
100
AcDbLine
10
1057.483864000000
20
119.560272000000
30
0.0
11
1058.447372000000
21
118.834217000000
31
0.0
0
LINE
5
a9b
100
AcDbEntity
8
0-0
6
CONTINUOUS
62
7
100
AcDbLine
10
1053.572067000000
20
114.369141000000
30
0.0
11
1054.535576000000
21
113.643085000000
31
0.0
0
LINE
5
a9c
100
AcDbEntity
8
0-1
6
PHANTOM
62
4
100
AcDbLine
10
964.713203435596
20
301.360987915224
30
0.0
11
964.713203435596
21
213.884836349640
31
0.0
0
LINE
5
a9d
100
AcDbEntity
8
0-1
6
PHANTOM
62
4
100
AcDbLine
10
939.713203435596
20
301.360987915224
30
0.0
11
939.713203435596
21
220.583566160418
31
0.0
0
LINE
5
a9e
100
AcDbEntity
8
0-1
6
PHANTOM
62
4
100
AcDbLine
10
937.630243692195
20
221.141693541529
30
0.0
11
967.521397848650
21
213.132382924473
31
0.0
0
LINE
5
a9f
100
AcDbEntity
8
0-1
6
PHANTOM
62
4
100
AcDbLine
10
877.636559579341
20
276.360987915224
30
0.0
11
964.713203435596
21
276.360987915224
31
0.0
0
LINE
5
aa0
100
AcDbEntity
8
0-1
6
PHANTOM
62
4
100
AcDbLine
10
870.937829768563
20
301.360987915224
30
0.0
11
964.713203435596
21
301.360987915224
31
0.0
0
LINE
5
aa1
100
AcDbEntity
8
0-1
6
PHANTOM
62
4
100
AcDbLine
10
870.370384046955
20
303.478724178804
30
0.0
11
878.384166860747
21
273.570879556909
31
0.0
0
LINE
5
aa2
100
AcDbEntity
8
0-1
6
CENTER
62
4
100
AcDbLine
10
888.644660940673
20
288.860987915224
30
0.0
11
936.330276418116
21
288.860987915224
31
0.0
0
LINE
5
aa3
100
AcDbEntity
8
0-1
6
CENTER
62
4
100
AcDbLine
10
952.213203435596
20
267.516719144676
30
0.0
11
952.213203435596
21
225.292445420301
31
0.0
0
LINE
5
aa4
100
AcDbEntity
8
0-1
6
CENTER
62
4
100
AcDbLine
10
943.381179890867
20
267.647784479628
30
0.0
11
880.000002000000
21
267.647784479628
31
0.0
0
LINE
5
aa5
100
AcDbEntity
8
0-1
6
CENTER
62
4
100
AcDbLine
10
931.000000000000
20
256.033819203339
30
0.0
11
931.000000000000
21
279.201073470949
31
0.0
0
LINE
5
aa6
100
AcDbEntity
8
0-1
6
CENTER
62
4
100
AcDbLine
10
910.000000000000
20
235.916551479628
30
0.0
11
910.000000000000
21
290.916551479628
31
0.0
0
LINE
5
aa7
100
AcDbEntity
8
0-1
6
CENTER
62
4
100
AcDbLine
10
955.041630560343
20
263.405143792509
30
0.0
11
949.384776310850
21
257.748289543017
31
0.0
0
LINE
5
aa8
100
AcDbEntity
8
0-1
6
CENTER
62
4
100
AcDbLine
10
955.041630560343
20
257.748289543017
30
0.0
11
949.384776310850
21
263.405143792509
31
0.0
0
LINE
5
aa9
100
AcDbEntity
8
0-1
6
CENTER
62
4
100
AcDbLine
10
921.100505063388
20
291.689415039971
30
0.0
11
926.757359312881
21
286.032560790478
31
0.0
0
LINE
5
aaa
100
AcDbEntity
8
0-1
6
CENTER
62
4
100
AcDbLine
10
921.100505063388
20
286.032560790478
30
0.0
11
926.757359312881
21
291.689415039971
31
0.0
0
LINE
5
aab
100
AcDbEntity
8
0-1
6
CENTER
62
4
100
AcDbLine
10
955.041630560343
20
229.464018295554
30
0.0
11
949.384776310850
21
235.120872545047
31
0.0
0
LINE
5
aac
100
AcDbEntity
8
0-1
6
CENTER
62
4
100
AcDbLine
10
949.384776310850
20
229.464018295554
30
0.0
11
955.041630560343
21
235.120872545047
31
0.0
0
LINE
5
aad
100
AcDbEntity
8
0-1
6
CENTER
62
4
100
AcDbLine
10
892.816233815926
20
291.689415039971
30
0.0
11
898.473088065419
21
286.032560790478
31
0.0
0
LINE
5
aae
100
AcDbEntity
8
0-1
6
CENTER
62
4
100
AcDbLine
10
898.473088065419
20
291.689415039971
30
0.0
11
892.816233815926
21
286.032560790478
31
0.0
0
LINE
5
aaf
100
AcDbEntity
8
0-0
6
CONTINUOUS
62
7
100
AcDbLine
10
903.834488000000
20
243.945987479628
30
0.0
11
903.834488000000
21
253.330271479628
31
0.0
0
LINE
5
ab0
100
AcDbEntity
8
0-0
6
CONTINUOUS
62
7
100
AcDbLine
10
916.165512000000
20
243.945987479628
30
0.0
11
916.165512000000
21
253.330271479628
31
0.0
0
LINE
5
ab1
100
AcDbEntity
8
0-0
6
CONTINUOUS
62
7
100
AcDbLine
10
916.858333000000
20
255.247802479628
30
0.0
11
919.358354188970
21
255.247799730315
31
0.0
0
ARC
5
ab2
100
AcDbEntity
8
0-0
6
CONTINUOUS
62
7
100
AcDbCircle
10
930.989707000000
20
242.438959479628
30
0.0
40
8.226440000000
100
AcDbArc
50
283.736122000000
51
320.808931442830
0
ARC
5
ab3
100
AcDbEntity
8
0-0
6
CONTINUOUS
62
7
100
AcDbCircle
10
914.460694000000
20
239.347785479628
30
0.0
40
4.000000000000
100
AcDbArc
50
59.859457000000
51
90.000000000000
0
ARC
5
ab4
100
AcDbEntity
8
0-0
6
CONTINUOUS
62
7
100
AcDbCircle
10
931.943081000000
20
238.447798479628
30
0.0
40
4.000000000000
100
AcDbArc
50
239.859457000000
51
270.000000000000
0
ARC
5
ab5
100
AcDbEntity
8
0-0
6
CONTINUOUS
62
7
100
AcDbCircle
10
919.165512000000
20
253.330271479628
30
0.0
40
3.000000000000
100
AcDbArc
50
140.269530000000
51
179.999997000000
0
LINE
5
ab6
100
AcDbEntity
8
0-0
6
CONTINUOUS
62
7
100
AcDbLine
10
931.943081000000
20
234.447798479628
30
0.0
11
932.943080000000
21
234.447798479628
31
0.0
0
LINE
5
ab7
100
AcDbEntity
8
0-0
6
CONTINUOUS
62
7
100
AcDbLine
10
916.469185000000
20
242.806971479628
30
0.0
11
929.934590000000
21
234.988613479628
31
0.0
0
ARC
5
ab8
100
AcDbEntity
8
0-0
6
CONTINUOUS
62
7
100
AcDbCircle
10
944.916240000000
20
267.647784479628
30
0.0
40
41.016238000000
100
AcDbArc
50
175.872769234765
51
201.451189000000
0
LINE
5
ab9
100
AcDbEntity
8
0-0
6
CONTINUOUS
62
7
100
AcDbLine
10
887.664345000000
20
277.647784479628
30
0.0
11
896.958369439657
21
277.647784479628
31
0.0
0
LINE
5
aba
100
AcDbEntity
8
0-0
6
CONTINUOUS
62
7
100
AcDbLine
10
896.758372439657
20
277.847781479628
30
0.0
11
894.000000000000
21
277.847781479628
31
0.0
0
ARC
5
abb
100
AcDbEntity
8
0-0
6
CONTINUOUS
62
7
100
AcDbCircle
10
888.722226000000
20
251.647792479628
30
0.0
40
1.250015000000
100
AcDbArc
50
306.870241000000
51
413.129759000000
0
ARC
5
abc
100
AcDbEntity
8
0-0
6
CONTINUOUS
62
7
100
AcDbCircle
10
905.539306000000
20
239.347785479628
30
0.0
40
4.000000000000
100
AcDbArc
50
90.000000000000
51
120.140543000000
0
ARC
5
abd
100
AcDbEntity
8
0-0
6
CONTINUOUS
62
7
100
AcDbCircle
10
888.056919000000
20
238.447798479628
30
0.0
40
4.000000000000
100
AcDbArc
50
270.000000000000
51
300.140543000000
0
ARC
5
abe
100
AcDbEntity
8
0-0
6
CONTINUOUS
62
7
100
AcDbCircle
10
889.010293000000
20
242.438959479628
30
0.0
40
8.226440000000
100
AcDbArc
50
93.750111000000
51
256.263878000000
0
ARC
5
abf
100
AcDbEntity
8
0-0
6
CONTINUOUS
62
7
100
AcDbCircle
10
890.010292000000
20
242.438959479628
30
0.0
40
8.226440000000
100
AcDbArc
50
93.750111000000
51
256.263878000000
0
ARC
5
ac0
100
AcDbEntity
8
0-0
6
CONTINUOUS
62
7
100
AcDbCircle
10
896.797188000000
20
253.321666479628
30
0.0
40
3.000000000000
100
AcDbArc
50
0.000003000000
51
30.578070000000
0
ARC
5
ac1
100
AcDbEntity
8
0-0
6
CONTINUOUS
62
7
100
AcDbCircle
10
897.197182000000
20
253.330271479628
30
0.0
40
3.000000000000
100
AcDbArc
50
0.000003000000
51
39.730470000000
0
ARC
5
ac2
100
AcDbEntity
8
0-0
6
CONTINUOUS
62
7
100
AcDbCircle
10
900.834488000000
20
253.330271479628
30
0.0
40
3.000000000000
100
AcDbArc
50
0.000003000000
51
39.730470000000
0
ARC
5
ac3
100
AcDbEntity
8
0-0
6
CONTINUOUS
62
7
100
AcDbCircle
10
900.500000000000
20
256.647784479628
30
0.0
40
1.000000000000
100
AcDbArc
50
180.000000000000
51
270.000000000000
0
ARC
5
ac4
100
AcDbEntity
8
0-0
6
CONTINUOUS
62
7
100
AcDbCircle
10
887.664345000000
20
259.647784479628
30
0.0
40
2.000000000000
100
AcDbArc
50
189.494240000000
51
270.000000000000
0
ARC
5
ac5
100
AcDbEntity
8
0-0
6
CONTINUOUS
62
7
100
AcDbCircle
10
887.664345000000
20
275.647784479628
30
0.0
40
2.000000000000
100
AcDbArc
50
89.999990000000
51
170.505760000000
0
ARC
5
ac6
100
AcDbEntity
8
0-0
6
CONTINUOUS
62
7
100
AcDbCircle
10
935.500002000000
20
267.647784479628
30
0.0
40
50.500000000000
100
AcDbArc
50
170.505760000000
51
189.494240000000
0
LINE
5
ac7
100
AcDbEntity
8
0-0
6
CONTINUOUS
62
7
100
AcDbLine
10
894.000000000000
20
277.847781479628
30
0.0
11
894.000000000000
21
277.647784479628
31
0.0
0
LINE
5
ac8
100
AcDbEntity
8
0-0
6
CONTINUOUS
62
7
100
AcDbLine
10
888.056919000000
20
234.447798479628
30
0.0
11
887.056920000000
21
234.447798479628
31
0.0
0
LINE
5
ac9
100
AcDbEntity
8
0-0
6
CONTINUOUS
62
7
100
AcDbLine
10
903.530815000000
20
242.806971479628
30
0.0
11
890.065410000000
21
234.988613479628
31
0.0
0
LINE
5
aca
100
AcDbEntity
8
0-0
6
CONTINUOUS
62
7
100
AcDbLine
10
886.222745000000
20
250.647784479628
30
0.0
11
886.222745000000
21
252.647799479628
31
0.0
0
LINE
5
acb
100
AcDbEntity
8
0-0
6
CONTINUOUS
62
7
100
AcDbLine
10
889.472241000000
20
250.647784479628
30
0.0
11
886.222745000000
21
250.647784479628
31
0.0
0
LINE
5
acc
100
AcDbEntity
8
0-0
6
CONTINUOUS
62
7
100
AcDbLine
10
899.500000000000
20
256.647784479628
30
0.0
11
899.500000000000
21
257.647784479628
31
0.0
0
LINE
5
acd
100
AcDbEntity
8
0-0
6
CONTINUOUS
62
7
100
AcDbLine
10
899.797188000000
20
253.321666479628
30
0.0
11
899.797188000000
21
252.647799479628
31
0.0
0
LINE
5
ace
100
AcDbEntity
8
0-0
6
CONTINUOUS
62
7
100
AcDbLine
10
900.197182000000
20
250.421400479628
30
0.0
11
900.197182000000
21
253.330271479628
31
0.0
0
LINE
5
acf
100
AcDbEntity
8
0-0
6
CONTINUOUS
62
7
100
AcDbLine
10
899.797188000000
20
252.647799479628
30
0.0
11
900.197182000000
21
250.421400479628
31
0.0
0
LINE
5
ad0
100
AcDbEntity
8
0-0
6
CONTINUOUS
62
7
100
AcDbLine
10
886.222745000000
20
252.647799479628
30
0.0
11
899.797188000000
21
252.647799479628
31
0.0
0
LINE
5
ad1
100
AcDbEntity
8
0-0
6
CONTINUOUS
62
7
100
AcDbLine
10
905.137701000000
20
257.647784479628
30
0.0
11
887.664345000000
21
257.647784479628
31
0.0
0
LINE
5
ad2
100
AcDbEntity
8
0-0
6
CONTINUOUS
62
7
100
AcDbLine
10
900.500000000000
20
255.647784479628
30
0.0
11
905.694664000000
21
255.647784479628
31
0.0
0
LINE
5
ad3
100
AcDbEntity
8
0-0
6
CONTINUOUS
62
7
100
AcDbLine
10
899.504364000000
20
255.247798479628
30
0.0
11
899.380002000000
21
254.847796479628
31
0.0
0
LINE
5
ad4
100
AcDbEntity
8
0-0
6
CONTINUOUS
62
7
100
AcDbLine
10
903.141667000000
20
255.247802479628
30
0.0
11
899.504364000000
21
255.247798479628
31
0.0
0
LINE
5
ad5
100
AcDbEntity
8
0-0
6
CONTINUOUS
62
7
100
AcDbLine
10
906.014675000000
20
254.647784479628
30
0.0
11
903.529698000000
21
254.647784479628
31
0.0
0
LINE
5
ad6
100
AcDbEntity
8
0-0
6
CONTINUOUS
62
7
100
AcDbLine
10
903.834488000000
20
252.647799479628
30
0.0
11
914.000000000000
21
252.647799479628
31
0.0
0
LINE
5
ad7
100
AcDbEntity
8
0-0
6
CONTINUOUS
62
7
100
AcDbLine
10
914.000000000000
20
243.347785479628
30
0.0
11
905.539306000000
21
243.347785479628
31
0.0
0
ARC
5
ad8
100
AcDbEntity
8
0-0
6
CONTINUOUS
62
7
100
AcDbCircle
10
880.857811000000
20
242.438959479628
30
0.0
40
8.226440000000
100
AcDbArc
50
93.750111000000
51
256.263878000000
0
ARC
5
ad9
100
AcDbEntity
8
0-0
6
CONTINUOUS
62
7
100
AcDbCircle
10
924.603339523332
20
289.600794142400
30
0.0
40
6.000000000000
100
AcDbArc
50
45.000000000000
51
89.485131000000
0
ARC
5
ada
100
AcDbEntity
8
0-0
6
CONTINUOUS
62
7
100
AcDbCircle
10
952.953008955665
20
261.251124710067
30
0.0
40
6.000000000000
100
AcDbArc
50
0.514869000000
51
45.000000000000
0
ARC
5
adb
100
AcDbEntity
8
0-0
6
CONTINUOUS
62
7
100
AcDbCircle
10
931.000000000000
20
267.647784479628
30
0.0
40
19.300000000000
100
AcDbArc
50
16.742529000000
51
73.257471000000
0
CIRCLE
5
adc
100
AcDbEntity
8
0-0
6
CONTINUOUS
62
7
100
AcDbCircle
10
931.000000000000
20
267.647784479628
30
0.0
40
7.500000000000
0
CIRCLE
5
add
100
AcDbEntity
8
0-0
6
CONTINUOUS
62
7
100
AcDbCircle
10
952.213203435596
20
260.576716667763
30
0.0
40
2.600000000000
0
CIRCLE
5
ade
100
AcDbEntity
8
0-0
6
CONTINUOUS
62
7
100
AcDbCircle
10
923.928932188134
20
288.860987915224
30
0.0
40
2.600000000000
0
CIRCLE
5
adf
100
AcDbEntity
8
0-0
6
CONTINUOUS
62
7
100
AcDbCircle
10
931.000000000000
20
267.647784479628
30
0.0
40
5.750000000000
0
ARC
5
ae0
100
AcDbEntity
8
0-0
6
CONTINUOUS
62
7
100
AcDbCircle
10
895.644660940673
20
288.860987915224
30
0.0
40
7.000000000000
100
AcDbArc
50
89.485131000000
51
225.000010000000
0
CIRCLE
5
ae1
100
AcDbEntity
8
0-0
6
CONTINUOUS
62
7
100
AcDbCircle
10
952.213203435596
20
232.292445420301
30
0.0
40
2.600000000000
0
ARC
5
ae2
100
AcDbEntity
8
0-0
6
CONTINUOUS
62
7
100
AcDbCircle
10
952.213203435596
20
232.292445420301
30
0.0
40
7.000000000000
100
AcDbArc
50
224.999990000000
51
360.514869000000
0
CIRCLE
5
ae3
100
AcDbEntity
8
0-0
6
CONTINUOUS
62
7
100
AcDbCircle
10
895.644660940673
20
288.860987915224
30
0.0
40
2.600000000000
0
LINE
5
ae4
100
AcDbEntity
8
0-0
6
CONTINUOUS
62
7
100
AcDbLine
10
928.845980210451
20
293.843434829520
30
0.0
11
957.195649642784
21
265.493765397186
31
0.0
0
LINE
5
ae5
100
AcDbEntity
8
0-0
6
CONTINUOUS
62
7
100
AcDbLine
10
895.707563038606
20
295.860705117334
30
0.0
11
924.657255708290
21
295.600552047254
31
0.0
0
LINE
5
ae6
100
AcDbEntity
8
0-0
6
CONTINUOUS
62
7
100
AcDbLine
10
947.263455967291
20
227.342697951995
30
0.0
11
890.694913472367
21
283.911240446919
31
0.0
0
LINE
5
ae7
100
AcDbEntity
8
0-0
6
CONTINUOUS
62
7
100
AcDbLine
10
958.952766860519
20
261.305040895026
30
0.0
11
959.212920637706
21
232.355347518235
31
0.0
0
LINE
5
ae8
100
AcDbEntity
8
0-1
6
CONTINUOUS
62
4
100
AcDbLine
10
954.363203530964
20
166.022129611835
30
0.0
11
954.363203530964
21
166.700003000000
31
0.0
0
LINE
5
ae9
100
AcDbEntity
8
0-1
6
CONTINUOUS
62
4
100
AcDbLine
10
954.363203530964
20
158.700003000000
30
0.0
11
954.363203530964
21
161.600002000000
31
0.0
0
LINE
5
aea
100
AcDbEntity
8
0-1
6
CONTINUOUS
62
4
100
AcDbLine
10
950.063203340229
20
166.022129324313
30
0.0
11
950.063203340229
21
166.700003000000
31
0.0
0
LINE
5
aeb
100
AcDbEntity
8
0-1
6
CONTINUOUS
62
4
100
AcDbLine
10
950.063203340229
20
158.700003000000
30
0.0
11
950.063203340229
21
161.600002000000
31
0.0
0
LINE
5
aec
100
AcDbEntity
8
0-1
6
CONTINUOUS
62
4
100
AcDbLine
10
954.713203435596
20
166.350002618530
30
0.0
11
949.713203435596
21
166.350002618530
31
0.0
0
ARC
5
aed
100
AcDbEntity
8
0-1
6
PHANTOM
62
4
100
AcDbCircle
10
945.613203435596
20
168.824266068712
30
0.0
40
0.300000000000
100
AcDbArc
50
315.000000000000
51
360.000000000000
0
ARC
5
aee
100
AcDbEntity
8
0-1
6
PHANTOM
62
4
100
AcDbCircle
10
944.588939366884
20
167.800002000000
30
0.0
40
0.300000000000
100
AcDbArc
50
270.000000000000
51
315.000000000000
0
ARC
5
aef
100
AcDbEntity
8
0-1
6
PHANTOM
62
4
100
AcDbCircle
10
941.813203435596
20
167.800002000000
30
0.0
40
0.300000000000
100
AcDbArc
50
180.000000000000
51
270.000000000000
0
ARC
5
af0
100
AcDbEntity
8
0-1
6
PHANTOM
62
4
100
AcDbCircle
10
941.213203435596
20
169.600002000000
30
0.0
40
0.300000000000
100
AcDbArc
50
0.000000000000
51
90.000000000000
0
ARC
5
af1
100
AcDbEntity
8
0-1
6
PHANTOM
62
4
100
AcDbCircle
10
958.813203435597
20
168.824266068712
30
0.0
40
0.300000000000
100
AcDbArc
50
180.000000000000
51
225.000000000000
0
ARC
5
af2
100
AcDbEntity
8
0-1
6
PHANTOM
62
4
100
AcDbCircle
10
963.213203435596
20
169.600002000000
30
0.0
40
0.300000000000
100
AcDbArc
50
90.000000000000
51
180.000000000000
0
ARC
5
af3
100
AcDbEntity
8
0-1
6
PHANTOM
62
4
100
AcDbCircle
10
962.613203435596
20
167.800002000000
30
0.0
40
0.300000000000
100
AcDbArc
50
270.000000000000
51
360.000000000000
0
ARC
5
af4
100
AcDbEntity
8
0-1
6
PHANTOM
62
4
100
AcDbCircle
10
959.837467504308
20
167.800002000000
30
0.0
40
0.300000000000
100
AcDbArc
50
225.000000000000
51
270.000000000000
0
ARC
5
af5
100
AcDbEntity
8
0-1
6
PHANTOM
62
4
100
AcDbCircle
10
947.537467504308
20
166.900001999999
30
0.0
40
0.300000000000
100
AcDbArc
50
90.000000000000
51
135.000000000000
0
ARC
5
af6
100
AcDbEntity
8
0-1
6
PHANTOM
62
4
100
AcDbCircle
10
948.313203435596
20
162.500002000000
30
0.0
40
0.300000000000
100
AcDbArc
50
0.000000000000
51
90.000000000000
0
ARC
5
af7
100
AcDbEntity
8
0-1
6
PHANTOM
62
4
100
AcDbCircle
10
946.513203435596
20
163.100002000000
30
0.0
40
0.300000000000
100
AcDbArc
50
180.000000000000
51
270.000000000000
0
ARC
5
af8
100
AcDbEntity
8
0-1
6
PHANTOM
62
4
100
AcDbCircle
10
946.513203435596
20
165.875737931288
30
0.0
40
0.300000000000
100
AcDbArc
50
135.000000000000
51
180.000000000000
0
ARC
5
af9
100
AcDbEntity
8
0-1
6
PHANTOM
62
4
100
AcDbCircle
10
956.888939366884
20
166.900001999999
30
0.0
40
0.300000000000
100
AcDbArc
50
45.000000000000
51
90.000000000000
0
ARC
5
afa
100
AcDbEntity
8
0-1
6
PHANTOM
62
4
100
AcDbCircle
10
957.913203435596
20
165.875737931288
30
0.0
40
0.300000000000
100
AcDbArc
50
0.000000000000
51
45.000000000000
0
ARC
5
afb
100
AcDbEntity
8
0-1
6
PHANTOM
62
4
100
AcDbCircle
10
957.913203435596
20
163.100002000000
30
0.0
40
0.300000000000
100
AcDbArc
50
270.000000000000
51
360.000000000000
0
ARC
5
afc
100
AcDbEntity
8
0-1
6
PHANTOM
62
4
100
AcDbCircle
10
956.113203435596
20
162.500002000000
30
0.0
40
0.300000000000
100
AcDbArc
50
90.000000000000
51
180.000000000000
0
ARC
5
afd
100
AcDbEntity
8
0-1
6
PHANTOM
62
4
100
AcDbCircle
10
948.313203435596
20
161.300002000000
30
0.0
40
0.300000000000
100
AcDbArc
50
270.000000000000
51
360.000000000000
0
ARC
5
afe
100
AcDbEntity
8
0-1
6
PHANTOM
62
4
100
AcDbCircle
10
956.113203435596
20
161.300002000000
30
0.0
40
0.300000000000
100
AcDbArc
50
180.000000000000
51
270.000000000000
0
ARC
5
aff
100
AcDbEntity
8
0-1
6
PHANTOM
62
4
100
AcDbCircle
10
964.413203435596
20
169.600002000000
30
0.0
40
0.300000000000
100
AcDbArc
50
0.000000000000
51
90.000000000000
0
ARC
5
b00
100
AcDbEntity
8
0-1
6
PHANTOM
62
4
100
AcDbCircle
10
940.013203435596
20
169.600002000000
30
0.0
40
0.300000000000
100
AcDbArc
50
90.000000000000
51
180.000000000000
0
ARC
5
b01
100
AcDbEntity
8
0-1
6
PHANTOM
62
4
100
AcDbCircle
10
940.713203435596
20
162.000002000000
30
0.0
40
1.000000000000
100
AcDbArc
50
180.000000000000
51
270.000000000000
0
ARC
5
b02
100
AcDbEntity
8
0-1
6
PHANTOM
62
4
100
AcDbCircle
10
963.713203435596
20
162.000002000000
30
0.0
40
1.000000000000
100
AcDbArc
50
270.000000000000
51
360.000000000000
0
LINE
5
b03
100
AcDbEntity
8
0-1
6
PHANTOM
62
4
100
AcDbLine
10
948.313203435596
20
161.000002000000
30
0.0
11
940.713203435596
21
161.000002000000
31
0.0
0
LINE
5
b04
100
AcDbEntity
8
0-1
6
PHANTOM
62
4
100
AcDbLine
10
948.613203435596
20
162.500002000000
30
0.0
11
948.613203435596
21
161.300002000000
31
0.0
0
LINE
5
b05
100
AcDbEntity
8
0-1
6
PHANTOM
62
4
100
AcDbLine
10
946.513203435596
20
162.800001999999
30
0.0
11
948.313203435596
21
162.800001999999
31
0.0
0
LINE
5
b06
100
AcDbEntity
8
0-1
6
PHANTOM
62
4
100
AcDbLine
10
946.213203435596
20
165.875737931288
30
0.0
11
946.213203435596
21
163.100002000000
31
0.0
0
LINE
5
b07
100
AcDbEntity
8
0-1
6
PHANTOM
62
4
100
AcDbLine
10
947.325335469952
20
167.112134034356
30
0.0
11
946.301071401240
21
166.087869965644
31
0.0
0
LINE
5
b08
100
AcDbEntity
8
0-1
6
PHANTOM
62
4
100
AcDbLine
10
952.013203435596
20
167.200002000000
30
0.0
11
947.537467504308
21
167.200002000000
31
0.0
0
LINE
5
b09
100
AcDbEntity
8
0-1
6
PHANTOM
62
4
100
AcDbLine
10
952.213203435596
20
167.400002000000
30
0.0
11
952.013203435596
21
167.200002000000
31
0.0
0
LINE
5
b0a
100
AcDbEntity
8
0-1
6
PHANTOM
62
4
100
AcDbLine
10
952.413203435596
20
167.200002000000
30
0.0
11
952.213203435596
21
167.400002000000
31
0.0
0
LINE
5
b0b
100
AcDbEntity
8
0-1
6
PHANTOM
62
4
100
AcDbLine
10
956.888939366884
20
167.200002000000
30
0.0
11
952.413203435596
21
167.200002000000
31
0.0
0
LINE
5
b0c
100
AcDbEntity
8
0-1
6
PHANTOM
62
4
100
AcDbLine
10
958.125335469952
20
166.087869965644
30
0.0
11
957.101071401240
21
167.112134034356
31
0.0
0
LINE
5
b0d
100
AcDbEntity
8
0-1
6
PHANTOM
62
4
100
AcDbLine
10
958.213203435596
20
163.100002000000
30
0.0
11
958.213203435596
21
165.875737931288
31
0.0
0
LINE
5
b0e
100
AcDbEntity
8
0-1
6
PHANTOM
62
4
100
AcDbLine
10
956.113203435596
20
162.800001999999
30
0.0
11
957.913203435596
21
162.800001999999
31
0.0
0
LINE
5
b0f
100
AcDbEntity
8
0-1
6
PHANTOM
62
4
100
AcDbLine
10
955.813203435596
20
161.300002000000
30
0.0
11
955.813203435596
21
162.500002000000
31
0.0
0
LINE
5
b10
100
AcDbEntity
8
0-1
6
PHANTOM
62
4
100
AcDbLine
10
963.713203435596
20
161.000002000000
30
0.0
11
956.113203435596
21
161.000002000000
31
0.0
0
LINE
5
b11
100
AcDbEntity
8
0-1
6
PHANTOM
62
4
100
AcDbLine
10
964.713203435596
20
169.600002000000
30
0.0
11
964.713203435596
21
162.000002000000
31
0.0
0
LINE
5
b12
100
AcDbEntity
8
0-1
6
PHANTOM
62
4
100
AcDbLine
10
963.213203435596
20
169.900002000000
30
0.0
11
964.413203435596
21
169.900002000000
31
0.0
0
LINE
5
b13
100
AcDbEntity
8
0-1
6
PHANTOM
62
4
100
AcDbLine
10
962.913203435597
20
167.800002000000
30
0.0
11
962.913203435597
21
169.600002000000
31
0.0
0
LINE
5
b14
100
AcDbEntity
8
0-1
6
PHANTOM
62
4
100
AcDbLine
10
959.837467504308
20
167.500002000000
30
0.0
11
962.613203435596
21
167.500002000000
31
0.0
0
LINE
5
b15
100
AcDbEntity
8
0-1
6
PHANTOM
62
4
100
AcDbLine
10
958.601071401240
20
168.612134034356
30
0.0
11
959.625335469952
21
167.587869965644
31
0.0
0
LINE
5
b16
100
AcDbEntity
8
0-1
6
PHANTOM
62
4
100
AcDbLine
10
958.513203435597
20
178.175737931288
30
0.0
11
958.513203435597
21
168.824266068712
31
0.0
0
LINE
5
b17
100
AcDbEntity
8
0-1
6
PHANTOM
62
4
100
AcDbLine
10
945.913203435596
20
168.824266068712
30
0.0
11
945.913203435596
21
178.175737931288
31
0.0
0
LINE
5
b18
100
AcDbEntity
8
0-1
6
PHANTOM
62
4
100
AcDbLine
10
944.801071401240
20
167.587869965644
30
0.0
11
945.825335469952
21
168.612134034356
31
0.0
0
LINE
5
b19
100
AcDbEntity
8
0-1
6
PHANTOM
62
4
100
AcDbLine
10
941.813203435596
20
167.500002000000
30
0.0
11
944.588939366884
21
167.500002000000
31
0.0
0
LINE
5
b1a
100
AcDbEntity
8
0-1
6
PHANTOM
62
4
100
AcDbLine
10
941.513203435596
20
169.600002000000
30
0.0
11
941.513203435596
21
167.800002000000
31
0.0
0
LINE
5
b1b
100
AcDbEntity
8
0-1
6
PHANTOM
62
4
100
AcDbLine
10
940.013203435596
20
169.900002000000
30
0.0
11
941.213203435596
21
169.900002000000
31
0.0
0
LINE
5
b1c
100
AcDbEntity
8
0-1
6
PHANTOM
62
4
100
AcDbLine
10
939.713203435596
20
162.000002000000
30
0.0
11
939.713203435596
21
169.600002000000
31
0.0
0
LINE
5
b1d
100
AcDbEntity
8
0-1
6
CENTER
62
4
100
AcDbLine
10
937.500000000000
20
120.000000000000
30
0.0
11
882.500000000000
21
120.000000000000
31
0.0
0
LINE
5
b1e
100
AcDbEntity
8
0-1
6
CENTER
62
4
100
AcDbLine
10
952.213203435596
20
163.259052000000
30
0.0
11
952.213203435596
21
157.021383000000
31
0.0
0
LINE
5
b1f
100
AcDbEntity
8
0-1
6
CENTER
62
4
100
AcDbLine
10
931.000000000000
20
130.266636000000
30
0.0
11
931.000000000000
21
166.000277000000
31
0.0
0
LINE
5
b20
100
AcDbEntity
8
0-1
6
CENTER
62
4
100
AcDbLine
10
910.000000000000
20
147.500000000000
30
0.0
11
910.000000000000
21
92.500000000000
31
0.0
0
LINE
5
b21
100
AcDbEntity
8
0-1
6
CENTER
62
4
100
AcDbLine
10
895.644660940673
20
163.155090000000
30
0.0
11
895.644660940673
21
157.021383000000
31
0.0
0
ARC
5
b22
100
AcDbEntity
8
0-1
6
PHANTOM
62
4
100
AcDbCircle
10
945.613203435596
20
178.175737931288
30
0.0
40
0.300000000000
100
AcDbArc
50
0.000000000000
51
45.000000000000
0
ARC
5
b23
100
AcDbEntity
8
0-1
6
PHANTOM
62
4
100
AcDbCircle
10
941.213203435596
20
177.400002000000
30
0.0
40
0.300000000000
100
AcDbArc
50
270.000000000000
51
360.000000000000
0
ARC
5
b24
100
AcDbEntity
8
0-1
6
PHANTOM
62
4
100
AcDbCircle
10
941.813203435596
20
179.200002000000
30
0.0
40
0.300000000000
100
AcDbArc
50
90.000000000000
51
180.000000000000
0
ARC
5
b25
100
AcDbEntity
8
0-1
6
PHANTOM
62
4
100
AcDbCircle
10
944.588939366884
20
179.200002000000
30
0.0
40
0.300000000000
100
AcDbArc
50
45.000000000000
51
90.000000000000
0
ARC
5
b26
100
AcDbEntity
8
0-1
6
PHANTOM
62
4
100
AcDbCircle
10
956.888939366884
20
180.100002000000
30
0.0
40
0.300000000000
100
AcDbArc
50
270.000000000000
51
315.000000000000
0
ARC
5
b27
100
AcDbEntity
8
0-1
6
PHANTOM
62
4
100
AcDbCircle
10
956.113203435596
20
184.500002000000
30
0.0
40
0.300000000000
100
AcDbArc
50
180.000000000000
51
270.000000000000
0
ARC
5
b28
100
AcDbEntity
8
0-1
6
PHANTOM
62
4
100
AcDbCircle
10
957.913203435596
20
183.900002000000
30
0.0
40
0.300000000000
100
AcDbArc
50
0.000000000000
51
90.000000000000
0
ARC
5
b29
100
AcDbEntity
8
0-1
6
PHANTOM
62
4
100
AcDbCircle
10
957.913203435596
20
181.124266068712
30
0.0
40
0.300000000000
100
AcDbArc
50
315.000000000000
51
360.000000000000
0
ARC
5
b2a
100
AcDbEntity
8
0-1
6
PHANTOM
62
4
100
AcDbCircle
10
947.537467504308
20
180.100002000000
30
0.0
40
0.300000000000
100
AcDbArc
50
225.000000000000
51
270.000000000000
0
ARC
5
b2b
100
AcDbEntity
8
0-1
6
PHANTOM
62
4
100
AcDbCircle
10
946.513203435596
20
181.124266068712
30
0.0
40
0.300000000000
100
AcDbArc
50
180.000000000000
51
225.000000000000
0
ARC
5
b2c
100
AcDbEntity
8
0-1
6
PHANTOM
62
4
100
AcDbCircle
10
946.513203435596
20
183.900002000000
30
0.0
40
0.300000000000
100
AcDbArc
50
90.000000000000
51
180.000000000000
0
ARC
5
b2d
100
AcDbEntity
8
0-1
6
PHANTOM
62
4
100
AcDbCircle
10
948.313203435596
20
184.500002000000
30
0.0
40
0.300000000000
100
AcDbArc
50
270.000000000000
51
360.000000000000
0
ARC
5
b2e
100
AcDbEntity
8
0-1
6
PHANTOM
62
4
100
AcDbCircle
10
958.813203435597
20
178.175737931288
30
0.0
40
0.300000000000
100
AcDbArc
50
135.000000000000
51
180.000000000000
0
ARC
5
b2f
100
AcDbEntity
8
0-1
6
PHANTOM
62
4
100
AcDbCircle
10
959.837467504308
20
179.200002000000
30
0.0
40
0.300000000000
100
AcDbArc
50
90.000000000000
51
135.000000000000
0
ARC
5
b30
100
AcDbEntity
8
0-1
6
PHANTOM
62
4
100
AcDbCircle
10
962.613203435596
20
179.200002000000
30
0.0
40
0.300000000000
100
AcDbArc
50
0.000000000000
51
90.000000000000
0
ARC
5
b31
100
AcDbEntity
8
0-1
6
PHANTOM
62
4
100
AcDbCircle
10
963.213203435596
20
177.400002000000
30
0.0
40
0.300000000000
100
AcDbArc
50
180.000000000000
51
270.000000000000
0
ARC
5
b32
100
AcDbEntity
8
0-1
6
PHANTOM
62
4
100
AcDbCircle
10
964.413203435596
20
177.400002000000
30
0.0
40
0.300000000000
100
AcDbArc
50
270.000000000000
51
360.000000000000
0
ARC
5
b33
100
AcDbEntity
8
0-1
6
PHANTOM
62
4
100
AcDbCircle
10
940.013203435596
20
177.400002000000
30
0.0
40
0.300000000000
100
AcDbArc
50
180.000000000000
51
270.000000000000
0
ARC
5
b34
100
AcDbEntity
8
0-1
6
PHANTOM
62
4
100
AcDbCircle
10
956.113203435596
20
185.700002000000
30
0.0
40
0.300000000000
100
AcDbArc
50
90.000000000000
51
180.000000000000
0
ARC
5
b35
100
AcDbEntity
8
0-1
6
PHANTOM
62
4
100
AcDbCircle
10
948.313203435596
20
185.700002000000
30
0.0
40
0.300000000000
100
AcDbArc
50
0.000000000000
51
90.000000000000
0
ARC
5
b36
100
AcDbEntity
8
0-1
6
PHANTOM
62
4
100
AcDbCircle
10
963.713203435596
20
185.000002000000
30
0.0
40
1.000000000000
100
AcDbArc
50
0.000000000000
51
90.000000000000
0
ARC
5
b37
100
AcDbEntity
8
0-1
6
PHANTOM
62
4
100
AcDbCircle
10
940.713203435596
20
185.000002000000
30
0.0
40
1.000000000000
100
AcDbArc
50
90.000000000000
51
180.000000000000
0
LINE
5
b38
100
AcDbEntity
8
0-1
6
PHANTOM
62
4
100
AcDbLine
10
959.625335469952
20
179.412134034356
30
0.0
11
958.601071401240
21
178.387869965644
31
0.0
0
LINE
5
b39
100
AcDbEntity
8
0-1
6
PHANTOM
62
4
100
AcDbLine
10
962.613203435596
20
179.500002000000
30
0.0
11
959.837467504308
21
179.500002000000
31
0.0
0
LINE
5
b3a
100
AcDbEntity
8
0-1
6
PHANTOM
62
4
100
AcDbLine
10
962.913203435597
20
177.400002000000
30
0.0
11
962.913203435597
21
179.200002000000
31
0.0
0
LINE
5
b3b
100
AcDbEntity
8
0-1
6
PHANTOM
62
4
100
AcDbLine
10
964.413203435596
20
177.100002000000
30
0.0
11
963.213203435596
21
177.100002000000
31
0.0
0
LINE
5
b3c
100
AcDbEntity
8
0-1
6
PHANTOM
62
4
100
AcDbLine
10
964.713203435596
20
185.000002000000
30
0.0
11
964.713203435596
21
177.400002000000
31
0.0
0
LINE
5
b3d
100
AcDbEntity
8
0-1
6
PHANTOM
62
4
100
AcDbLine
10
956.113203435596
20
186.000002000000
30
0.0
11
963.713203435596
21
186.000002000000
31
0.0
0
LINE
5
b3e
100
AcDbEntity
8
0-1
6
PHANTOM
62
4
100
AcDbLine
10
955.813203435596
20
184.500002000000
30
0.0
11
955.813203435596
21
185.700002000000
31
0.0
0
LINE
5
b3f
100
AcDbEntity
8
0-1
6
PHANTOM
62
4
100
AcDbLine
10
957.913203435596
20
184.200002000000
30
0.0
11
956.113203435596
21
184.200002000000
31
0.0
0
LINE
5
b40
100
AcDbEntity
8
0-1
6
PHANTOM
62
4
100
AcDbLine
10
958.213203435596
20
181.124266068712
30
0.0
11
958.213203435596
21
183.900002000000
31
0.0
0
LINE
5
b41
100
AcDbEntity
8
0-1
6
PHANTOM
62
4
100
AcDbLine
10
957.101071401240
20
179.887869965644
30
0.0
11
958.125335469952
21
180.912134034356
31
0.0
0
LINE
5
b42
100
AcDbEntity
8
0-1
6
PHANTOM
62
4
100
AcDbLine
10
952.413203435596
20
179.800002000000
30
0.0
11
956.888939366884
21
179.800002000000
31
0.0
0
LINE
5
b43
100
AcDbEntity
8
0-1
6
PHANTOM
62
4
100
AcDbLine
10
952.213203435596
20
179.600002000000
30
0.0
11
952.413203435596
21
179.800002000000
31
0.0
0
LINE
5
b44
100
AcDbEntity
8
0-1
6
PHANTOM
62
4
100
AcDbLine
10
952.013203435596
20
179.800002000000
30
0.0
11
952.213203435596
21
179.600002000000
31
0.0
0
LINE
5
b45
100
AcDbEntity
8
0-1
6
PHANTOM
62
4
100
AcDbLine
10
947.537467504308
20
179.800002000000
30
0.0
11
952.013203435596
21
179.800002000000
31
0.0
0
LINE
5
b46
100
AcDbEntity
8
0-1
6
PHANTOM
62
4
100
AcDbLine
10
946.301071401240
20
180.912134034356
30
0.0
11
947.325335469952
21
179.887869965644
31
0.0
0
LINE
5
b47
100
AcDbEntity
8
0-1
6
PHANTOM
62
4
100
AcDbLine
10
946.213203435596
20
183.900002000000
30
0.0
11
946.213203435596
21
181.124266068712
31
0.0
0
LINE
5
b48
100
AcDbEntity
8
0-1
6
PHANTOM
62
4
100
AcDbLine
10
948.313203435596
20
184.200002000000
30
0.0
11
946.513203435596
21
184.200002000000
31
0.0
0
LINE
5
b49
100
AcDbEntity
8
0-1
6
PHANTOM
62
4
100
AcDbLine
10
948.613203435596
20
185.700002000000
30
0.0
11
948.613203435596
21
184.500002000000
31
0.0
0
LINE
5
b4a
100
AcDbEntity
8
0-1
6
PHANTOM
62
4
100
AcDbLine
10
940.713203435596
20
186.000002000000
30
0.0
11
948.313203435596
21
186.000002000000
31
0.0
0
LINE
5
b4b
100
AcDbEntity
8
0-1
6
PHANTOM
62
4
100
AcDbLine
10
939.713203435596
20
177.400002000000
30
0.0
11
939.713203435596
21
185.000002000000
31
0.0
0
LINE
5
b4c
100
AcDbEntity
8
0-1
6
PHANTOM
62
4
100
AcDbLine
10
941.213203435596
20
177.100002000000
30
0.0
11
940.013203435596
21
177.100002000000
31
0.0
0
LINE
5
b4d
100
AcDbEntity
8
0-1
6
PHANTOM
62
4
100
AcDbLine
10
941.513203435596
20
179.200002000000
30
0.0
11
941.513203435596
21
177.400002000000
31
0.0
0
LINE
5
b4e
100
AcDbEntity
8
0-1
6
PHANTOM
62
4
100
AcDbLine
10
944.588939366884
20
179.500002000000
30
0.0
11
941.813203435596
21
179.500002000000
31
0.0
0
LINE
5
b4f
100
AcDbEntity
8
0-1
6
PHANTOM
62
4
100
AcDbLine
10
945.825335469952
20
178.387869965644
30
0.0
11
944.801071401240
21
179.412134034356
31
0.0
0
LINE
5
b50
100
AcDbEntity
8
0-0
6
CONTINUOUS
62
7
100
AcDbLine
10
954.713203435596
20
161.600002000000
30
0.0
11
954.713203435596
21
158.700003000000
31
0.0
0
LINE
5
b51
100
AcDbEntity
8
0-0
6
CONTINUOUS
62
7
100
AcDbLine
10
954.713203435596
20
166.350002618530
30
0.0
11
954.713203435596
21
165.899822797343
31
0.0
0
LINE
5
b52
100
AcDbEntity
8
0-0
6
CONTINUOUS
62
7
100
AcDbLine
10
949.713203435596
20
161.600002000000
30
0.0
11
949.713203435596
21
158.700003000000
31
0.0
0
LINE
5
b53
100
AcDbEntity
8
0-0
6
CONTINUOUS
62
7
100
AcDbLine
10
949.713203435596
20
166.350002618530
30
0.0
11
949.713203435596
21
165.899822433370
31
0.0
0
LINE
5
b54
100
AcDbEntity
8
0-0
6
CONTINUOUS
62
7
100
AcDbLine
10
951.506096654391
20
161.707108781167
30
0.0
11
952.213203435577
21
161.000001999981
31
0.0
0
LINE
5
b55
100
AcDbEntity
8
0-0
6
CONTINUOUS
62
7
100
AcDbLine
10
952.213203435596
20
161.000002000000
30
0.0
11
952.920310216764
21
161.707108781167
31
0.0
0
LINE
5
b56
100
AcDbEntity
8
0-0
6
CONTINUOUS
62
7
100
AcDbLine
10
948.963202342389
20
161.600002000000
30
0.0
11
955.463205528804
21
161.600002000000
31
0.0
0
LINE
5
b57
100
AcDbEntity
8
0-0
6
CONTINUOUS
62
7
100
AcDbLine
10
955.784741342389
20
162.800001999999
30
0.0
11
955.463205528804
21
161.600002000000
31
0.0
0
LINE
5
b58
100
AcDbEntity
8
0-0
6
CONTINUOUS
62
7
100
AcDbLine
10
948.963202342389
20
161.600002000000
30
0.0
11
948.641666528804
21
162.800001999999
31
0.0
0
LINE
5
b59
100
AcDbEntity
8
0-0
6
CONTINUOUS
62
7
100
AcDbLine
10
947.466229408129
20
162.800001999999
30
0.0
11
948.641666528804
21
162.800001999999
31
0.0
0
ARC
5
b5a
100
AcDbEntity
8
0-0
6
CONTINUOUS
62
7
100
AcDbCircle
10
949.913203435597
20
163.312171999999
30
0.0
40
2.500000000000
100
AcDbArc
50
110.000000000000
51
191.821772005421
0
LINE
5
b5b
100
AcDbEntity
8
0-0
6
CONTINUOUS
62
7
100
AcDbLine
10
955.784741342389
20
162.800001999999
30
0.0
11
956.960177463064
21
162.800001999999
31
0.0
0
ARC
5
b5c
100
AcDbEntity
8
0-0
6
CONTINUOUS
62
7
100
AcDbCircle
10
954.513203435597
20
163.312171999999
30
0.0
40
2.500000000000
100
AcDbArc
50
348.178227994579
51
430.000000000000
0
ARC
5
b5d
100
AcDbEntity
8
0-0
6
CONTINUOUS
62
7
100
AcDbCircle
10
950.615857435596
20
164.100002000000
30
0.0
40
2.000000000000
100
AcDbArc
50
90.000000000000
51
110.000000000000
0
ARC
5
b5e
100
AcDbEntity
8
0-0
6
CONTINUOUS
62
7
100
AcDbCircle
10
953.810550435596
20
164.100002000000
30
0.0
40
2.000000000000
100
AcDbArc
50
70.000000000000
51
90.000000000000
0
LINE
5
b5f
100
AcDbEntity
8
0-0
6
CONTINUOUS
62
7
100
AcDbLine
10
949.931817435596
20
165.979391999999
30
0.0
11
949.058153435597
21
165.661402000000
31
0.0
0
LINE
5
b60
100
AcDbEntity
8
0-0
6
CONTINUOUS
62
7
100
AcDbLine
10
953.810550435596
20
166.100002000000
30
0.0
11
950.615857435596
21
166.100002000000
31
0.0
0
LINE
5
b61
100
AcDbEntity
8
0-0
6
CONTINUOUS
62
7
100
AcDbLine
10
955.368254435597
20
165.661402000000
30
0.0
11
954.494590435596
21
165.979391999999
31
0.0
0
LINE
5
b62
100
AcDbEntity
8
0-0
6
CONTINUOUS
62
7
100
AcDbLine
10
950.063203340229
20
166.700003000000
30
0.0
11
949.713203435596
21
166.350002618530
31
0.0
0
LINE
5
b63
100
AcDbEntity
8
0-0
6
CONTINUOUS
62
7
100
AcDbLine
10
954.713203435596
20
166.350002618530
30
0.0
11
954.363203530964
21
166.700003000000
31
0.0
0
LINE
5
b64
100
AcDbEntity
8
0-0
6
CONTINUOUS
62
7
100
AcDbLine
10
950.063203340229
20
166.700003000000
30
0.0
11
954.363203530964
21
166.700003000000
31
0.0
0
LINE
5
b65
100
AcDbEntity
8
0-0
6
CONTINUOUS
62
7
100
AcDbLine
10
956.463203435596
20
154.200003000000
30
0.0
11
947.963203435596
21
154.200003000000
31
0.0
0
POLYLINE
5
b66
100
AcDbEntity
8
0-0
6
CONTINUOUS
62
  7
100
AcDb2dPolyline
66
1
10
0.0
20
0.0
30
0.0
70
0
0
VERTEX
5
b67
100
AcDbEntity
8
0-0
6
CONTINUOUS
62
  7
100
AcDbVertex
100
AcDb2dVertex
10
948.463203435596
20
153.700003000000
30
0.0
0
VERTEX
5
b68
100
AcDbEntity
8
0-0
6
CONTINUOUS
62
  7
100
AcDbVertex
100
AcDb2dVertex
10
947.963203435596
20
154.200003000000
30
0.0
0
VERTEX
5
b69
100
AcDbEntity
8
0-0
6
CONTINUOUS
62
  7
100
AcDbVertex
100
AcDb2dVertex
10
947.963203435596
20
158.700003000000
30
0.0
0
SEQEND
5
b6a
100
AcDbEntity
8
0-0
0
LINE
5
b6b
100
AcDbEntity
8
0-0
6
CONTINUOUS
62
7
100
AcDbLine
10
948.463203435596
20
153.700003000000
30
0.0
11
955.963203435596
21
153.700003000000
31
0.0
0
LINE
5
b6c
100
AcDbEntity
8
0-0
6
CONTINUOUS
62
7
100
AcDbLine
10
956.463203435596
20
154.200003000000
30
0.0
11
955.963203435596
21
153.700003000000
31
0.0
0
LINE
5
b6d
100
AcDbEntity
8
0-0
6
CONTINUOUS
62
7
100
AcDbLine
10
956.463203435596
20
154.200003000000
30
0.0
11
956.463203435596
21
158.700003000000
31
0.0
0
LINE
5
b6e
100
AcDbEntity
8
0-0
6
CONTINUOUS
62
7
100
AcDbLine
10
949.784631972965
20
154.200003000000
30
0.0
11
949.784631972965
21
158.700003000000
31
0.0
0
LINE
5
b6f
100
AcDbEntity
8
0-0
6
CONTINUOUS
62
7
100
AcDbLine
10
948.570346360859
20
154.200003000000
30
0.0
11
948.570346360859
21
158.700003000000
31
0.0
0
LINE
5
b70
100
AcDbEntity
8
0-0
6
CONTINUOUS
62
7
100
AcDbLine
10
949.177489047703
20
154.200003000000
30
0.0
11
949.177489047703
21
158.700003000000
31
0.0
0
LINE
5
b71
100
AcDbEntity
8
0-0
6
CONTINUOUS
62
7
100
AcDbLine
10
950.391774898228
20
154.200003000000
30
0.0
11
950.391774898228
21
158.700003000000
31
0.0
0
LINE
5
b72
100
AcDbEntity
8
0-0
6
CONTINUOUS
62
7
100
AcDbLine
10
950.998917704281
20
154.200003000000
30
0.0
11
950.998917704281
21
158.700003000000
31
0.0
0
LINE
5
b73
100
AcDbEntity
8
0-0
6
CONTINUOUS
62
7
100
AcDbLine
10
952.213203435596
20
158.700003000000
30
0.0
11
952.920310216783
21
159.407109781186
31
0.0
0
LINE
5
b74
100
AcDbEntity
8
0-0
6
CONTINUOUS
62
7
100
AcDbLine
10
952.213203435596
20
158.700003000000
30
0.0
11
951.506096654410
21
159.407109781186
31
0.0
0
ARC
5
b75
100
AcDbEntity
8
0-0
6
CONTINUOUS
62
7
100
AcDbCircle
10
910.000000000000
20
120.000000000000
30
0.0
40
18.000000000000
100
AcDbArc
50
104.993200000000
51
120.732420000000
0
ARC
5
b76
100
AcDbEntity
8
0-0
6
CONTINUOUS
62
7
100
AcDbCircle
10
910.000000000000
20
120.000000000000
30
0.0
40
18.000000000000
100
AcDbArc
50
165.843800000000
51
314.156190000000
0
ARC
5
b77
100
AcDbEntity
8
0-0
6
CONTINUOUS
62
7
100
AcDbCircle
10
910.000000000000
20
120.000000000000
30
0.0
40
18.000000000000
100
AcDbArc
50
356.387800000000
51
390.275818000000
0
ARC
5
b78
100
AcDbEntity
8
0-0
6
CONTINUOUS
62
7
100
AcDbCircle
10
910.000000000000
20
120.000000000000
30
0.0
40
11.000000000000
100
AcDbArc
50
195.608740000000
51
284.391230000000
0
CIRCLE
5
b79
100
AcDbEntity
8
0-0
6
CONTINUOUS
62
7
100
AcDbCircle
10
910.000000000000
20
120.000000000000
30
0.0
40
6.000000000000
0
CIRCLE
5
b7a
100
AcDbEntity
8
0-0
6
CONTINUOUS
62
7
100
AcDbCircle
10
910.000000000000
20
120.000000000000
30
0.0
40
2.000000000000
0
ARC
5
b7b
100
AcDbEntity
8
0-0
6
CONTINUOUS
62
7
100
AcDbCircle
10
885.653214000000
20
139.830128000000
30
0.0
40
1.000000000000
100
AcDbArc
50
330.000000000000
51
419.999995000000
0
ARC
5
b7c
100
AcDbEntity
8
0-0
6
CONTINUOUS
62
7
100
AcDbCircle
10
939.895830000000
20
106.781090000000
30
0.0
40
2.500000000000
100
AcDbArc
50
59.999995000000
51
149.510400000000
0
ARC
5
b7d
100
AcDbEntity
8
0-0
6
CONTINUOUS
62
7
100
AcDbCircle
10
888.390816000000
20
136.571793000000
30
0.0
40
3.000000000000
100
AcDbArc
50
150.000010000000
51
197.707040000000
0
ARC
5
b7e
100
AcDbEntity
8
0-0
6
CONTINUOUS
62
7
100
AcDbCircle
10
935.156190000000
20
109.571793000000
30
0.0
40
3.000000000000
100
AcDbArc
50
282.292960000000
51
330.000000000000
0
ARC
5
b7f
100
AcDbEntity
8
0-0
6
CONTINUOUS
62
7
100
AcDbCircle
10
910.000000000000
20
113.750000000000
30
0.0
40
3.250000000000
100
AcDbArc
50
180.000010000000
51
360.000000000000
0
ARC
5
b80
100
AcDbEntity
8
0-0
6
CONTINUOUS
62
7
100
AcDbCircle
10
910.000000000000
20
126.250000000000
30
0.0
40
3.250000000000
100
AcDbArc
50
0.000000000000
51
180.000010000000
0
ARC
5
b81
100
AcDbEntity
8
0-0
6
CONTINUOUS
62
7
100
AcDbCircle
10
928.537750000000
20
124.308331000000
30
0.0
40
7.000000000000
100
AcDbArc
50
205.849710000000
51
240.000000000000
0
ARC
5
b82
100
AcDbEntity
8
0-0
6
CONTINUOUS
62
7
100
AcDbCircle
10
910.866028000000
20
119.500000000000
30
0.0
40
11.000000000000
100
AcDbArc
50
25.849696000000
51
59.999995000000
0
ARC
5
b83
100
AcDbEntity
8
0-0
6
CONTINUOUS
62
7
100
AcDbCircle
10
909.133972000000
20
120.500000000000
30
0.0
40
11.000000000000
100
AcDbArc
50
59.999995000000
51
94.150299000000
0
ARC
5
b84
100
AcDbEntity
8
0-0
6
CONTINUOUS
62
7
100
AcDbCircle
10
904.462250000000
20
138.208330000000
30
0.0
40
7.000000000000
100
AcDbArc
50
240.000000000000
51
274.150300000000
0
ARC
5
b85
100
AcDbEntity
8
0-0
6
CONTINUOUS
62
7
100
AcDbCircle
10
904.462250000000
20
138.208330000000
30
0.0
40
5.000000000000
100
AcDbArc
50
240.000000000000
51
274.150300000000
0
ARC
5
b86
100
AcDbEntity
8
0-0
6
CONTINUOUS
62
7
100
AcDbCircle
10
928.537750000000
20
124.308331000000
30
0.0
40
5.000000000000
100
AcDbArc
50
205.849710000000
51
240.000000000000
0
ARC
5
b87
100
AcDbEntity
8
0-0
6
CONTINUOUS
62
7
100
AcDbCircle
10
909.133972000000
20
120.500000000000
30
0.0
40
13.000000000000
100
AcDbArc
50
59.999995000000
51
94.150299000000
0
ARC
5
b88
100
AcDbEntity
8
0-0
6
CONTINUOUS
62
7
100
AcDbCircle
10
910.866028000000
20
119.500000000000
30
0.0
40
13.000000000000
100
AcDbArc
50
25.849696000000
51
59.999995000000
0
ARC
5
b89
100
AcDbEntity
8
0-0
6
CONTINUOUS
62
7
100
AcDbCircle
10
911.253624000000
20
143.871342000000
30
0.0
40
27.000000000000
100
AcDbArc
50
197.707040000000
51
238.399720000000
0
ARC
5
b8a
100
AcDbEntity
8
0-0
6
CONTINUOUS
62
7
100
AcDbCircle
10
930.046371000000
20
133.021341000000
30
0.0
40
27.000000000000
100
AcDbArc
50
241.600280000000
51
282.292960000000
0
ARC
5
b8b
100
AcDbEntity
8
0-0
6
CONTINUOUS
62
7
100
AcDbCircle
10
915.300003000000
20
129.179869000000
30
0.0
40
20.000000000000
100
AcDbArc
50
204.535330000000
51
275.464660000000
0
ARC
5
b8c
100
AcDbEntity
8
0-0
6
CONTINUOUS
62
7
100
AcDbCircle
10
910.000000000000
20
120.000000000000
30
0.0
40
25.000000000000
100
AcDbArc
50
348.662930000000
51
396.964796000000
0
ARC
5
b8d
100
AcDbEntity
8
0-0
6
CONTINUOUS
62
7
100
AcDbCircle
10
910.000000000000
20
120.000000000000
30
0.0
40
25.000000000000
100
AcDbArc
50
153.972680000000
51
326.027330000000
0
ARC
5
b8e
100
AcDbEntity
8
0-0
6
CONTINUOUS
62
7
100
AcDbCircle
10
910.000000000000
20
120.000000000000
30
0.0
40
25.000000000000
100
AcDbArc
50
98.382605000000
51
131.337080000000
0
ARC
5
b8f
100
AcDbEntity
8
0-0
6
CONTINUOUS
62
7
100
AcDbCircle
10
941.464580000000
20
154.984503000000
30
0.0
40
1.984500000000
100
AcDbArc
50
328.918780000000
51
348.828190000000
0
ARC
5
b90
100
AcDbEntity
8
0-0
6
CONTINUOUS
62
7
100
AcDbCircle
10
923.322342000000
20
154.984503000000
30
0.0
40
1.984500000000
100
AcDbArc
50
191.171790000000
51
211.081220000000
0
ARC
5
b91
100
AcDbEntity
8
0-0
6
CONTINUOUS
62
7
100
AcDbCircle
10
938.677660000000
20
154.984503000000
30
0.0
40
1.984500000000
100
AcDbArc
50
328.918780000000
51
348.828190000000
0
ARC
5
b92
100
AcDbEntity
8
0-0
6
CONTINUOUS
62
7
100
AcDbCircle
10
935.058750000000
20
154.984503000000
30
0.0
40
1.984500000000
100
AcDbArc
50
328.918780000000
51
348.828200000000
0
ARC
5
b93
100
AcDbEntity
8
0-0
6
CONTINUOUS
62
7
100
AcDbCircle
10
926.941254000000
20
154.984503000000
30
0.0
40
1.984500000000
100
AcDbArc
50
328.918780000000
51
348.828200000000
0
ARC
5
b94
100
AcDbEntity
8
0-0
6
CONTINUOUS
62
7
100
AcDbCircle
10
923.322342000000
20
154.984503000000
30
0.0
40
1.984500000000
100
AcDbArc
50
328.918780000000
51
335.754640000000
0
ARC
5
b95
100
AcDbEntity
8
0-0
6
CONTINUOUS
62
7
100
AcDbCircle
10
931.000000000000
20
154.984503000000
30
0.0
40
1.984500000000
100
AcDbArc
50
328.918780000000
51
348.828200000000
0
ARC
5
b96
100
AcDbEntity
8
0-0
6
CONTINUOUS
62
7
100
AcDbCircle
10
935.058750000000
20
154.984503000000
30
0.0
40
1.984500000000
100
AcDbArc
50
191.171780000000
51
211.081220000000
0
ARC
5
b97
100
AcDbEntity
8
0-0
6
CONTINUOUS
62
7
100
AcDbCircle
10
947.300000000000
20
156.500003000000
30
0.0
40
0.300000000000
100
AcDbArc
50
197.003510000000
51
269.999960000000
0
ARC
5
b98
100
AcDbEntity
8
0-0
6
CONTINUOUS
62
7
100
AcDbCircle
10
943.666110000000
20
155.388766000000
30
0.0
40
3.500000000000
100
AcDbArc
50
17.003496000000
51
71.096860000000
0
ARC
5
b99
100
AcDbEntity
8
0-0
6
CONTINUOUS
62
7
100
AcDbCircle
10
938.677660000000
20
154.984503000000
30
0.0
40
1.984500000000
100
AcDbArc
50
204.245350000000
51
211.081220000000
0
ARC
5
b9a
100
AcDbEntity
8
0-0
6
CONTINUOUS
62
7
100
AcDbCircle
10
943.500000000000
20
154.984503000000
30
0.0
40
1.984500000000
100
AcDbArc
50
328.918780000000
51
348.828180000000
0
ARC
5
b9b
100
AcDbEntity
8
0-0
6
CONTINUOUS
62
7
100
AcDbCircle
10
943.117510000000
20
154.984503000000
30
0.0
40
1.984500000000
100
AcDbArc
50
328.918780000000
51
348.828190000000
0
ARC
5
b9c
100
AcDbEntity
8
0-0
6
CONTINUOUS
62
7
100
AcDbCircle
10
918.882492000000
20
154.984503000000
30
0.0
40
1.984500000000
100
AcDbArc
50
191.171790000000
51
211.081220000000
0
ARC
5
b9d
100
AcDbEntity
8
0-0
6
CONTINUOUS
62
7
100
AcDbCircle
10
920.535416000000
20
154.984503000000
30
0.0
40
1.984500000000
100
AcDbArc
50
191.171790000000
51
211.081220000000
0
ARC
5
b9e
100
AcDbEntity
8
0-0
6
CONTINUOUS
62
7
100
AcDbCircle
10
931.000000000000
20
154.984503000000
30
0.0
40
1.984500000000
100
AcDbArc
50
191.171780000000
51
211.081220000000
0
ARC
5
b9f
100
AcDbEntity
8
0-0
6
CONTINUOUS
62
7
100
AcDbCircle
10
918.500000000000
20
154.984503000000
30
0.0
40
1.984500000000
100
AcDbArc
50
191.171790000000
51
211.081220000000
0
ARC
5
ba0
100
AcDbEntity
8
0-0
6
CONTINUOUS
62
7
100
AcDbCircle
10
914.699997000000
20
156.500003000000
30
0.0
40
0.300000000000
100
AcDbArc
50
270.000020000000
51
342.996480000000
0
ARC
5
ba1
100
AcDbEntity
8
0-0
6
CONTINUOUS
62
7
100
AcDbCircle
10
918.333893000000
20
155.388766000000
30
0.0
40
3.500000000000
100
AcDbArc
50
108.903100000000
51
162.996470000000
0
ARC
5
ba2
100
AcDbEntity
8
0-0
6
CONTINUOUS
62
7
100
AcDbCircle
10
926.941254000000
20
154.984503000000
30
0.0
40
1.984500000000
100
AcDbArc
50
191.171780000000
51
211.081220000000
0
ARC
5
ba3
100
AcDbEntity
8
0-0
6
CONTINUOUS
62
7
100
AcDbCircle
10
941.629240000000
20
137.419283000000
30
0.0
40
8.000000000000
100
AcDbArc
50
92.000032000000
51
143.325820000000
0
ARC
5
ba4
100
AcDbEntity
8
0-0
6
CONTINUOUS
62
7
100
AcDbCircle
10
905.741219000000
20
147.720756000000
30
0.0
40
1.000000000000
100
AcDbArc
50
352.189580000000
51
370.000000000000
0
ARC
5
ba5
100
AcDbEntity
8
0-0
6
CONTINUOUS
62
7
100
AcDbCircle
10
946.742430000000
20
150.960000000000
30
0.0
40
3.000000000000
100
AcDbArc
50
6.796802000000
51
89.999982000000
0
ARC
5
ba6
100
AcDbEntity
8
0-0
6
CONTINUOUS
62
7
100
AcDbCircle
10
915.257568000000
20
150.960000000000
30
0.0
40
3.000000000000
100
AcDbArc
50
89.999982000000
51
152.248150000000
0
LINE
5
ba7
100
AcDbEntity
8
0-0
6
CONTINUOUS
62
7
100
AcDbLine
10
886.519234000000
20
139.330130000000
30
0.0
11
885.792732000000
21
138.071795000000
31
0.0
0
LINE
5
ba8
100
AcDbEntity
8
0-0
6
CONTINUOUS
62
7
100
AcDbLine
10
888.644660940673
20
161.000002000000
30
0.0
11
888.644660940673
21
158.700003000000
31
0.0
0
LINE
5
ba9
100
AcDbEntity
8
0-0
6
CONTINUOUS
62
7
100
AcDbLine
10
959.212920808794
20
161.000002000000
30
0.0
11
888.644660940673
21
161.000002000000
31
0.0
0
LINE
5
baa
100
AcDbEntity
8
0-0
6
CONTINUOUS
62
7
100
AcDbLine
10
959.212920808794
20
158.700003000000
30
0.0
11
959.212920808794
21
161.000002000000
31
0.0
0
LINE
5
bab
100
AcDbEntity
8
0-0
6
CONTINUOUS
62
7
100
AcDbLine
10
888.644660940673
20
158.700003000000
30
0.0
11
959.212920808794
21
158.700003000000
31
0.0
0
LINE
5
bac
100
AcDbEntity
8
0-0
6
CONTINUOUS
62
7
100
AcDbLine
10
911.849998000000
20
150.926486000000
30
0.0
11
912.602654000000
21
152.356932000000
31
0.0
0
LINE
5
bad
100
AcDbEntity
8
0-0
6
CONTINUOUS
62
7
100
AcDbLine
10
937.754260000000
20
108.071793000000
30
0.0
11
937.730760000000
21
108.031090000000
31
0.0
0
LINE
5
bae
100
AcDbEntity
8
0-0
6
CONTINUOUS
62
7
100
AcDbLine
10
929.833893000000
20
109.456573000000
30
0.0
11
929.862358000000
21
111.856403000000
31
0.0
0
LINE
5
baf
100
AcDbEntity
8
0-0
6
CONTINUOUS
62
7
100
AcDbLine
10
928.462463000000
20
111.873009000000
30
0.0
11
928.433998000000
21
109.473175000000
31
0.0
0
LINE
5
bb0
100
AcDbEntity
8
0-0
6
CONTINUOUS
62
7
100
AcDbLine
10
924.961662000000
20
109.514359000000
30
0.0
11
924.990128000000
21
111.914192000000
31
0.0
0
LINE
5
bb1
100
AcDbEntity
8
0-0
6
CONTINUOUS
62
7
100
AcDbLine
10
933.333656000000
20
109.415062000000
30
0.0
11
924.961662000000
21
109.514359000000
31
0.0
0
LINE
5
bb2
100
AcDbEntity
8
0-0
6
CONTINUOUS
62
7
100
AcDbLine
10
933.362114000000
20
111.814896000000
30
0.0
11
933.333656000000
21
109.415062000000
31
0.0
0
LINE
5
bb3
100
AcDbEntity
8
0-0
6
CONTINUOUS
62
7
100
AcDbLine
10
924.990128000000
20
111.914192000000
30
0.0
11
933.362114000000
21
111.814896000000
31
0.0
0
LINE
5
bb4
100
AcDbEntity
8
0-0
6
CONTINUOUS
62
7
100
AcDbLine
10
945.609920000000
20
108.678204000000
30
0.0
11
926.037750000000
21
119.978203000000
31
0.0
0
LINE
5
bb5
100
AcDbEntity
8
0-0
6
CONTINUOUS
62
7
100
AcDbLine
10
944.609920000000
20
106.946152000000
30
0.0
11
945.609920000000
21
108.678204000000
31
0.0
0
LINE
5
bb6
100
AcDbEntity
8
0-0
6
CONTINUOUS
62
7
100
AcDbLine
10
925.037750000000
20
118.246151000000
30
0.0
11
944.609920000000
21
106.946152000000
31
0.0
0
LINE
5
bb7
100
AcDbEntity
8
0-0
6
CONTINUOUS
62
7
100
AcDbLine
10
918.360695000000
20
108.681149000000
30
0.0
11
924.207626000000
21
118.808331000000
31
0.0
0
LINE
5
bb8
100
AcDbEntity
8
0-0
6
CONTINUOUS
62
7
100
AcDbLine
10
913.250000000000
20
113.750000000000
30
0.0
11
913.250000000000
21
114.956440000000
31
0.0
0
LINE
5
bb9
100
AcDbEntity
8
0-0
6
CONTINUOUS
62
7
100
AcDbLine
10
906.750000000000
20
114.956440000000
30
0.0
11
906.750000000000
21
113.750000000000
31
0.0
0
LINE
5
bba
100
AcDbEntity
8
0-0
6
CONTINUOUS
62
7
100
AcDbLine
10
906.750000000000
20
126.250000000000
30
0.0
11
906.750000000000
21
125.043560000000
31
0.0
0
LINE
5
bbb
100
AcDbEntity
8
0-0
6
CONTINUOUS
62
7
100
AcDbLine
10
880.783855000000
20
143.796154000000
30
0.0
11
900.962250000000
21
132.146151000000
31
0.0
0
LINE
5
bbc
100
AcDbEntity
8
0-0
6
CONTINUOUS
62
7
100
AcDbLine
10
881.783852000000
20
145.528203000000
30
0.0
11
880.783852000000
21
143.796152000000
31
0.0
0
LINE
5
bbd
100
AcDbEntity
8
0-0
6
CONTINUOUS
62
7
100
AcDbLine
10
901.962250000000
20
133.878201000000
30
0.0
11
881.783855000000
21
145.528205000000
31
0.0
0
LINE
5
bbe
100
AcDbEntity
8
0-0
6
CONTINUOUS
62
7
100
AcDbLine
10
903.834496000000
20
133.721022000000
30
0.0
11
903.583427000000
21
133.286167000000
31
0.0
0
LINE
5
bbf
100
AcDbEntity
8
0-0
6
CONTINUOUS
62
7
100
AcDbLine
10
900.197189000000
20
135.821020000000
30
0.0
11
903.834496000000
21
133.721022000000
31
0.0
0
LINE
5
bc0
100
AcDbEntity
8
0-0
6
CONTINUOUS
62
7
100
AcDbLine
10
899.797188000000
20
135.128201000000
30
0.0
11
900.197189000000
21
135.821020000000
31
0.0
0
LINE
5
bc1
100
AcDbEntity
8
0-0
6
CONTINUOUS
62
7
100
AcDbLine
10
897.197189000000
20
130.624868000000
30
0.0
11
898.797188000000
21
133.396151000000
31
0.0
0
LINE
5
bc2
100
AcDbEntity
8
0-0
6
CONTINUOUS
62
7
100
AcDbLine
10
900.834488000000
20
128.524870000000
30
0.0
11
897.197189000000
21
130.624868000000
31
0.0
0
LINE
5
bc3
100
AcDbEntity
8
0-0
6
CONTINUOUS
62
7
100
AcDbLine
10
902.539276000000
20
131.477640000000
30
0.0
11
900.834488000000
21
128.524870000000
31
0.0
0
LINE
5
bc4
100
AcDbEntity
8
0-0
6
CONTINUOUS
62
7
100
AcDbLine
10
908.337868000000
20
131.471155000000
30
0.0
11
904.968857000000
21
131.226688000000
31
0.0
0
LINE
5
bc5
100
AcDbEntity
8
0-0
6
CONTINUOUS
62
7
100
AcDbLine
10
904.824112000000
20
133.221441000000
30
0.0
11
908.193123000000
21
133.465908000000
31
0.0
0
LINE
5
bc6
100
AcDbEntity
8
0-0
6
CONTINUOUS
62
7
100
AcDbLine
10
906.731941000000
20
147.584860000000
30
0.0
11
904.761108000000
21
133.216871000000
31
0.0
0
LINE
5
bc7
100
AcDbEntity
8
0-0
6
CONTINUOUS
62
7
100
AcDbLine
10
906.726028000000
20
147.894405000000
30
0.0
11
906.362015000000
21
149.958807000000
31
0.0
0
LINE
5
bc8
100
AcDbEntity
8
0-0
6
CONTINUOUS
62
7
100
AcDbLine
10
904.247292000000
20
147.555075000000
30
0.0
11
906.709312000000
21
147.989196000000
31
0.0
0
LINE
5
bc9
100
AcDbEntity
8
0-0
6
CONTINUOUS
62
7
100
AcDbLine
10
903.900002000000
20
149.524687000000
30
0.0
11
904.247292000000
21
147.555070000000
31
0.0
0
LINE
5
bca
100
AcDbEntity
8
0-0
6
CONTINUOUS
62
7
100
AcDbLine
10
915.144936000000
20
151.507477000000
30
0.0
11
903.899986000000
21
149.524690000000
31
0.0
0
LINE
5
bcb
100
AcDbEntity
8
0-0
6
CONTINUOUS
62
7
100
AcDbLine
10
918.000000000000
20
130.367680000000
30
0.0
11
918.000000000000
21
150.240620000000
31
0.0
0
LINE
5
bcc
100
AcDbEntity
8
0-0
6
CONTINUOUS
62
7
100
AcDbLine
10
917.366020000000
20
130.758329000000
30
0.0
11
915.633972000000
21
131.758329000000
31
0.0
0
LINE
5
bcd
100
AcDbEntity
8
0-0
6
CONTINUOUS
62
7
100
AcDbLine
10
914.633972000000
20
130.026279000000
30
0.0
11
916.366020000000
21
129.026279000000
31
0.0
0
LINE
5
bce
100
AcDbEntity
8
0-0
6
CONTINUOUS
62
7
100
AcDbLine
10
913.250000000000
20
125.043560000000
30
0.0
11
913.250000000000
21
126.250000000000
31
0.0
0
LINE
5
bcf
100
AcDbEntity
8
0-0
6
CONTINUOUS
62
7
100
AcDbLine
10
922.238167000000
20
121.256252000000
30
0.0
11
920.765373000000
21
124.296135000000
31
0.0
0
LINE
5
bd0
100
AcDbEntity
8
0-0
6
CONTINUOUS
62
7
100
AcDbLine
10
922.565254000000
20
125.168156000000
30
0.0
11
924.038048000000
21
122.128273000000
31
0.0
0
LINE
5
bd1
100
AcDbEntity
8
0-0
6
CONTINUOUS
62
7
100
AcDbLine
10
935.199500000000
20
142.178553000000
30
0.0
11
922.582352000000
21
125.132874000000
31
0.0
0
LINE
5
bd2
100
AcDbEntity
8
0-0
6
CONTINUOUS
62
7
100
AcDbLine
10
950.300000000000
20
145.726950000000
30
0.0
11
941.350040000000
21
145.414411000000
31
0.0
0
LINE
5
bd3
100
AcDbEntity
8
0-0
6
CONTINUOUS
62
7
100
AcDbLine
10
950.300000000000
20
146.460068000000
30
0.0
11
950.300000000000
21
145.726950000000
31
0.0
0
LINE
5
bd4
100
AcDbEntity
8
0-0
6
CONTINUOUS
62
7
100
AcDbLine
10
949.721360000000
20
151.315047000000
30
0.0
11
950.300000000000
21
146.460067000000
31
0.0
0
LINE
5
bd5
100
AcDbEntity
8
0-0
6
CONTINUOUS
62
7
100
AcDbLine
10
915.257568000000
20
153.960000000000
30
0.0
11
946.742430000000
21
153.960000000000
31
0.0
0
LINE
5
bd6
100
AcDbEntity
8
0-0
6
CONTINUOUS
62
7
100
AcDbLine
10
914.699997000000
20
154.600003000000
30
0.0
11
914.699997000000
21
156.200003000000
31
0.0
0
LINE
5
bd7
100
AcDbEntity
8
0-0
6
CONTINUOUS
62
7
100
AcDbLine
10
947.300000000000
20
154.600003000000
30
0.0
11
914.699997000000
21
154.600003000000
31
0.0
0
LINE
5
bd8
100
AcDbEntity
8
0-0
6
CONTINUOUS
62
7
100
AcDbLine
10
947.300000000000
20
156.200003000000
30
0.0
11
947.300000000000
21
154.600003000000
31
0.0
0
LINE
5
bd9
100
AcDbEntity
8
0-0
6
CONTINUOUS
62
7
100
AcDbLine
10
914.699997000000
20
156.200003000000
30
0.0
11
947.300000000000
21
156.200003000000
31
0.0
0
ARC
5
bda
100
AcDbEntity
8
0-0
6
CONTINUOUS
62
7
100
AcDbCircle
10
938.548860000000
20
135.920528000000
30
0.0
40
2.500000000000
100
AcDbArc
50
113.000000000000
51
202.510400000000
0
ARC
5
bdb
100
AcDbEntity
8
0-0
6
CONTINUOUS
62
7
100
AcDbCircle
10
933.467712000000
20
133.814772000000
30
0.0
40
3.000000000000
100
AcDbArc
50
335.292960000000
51
383.000000000000
0
ARC
5
bdc
100
AcDbEntity
8
0-0
6
CONTINUOUS
62
7
100
AcDbCircle
10
914.991470000000
20
116.238655000000
30
0.0
40
3.250000000000
100
AcDbArc
50
233.000010000000
51
413.000000000000
0
ARC
5
bdd
100
AcDbEntity
8
0-0
6
CONTINUOUS
62
7
100
AcDbCircle
10
905.008530000000
20
123.761345000000
30
0.0
40
3.250000000000
100
AcDbArc
50
53.000000000000
51
232.999990000000
0
ARC
5
bde
100
AcDbEntity
8
0-0
6
CONTINUOUS
62
7
100
AcDbCircle
10
917.715515000000
20
137.397726000000
30
0.0
40
7.000000000000
100
AcDbArc
50
258.849700000000
51
293.000000000000
0
ARC
5
bdf
100
AcDbEntity
8
0-0
6
CONTINUOUS
62
7
100
AcDbCircle
10
910.920502000000
20
120.390732000000
30
0.0
40
11.000000000000
100
AcDbArc
50
78.849698000000
51
113.000000000000
0
ARC
5
be0
100
AcDbEntity
8
0-0
6
CONTINUOUS
62
7
100
AcDbCircle
10
909.079498000000
20
119.609268000000
30
0.0
40
11.000000000000
100
AcDbArc
50
113.000000000000
51
147.150310000000
0
ARC
5
be1
100
AcDbEntity
8
0-0
6
CONTINUOUS
62
7
100
AcDbCircle
10
892.125481000000
20
126.535400000000
30
0.0
40
7.000000000000
100
AcDbArc
50
293.000000000000
51
327.150300000000
0
ARC
5
be2
100
AcDbEntity
8
0-0
6
CONTINUOUS
62
7
100
AcDbCircle
10
892.125481000000
20
126.535400000000
30
0.0
40
5.000000000000
100
AcDbArc
50
293.000000000000
51
327.150300000000
0
ARC
5
be3
100
AcDbEntity
8
0-0
6
CONTINUOUS
62
7
100
AcDbCircle
10
917.715515000000
20
137.397726000000
30
0.0
40
5.000000000000
100
AcDbArc
50
258.849700000000
51
293.000000000000
0
ARC
5
be4
100
AcDbEntity
8
0-0
6
CONTINUOUS
62
7
100
AcDbCircle
10
909.079498000000
20
119.609268000000
30
0.0
40
13.000000000000
100
AcDbArc
50
113.000000000000
51
147.150310000000
0
ARC
5
be5
100
AcDbEntity
8
0-0
6
CONTINUOUS
62
7
100
AcDbCircle
10
910.920502000000
20
120.390732000000
30
0.0
40
13.000000000000
100
AcDbArc
50
78.849698000000
51
113.000000000000
0
ARC
5
be6
100
AcDbEntity
8
0-0
6
CONTINUOUS
62
7
100
AcDbCircle
10
891.689949000000
20
135.367321000000
30
0.0
40
27.000000000000
100
AcDbArc
50
250.707040000000
51
291.399720000000
0
ARC
5
be7
100
AcDbEntity
8
0-0
6
CONTINUOUS
62
7
100
AcDbCircle
10
911.664902000000
20
143.846186000000
30
0.0
40
27.000000000000
100
AcDbArc
50
294.600280000000
51
335.292960000000
0
ARC
5
be8
100
AcDbEntity
8
0-0
6
CONTINUOUS
62
7
100
AcDbCircle
10
905.858246000000
20
129.757351000000
30
0.0
40
20.000000000000
100
AcDbArc
50
257.535330000000
51
328.464660000000
0
LINE
5
be9
100
AcDbEntity
8
0-0
6
CONTINUOUS
62
7
100
AcDbLine
10
926.303551000000
20
116.438572000000
30
0.0
11
921.946899000000
21
108.892632000000
31
0.0
0
LINE
5
bea
100
AcDbEntity
8
0-0
6
CONTINUOUS
62
7
100
AcDbLine
10
903.999985000000
20
131.575829000000
30
0.0
11
905.840996000000
21
132.357290000000
31
0.0
0
LINE
5
beb
100
AcDbEntity
8
0-0
6
CONTINUOUS
62
7
100
AcDbLine
10
906.622459000000
20
130.516281000000
30
0.0
11
904.781448000000
21
129.734819000000
31
0.0
0
LINE
5
bec
100
AcDbEntity
8
0-0
6
CONTINUOUS
62
7
100
AcDbLine
10
906.964432000000
20
126.356903000000
30
0.0
11
907.927933000000
21
125.630852000000
31
0.0
0
LINE
5
bed
100
AcDbEntity
8
0-0
6
CONTINUOUS
62
7
100
AcDbLine
10
903.052635000000
20
121.165775000000
30
0.0
11
904.016136000000
21
120.439724000000
31
0.0
0
LINE
5
bee
100
AcDbEntity
8
0-0
6
CONTINUOUS
62
7
100
AcDbLine
10
893.809673000000
20
116.169426000000
30
0.0
11
892.559338000000
21
119.115036000000
31
0.0
0
LINE
5
bef
100
AcDbEntity
8
0-0
6
CONTINUOUS
62
7
100
AcDbLine
10
897.675793000000
20
117.810493000000
30
0.0
11
893.809673000000
21
116.169426000000
31
0.0
0
LINE
5
bf0
100
AcDbEntity
8
0-0
6
CONTINUOUS
62
7
100
AcDbLine
10
896.343571000000
20
120.949013000000
30
0.0
11
897.675793000000
21
117.810493000000
31
0.0
0
LINE
5
bf1
100
AcDbEntity
8
0-0
6
CONTINUOUS
62
7
100
AcDbLine
10
899.838432000000
20
125.576077000000
30
0.0
11
898.006153000000
21
122.738342000000
31
0.0
0
LINE
5
bf2
100
AcDbEntity
8
0-0
6
CONTINUOUS
62
7
100
AcDbLine
10
896.325958000000
20
123.823215000000
30
0.0
11
898.158241000000
21
126.660950000000
31
0.0
0
LINE
5
bf3
100
AcDbEntity
8
0-0
6
CONTINUOUS
62
7
100
AcDbLine
10
895.331406000000
20
123.333523000000
30
0.0
11
895.527603000000
21
122.871311000000
31
0.0
0
LINE
5
bf4
100
AcDbEntity
8
0-0
6
CONTINUOUS
62
7
100
AcDbLine
10
891.465286000000
20
121.692455000000
30
0.0
11
895.331406000000
21
123.333523000000
31
0.0
0
LINE
5
bf5
100
AcDbEntity
8
0-0
6
CONTINUOUS
62
7
100
AcDbLine
10
891.777874000000
20
120.956047000000
30
0.0
11
891.465286000000
21
121.692455000000
31
0.0
0
LINE
5
bf6
100
AcDbEntity
8
0-0
6
CONTINUOUS
62
7
100
AcDbLine
10
936.229230000000
20
134.986967000000
30
0.0
11
936.247590000000
21
134.943701000000
31
0.0
0
LINE
5
bf7
100
AcDbEntity
8
0-0
6
CONTINUOUS
62
7
100
AcDbLine
10
930.356689000000
20
129.494862000000
30
0.0
11
928.457230000000
21
130.961843000000
31
0.0
0
LINE
5
bf8
100
AcDbEntity
8
0-0
6
CONTINUOUS
62
7
100
AcDbLine
10
927.601486000000
20
129.853827000000
30
0.0
11
929.500946000000
21
128.386845000000
31
0.0
0
LINE
5
bf9
100
AcDbEntity
8
0-0
6
CONTINUOUS
62
7
100
AcDbLine
10
932.496040000000
20
132.264908000000
30
0.0
11
927.378357000000
21
125.638500000000
31
0.0
0
LINE
5
bfa
100
AcDbEntity
8
0-0
6
CONTINUOUS
62
7
100
AcDbLine
10
930.596588000000
20
133.731890000000
30
0.0
11
932.496040000000
21
132.264908000000
31
0.0
0
LINE
5
bfb
100
AcDbEntity
8
0-0
6
CONTINUOUS
62
7
100
AcDbLine
10
925.478897000000
20
127.105484000000
30
0.0
11
930.596588000000
21
133.731890000000
31
0.0
0
LINE
5
bfc
100
AcDbEntity
8
0-0
6
CONTINUOUS
62
7
100
AcDbLine
10
927.378357000000
20
125.638500000000
30
0.0
11
925.478897000000
21
127.105484000000
31
0.0
0
LINE
5
bfd
100
AcDbEntity
8
0-0
6
CONTINUOUS
62
7
100
AcDbLine
10
922.655998000000
20
130.877270000000
30
0.0
11
926.060555000000
21
122.856632000000
31
0.0
0
LINE
5
bfe
100
AcDbEntity
8
0-0
6
CONTINUOUS
62
7
100
AcDbLine
10
913.047722000000
20
131.183088000000
30
0.0
11
916.361824000000
21
130.529863000000
31
0.0
0
LINE
5
bff
100
AcDbEntity
8
0-0
6
CONTINUOUS
62
7
100
AcDbLine
10
916.748596000000
20
132.492111000000
30
0.0
11
913.434486000000
21
133.145334000000
31
0.0
0
LINE
5
c00
100
AcDbEntity
8
0-0
6
CONTINUOUS
62
7
100
AcDbLine
10
940.472580000000
20
141.625725000000
30
0.0
11
919.669167000000
21
132.795198000000
31
0.0
0
LINE
5
c01
100
AcDbEntity
8
0-0
6
CONTINUOUS
62
7
100
AcDbLine
10
941.254040000000
20
139.784714000000
30
0.0
11
940.472580000000
21
141.625725000000
31
0.0
0
LINE
5
c02
100
AcDbEntity
8
0-0
6
CONTINUOUS
62
7
100
AcDbLine
10
920.450630000000
20
130.954189000000
30
0.0
11
941.254040000000
21
139.784714000000
31
0.0
0
LINE
5
c03
100
AcDbEntity
8
0-0
6
CONTINUOUS
62
7
100
AcDbLine
10
924.071228000000
20
119.865292000000
30
0.0
11
919.502068000000
21
130.629551000000
31
0.0
0
LINE
5
c04
100
AcDbEntity
8
0-0
6
CONTINUOUS
62
7
100
AcDbLine
10
915.983864000000
20
119.560272000000
30
0.0
11
916.947372000000
21
118.834217000000
31
0.0
0
LINE
5
c05
100
AcDbEntity
8
0-0
6
CONTINUOUS
62
7
100
AcDbLine
10
912.072067000000
20
114.369141000000
30
0.0
11
913.035576000000
21
113.643085000000
31
0.0
0
LINE
5
c06
100
AcDbEntity
8
0-1
6
PHANTOM
62
4
100
AcDbLine
10
1075.213203435596
20
308.860987915224
30
0.0
11
1075.213203435596
21
219.868312751078
31
0.0
0
LINE
5
c07
100
AcDbEntity
8
0-1
6
PHANTOM
62
4
100
AcDbLine
10
1115.213203435596
20
308.860987915224
30
0.0
11
1115.213203435596
21
209.150345053833
31
0.0
0
LINE
5
c08
100
AcDbEntity
8
0-1
6
PHANTOM
62
4
100
AcDbLine
10
1070.197306651069
20
221.212318243809
30
0.0
11
1118.416725040378
21
208.291964026896
31
0.0
0
LINE
5
c09
100
AcDbEntity
8
0-1
6
CENTER
62
4
100
AcDbLine
10
1086.381179890867
20
267.647784479628
30
0.0
11
1028.000002000000
21
267.647784479628
31
0.0
0
LINE
5
c0a
100
AcDbEntity
8
0-1
6
PHANTOM
62
4
100
AcDbLine
10
1009.793767999001
20
308.860987915224
30
0.0
11
1115.213203435596
21
308.860987915224
31
0.0
0
LINE
5
c0b
100
AcDbEntity
8
0-1
6
PHANTOM
62
4
100
AcDbLine
10
1020.511735696246
20
268.860987915224
30
0.0
11
1115.213203435596
21
268.860987915224
31
0.0
0
LINE
5
c0c
100
AcDbEntity
8
0-1
6
PHANTOM
62
4
100
AcDbLine
10
1008.810554180212
20
312.530391841647
30
0.0
11
1021.100719019204
21
266.662872229134
31
0.0
0
LINE
5
c0d
100
AcDbEntity
8
0-1
6
CENTER
62
4
100
AcDbLine
10
1053.000000000000
20
235.916551479628
30
0.0
11
1053.000000000000
21
290.916551479628
31
0.0
0
LINE
5
c0e
100
AcDbEntity
8
0-1
6
CENTER
62
4
100
AcDbLine
10
1031.644660940673
20
288.860987915224
30
0.0
11
1079.330276418117
21
288.860987915224
31
0.0
0
LINE
5
c0f
100
AcDbEntity
8
0-1
6
CENTER
62
4
100
AcDbLine
10
1095.213203435596
20
267.516719144676
30
0.0
11
1095.213203435596
21
225.292445420301
31
0.0
0
LINE
5
c10
100
AcDbEntity
8
0-1
6
CENTER
62
4
100
AcDbLine
10
1074.000000000000
20
256.033819203339
30
0.0
11
1074.000000000000
21
279.201073470949
31
0.0
0
LINE
5
c11
100
AcDbEntity
8
0-1
6
CENTER
62
4
100
AcDbLine
10
1098.041630560343
20
263.405143792509
30
0.0
11
1092.384776310850
21
257.748289543017
31
0.0
0
LINE
5
c12
100
AcDbEntity
8
0-1
6
CENTER
62
4
100
AcDbLine
10
1098.041630560343
20
257.748289543017
30
0.0
11
1092.384776310850
21
263.405143792509
31
0.0
0
LINE
5
c13
100
AcDbEntity
8
0-1
6
CENTER
62
4
100
AcDbLine
10
1064.100505063388
20
291.689415039971
30
0.0
11
1069.757359312881
21
286.032560790478
31
0.0
0
LINE
5
c14
100
AcDbEntity
8
0-1
6
CENTER
62
4
100
AcDbLine
10
1064.100505063388
20
286.032560790478
30
0.0
11
1069.757359312881
21
291.689415039971
31
0.0
0
LINE
5
c15
100
AcDbEntity
8
0-1
6
CENTER
62
4
100
AcDbLine
10
1098.041630560343
20
229.464018295554
30
0.0
11
1092.384776310850
21
235.120872545047
31
0.0
0
LINE
5
c16
100
AcDbEntity
8
0-1
6
CENTER
62
4
100
AcDbLine
10
1092.384776310850
20
229.464018295554
30
0.0
11
1098.041630560343
21
235.120872545047
31
0.0
0
LINE
5
c17
100
AcDbEntity
8
0-1
6
CENTER
62
4
100
AcDbLine
10
1035.816233815926
20
291.689415039971
30
0.0
11
1041.473088065419
21
286.032560790478
31
0.0
0
LINE
5
c18
100
AcDbEntity
8
0-1
6
CENTER
62
4
100
AcDbLine
10
1041.473088065419
20
291.689415039971
30
0.0
11
1035.816233815926
21
286.032560790478
31
0.0
0
LINE
5
c19
100
AcDbEntity
8
0-0
6
CONTINUOUS
62
7
100
AcDbLine
10
1046.834488000000
20
243.945987479628
30
0.0
11
1046.834488000000
21
253.330271479628
31
0.0
0
LINE
5
c1a
100
AcDbEntity
8
0-0
6
CONTINUOUS
62
7
100
AcDbLine
10
1059.165512000000
20
243.945987479628
30
0.0
11
1059.165512000000
21
253.330271479628
31
0.0
0
LINE
5
c1b
100
AcDbEntity
8
0-0
6
CONTINUOUS
62
7
100
AcDbLine
10
1059.858333000000
20
255.247802479628
30
0.0
11
1062.358354188970
21
255.247799730315
31
0.0
0
ARC
5
c1c
100
AcDbEntity
8
0-0
6
CONTINUOUS
62
7
100
AcDbCircle
10
1073.989707000000
20
242.438959479628
30
0.0
40
8.226440000000
100
AcDbArc
50
283.736122000000
51
320.808931442830
0
ARC
5
c1d
100
AcDbEntity
8
0-0
6
CONTINUOUS
62
7
100
AcDbCircle
10
1057.460694000000
20
239.347785479628
30
0.0
40
4.000000000000
100
AcDbArc
50
59.859457000000
51
90.000000000000
0
ARC
5
c1e
100
AcDbEntity
8
0-0
6
CONTINUOUS
62
7
100
AcDbCircle
10
1074.943081000000
20
238.447798479628
30
0.0
40
4.000000000000
100
AcDbArc
50
239.859457000000
51
270.000000000000
0
ARC
5
c1f
100
AcDbEntity
8
0-0
6
CONTINUOUS
62
7
100
AcDbCircle
10
1062.165512000000
20
253.330271479628
30
0.0
40
3.000000000000
100
AcDbArc
50
140.269530000000
51
179.999997000000
0
LINE
5
c20
100
AcDbEntity
8
0-0
6
CONTINUOUS
62
7
100
AcDbLine
10
1074.943081000000
20
234.447798479628
30
0.0
11
1075.943080000000
21
234.447798479628
31
0.0
0
LINE
5
c21
100
AcDbEntity
8
0-0
6
CONTINUOUS
62
7
100
AcDbLine
10
1059.469185000000
20
242.806971479628
30
0.0
11
1072.934590000000
21
234.988613479628
31
0.0
0
ARC
5
c22
100
AcDbEntity
8
0-0
6
CONTINUOUS
62
7
100
AcDbCircle
10
1087.916240000000
20
267.647784479628
30
0.0
40
41.016238000000
100
AcDbArc
50
175.872769234765
51
201.451189000000
0
LINE
5
c23
100
AcDbEntity
8
0-0
6
CONTINUOUS
62
7
100
AcDbLine
10
1030.664345000000
20
277.647784479628
30
0.0
11
1039.958369439657
21
277.647784479628
31
0.0
0
LINE
5
c24
100
AcDbEntity
8
0-0
6
CONTINUOUS
62
7
100
AcDbLine
10
1039.758372439657
20
277.847781479628
30
0.0
11
1037.000000000000
21
277.847781479628
31
0.0
0
ARC
5
c25
100
AcDbEntity
8
0-0
6
CONTINUOUS
62
7
100
AcDbCircle
10
1031.722226000000
20
251.647792479628
30
0.0
40
1.250015000000
100
AcDbArc
50
306.870241000000
51
413.129759000000
0
ARC
5
c26
100
AcDbEntity
8
0-0
6
CONTINUOUS
62
7
100
AcDbCircle
10
1048.539306000000
20
239.347785479628
30
0.0
40
4.000000000000
100
AcDbArc
50
90.000000000000
51
120.140543000000
0
ARC
5
c27
100
AcDbEntity
8
0-0
6
CONTINUOUS
62
7
100
AcDbCircle
10
1031.056919000000
20
238.447798479628
30
0.0
40
4.000000000000
100
AcDbArc
50
270.000000000000
51
300.140543000000
0
ARC
5
c28
100
AcDbEntity
8
0-0
6
CONTINUOUS
62
7
100
AcDbCircle
10
1032.010293000000
20
242.438959479628
30
0.0
40
8.226440000000
100
AcDbArc
50
93.750111000000
51
256.263878000000
0
ARC
5
c29
100
AcDbEntity
8
0-0
6
CONTINUOUS
62
7
100
AcDbCircle
10
1033.010292000000
20
242.438959479628
30
0.0
40
8.226440000000
100
AcDbArc
50
93.750111000000
51
256.263878000000
0
ARC
5
c2a
100
AcDbEntity
8
0-0
6
CONTINUOUS
62
7
100
AcDbCircle
10
1039.797188000000
20
253.321666479628
30
0.0
40
3.000000000000
100
AcDbArc
50
0.000003000000
51
30.578070000000
0
ARC
5
c2b
100
AcDbEntity
8
0-0
6
CONTINUOUS
62
7
100
AcDbCircle
10
1040.197182000000
20
253.330271479628
30
0.0
40
3.000000000000
100
AcDbArc
50
0.000003000000
51
39.730470000000
0
ARC
5
c2c
100
AcDbEntity
8
0-0
6
CONTINUOUS
62
7
100
AcDbCircle
10
1043.834488000000
20
253.330271479628
30
0.0
40
3.000000000000
100
AcDbArc
50
0.000003000000
51
39.730470000000
0
ARC
5
c2d
100
AcDbEntity
8
0-0
6
CONTINUOUS
62
7
100
AcDbCircle
10
1043.500000000000
20
256.647784479628
30
0.0
40
1.000000000000
100
AcDbArc
50
180.000000000000
51
270.000000000000
0
ARC
5
c2e
100
AcDbEntity
8
0-0
6
CONTINUOUS
62
7
100
AcDbCircle
10
1030.664345000000
20
259.647784479628
30
0.0
40
2.000000000000
100
AcDbArc
50
189.494240000000
51
270.000000000000
0
ARC
5
c2f
100
AcDbEntity
8
0-0
6
CONTINUOUS
62
7
100
AcDbCircle
10
1030.664345000000
20
275.647784479628
30
0.0
40
2.000000000000
100
AcDbArc
50
89.999990000000
51
170.505760000000
0
ARC
5
c30
100
AcDbEntity
8
0-0
6
CONTINUOUS
62
7
100
AcDbCircle
10
1078.500002000000
20
267.647784479628
30
0.0
40
50.500000000000
100
AcDbArc
50
170.505760000000
51
189.494240000000
0
LINE
5
c31
100
AcDbEntity
8
0-0
6
CONTINUOUS
62
7
100
AcDbLine
10
1037.000000000000
20
277.847781479628
30
0.0
11
1037.000000000000
21
277.647784479628
31
0.0
0
LINE
5
c32
100
AcDbEntity
8
0-0
6
CONTINUOUS
62
7
100
AcDbLine
10
1031.056919000000
20
234.447798479628
30
0.0
11
1030.056920000000
21
234.447798479628
31
0.0
0
LINE
5
c33
100
AcDbEntity
8
0-0
6
CONTINUOUS
62
7
100
AcDbLine
10
1046.530815000000
20
242.806971479628
30
0.0
11
1033.065410000000
21
234.988613479628
31
0.0
0
LINE
5
c34
100
AcDbEntity
8
0-0
6
CONTINUOUS
62
7
100
AcDbLine
10
1029.222745000000
20
250.647784479628
30
0.0
11
1029.222745000000
21
252.647799479628
31
0.0
0
LINE
5
c35
100
AcDbEntity
8
0-0
6
CONTINUOUS
62
7
100
AcDbLine
10
1032.472241000000
20
250.647784479628
30
0.0
11
1029.222745000000
21
250.647784479628
31
0.0
0
LINE
5
c36
100
AcDbEntity
8
0-0
6
CONTINUOUS
62
7
100
AcDbLine
10
1042.500000000000
20
256.647784479628
30
0.0
11
1042.500000000000
21
257.647784479628
31
0.0
0
LINE
5
c37
100
AcDbEntity
8
0-0
6
CONTINUOUS
62
7
100
AcDbLine
10
1042.797188000000
20
253.321666479628
30
0.0
11
1042.797188000000
21
252.647799479628
31
0.0
0
LINE
5
c38
100
AcDbEntity
8
0-0
6
CONTINUOUS
62
7
100
AcDbLine
10
1043.197182000000
20
250.421400479628
30
0.0
11
1043.197182000000
21
253.330271479628
31
0.0
0
LINE
5
c39
100
AcDbEntity
8
0-0
6
CONTINUOUS
62
7
100
AcDbLine
10
1042.797188000000
20
252.647799479628
30
0.0
11
1043.197182000000
21
250.421400479628
31
0.0
0
LINE
5
c3a
100
AcDbEntity
8
0-0
6
CONTINUOUS
62
7
100
AcDbLine
10
1029.222745000000
20
252.647799479628
30
0.0
11
1042.797188000000
21
252.647799479628
31
0.0
0
LINE
5
c3b
100
AcDbEntity
8
0-0
6
CONTINUOUS
62
7
100
AcDbLine
10
1048.137701000000
20
257.647784479628
30
0.0
11
1030.664345000000
21
257.647784479628
31
0.0
0
LINE
5
c3c
100
AcDbEntity
8
0-0
6
CONTINUOUS
62
7
100
AcDbLine
10
1043.500000000000
20
255.647784479628
30
0.0
11
1048.694664000000
21
255.647784479628
31
0.0
0
LINE
5
c3d
100
AcDbEntity
8
0-0
6
CONTINUOUS
62
7
100
AcDbLine
10
1042.504364000000
20
255.247798479628
30
0.0
11
1042.380002000000
21
254.847796479628
31
0.0
0
LINE
5
c3e
100
AcDbEntity
8
0-0
6
CONTINUOUS
62
7
100
AcDbLine
10
1046.141667000000
20
255.247802479628
30
0.0
11
1042.504364000000
21
255.247798479628
31
0.0
0
LINE
5
c3f
100
AcDbEntity
8
0-0
6
CONTINUOUS
62
7
100
AcDbLine
10
1049.014675000000
20
254.647784479628
30
0.0
11
1046.529698000000
21
254.647784479628
31
0.0
0
LINE
5
c40
100
AcDbEntity
8
0-0
6
CONTINUOUS
62
7
100
AcDbLine
10
1046.834488000000
20
252.647799479628
30
0.0
11
1057.000000000000
21
252.647799479628
31
0.0
0
LINE
5
c41
100
AcDbEntity
8
0-0
6
CONTINUOUS
62
7
100
AcDbLine
10
1057.000000000000
20
243.347785479628
30
0.0
11
1048.539306000000
21
243.347785479628
31
0.0
0
ARC
5
c42
100
AcDbEntity
8
0-0
6
CONTINUOUS
62
7
100
AcDbCircle
10
1023.857811000000
20
242.438959479628
30
0.0
40
8.226440000000
100
AcDbArc
50
93.750111000000
51
256.263878000000
0
ARC
5
c43
100
AcDbEntity
8
0-0
6
CONTINUOUS
62
7
100
AcDbCircle
10
1067.603339523332
20
289.600794142400
30
0.0
40
6.000000000000
100
AcDbArc
50
45.000000000000
51
89.485131000000
0
ARC
5
c44
100
AcDbEntity
8
0-0
6
CONTINUOUS
62
7
100
AcDbCircle
10
1095.953008955665
20
261.251124710067
30
0.0
40
6.000000000000
100
AcDbArc
50
0.514869000000
51
45.000000000000
0
ARC
5
c45
100
AcDbEntity
8
0-0
6
CONTINUOUS
62
7
100
AcDbCircle
10
1074.000000000000
20
267.647784479628
30
0.0
40
19.300000000000
100
AcDbArc
50
16.742529000000
51
73.257471000000
0
CIRCLE
5
c46
100
AcDbEntity
8
0-0
6
CONTINUOUS
62
7
100
AcDbCircle
10
1074.000000000000
20
267.647784479628
30
0.0
40
7.500000000000
0
CIRCLE
5
c47
100
AcDbEntity
8
0-0
6
CONTINUOUS
62
7
100
AcDbCircle
10
1095.213203435596
20
260.576716667763
30
0.0
40
2.600000000000
0
CIRCLE
5
c48
100
AcDbEntity
8
0-0
6
CONTINUOUS
62
7
100
AcDbCircle
10
1066.928932188135
20
288.860987915224
30
0.0
40
2.600000000000
0
CIRCLE
5
c49
100
AcDbEntity
8
0-0
6
CONTINUOUS
62
7
100
AcDbCircle
10
1074.000000000000
20
267.647784479628
30
0.0
40
5.750000000000
0
ARC
5
c4a
100
AcDbEntity
8
0-0
6
CONTINUOUS
62
7
100
AcDbCircle
10
1038.644660940673
20
288.860987915224
30
0.0
40
7.000000000000
100
AcDbArc
50
89.485131000000
51
225.000010000000
0
CIRCLE
5
c4b
100
AcDbEntity
8
0-0
6
CONTINUOUS
62
7
100
AcDbCircle
10
1095.213203435596
20
232.292445420301
30
0.0
40
2.600000000000
0
ARC
5
c4c
100
AcDbEntity
8
0-0
6
CONTINUOUS
62
7
100
AcDbCircle
10
1095.213203435596
20
232.292445420301
30
0.0
40
7.000000000000
100
AcDbArc
50
224.999990000000
51
360.514869000000
0
CIRCLE
5
c4d
100
AcDbEntity
8
0-0
6
CONTINUOUS
62
7
100
AcDbCircle
10
1038.644660940673
20
288.860987915224
30
0.0
40
2.600000000000
0
LINE
5
c4e
100
AcDbEntity
8
0-0
6
CONTINUOUS
62
7
100
AcDbLine
10
1071.845980210451
20
293.843434829520
30
0.0
11
1100.195649642785
21
265.493765397186
31
0.0
0
LINE
5
c4f
100
AcDbEntity
8
0-0
6
CONTINUOUS
62
7
100
AcDbLine
10
1038.707563038606
20
295.860705117334
30
0.0
11
1067.657255708290
21
295.600552047254
31
0.0
0
LINE
5
c50
100
AcDbEntity
8
0-0
6
CONTINUOUS
62
7
100
AcDbLine
10
1090.263455967291
20
227.342697951995
30
0.0
11
1033.694913472367
21
283.911240446919
31
0.0
0
LINE
5
c51
100
AcDbEntity
8
0-0
6
CONTINUOUS
62
7
100
AcDbLine
10
1101.952766860519
20
261.305040895026
30
0.0
11
1102.212920637706
21
232.355347518235
31
0.0
0
LINE
5
c52
100
AcDbEntity
8
F-F_J_ADD
6
HIDDEN
62
253
100
AcDbLine
10
610.000000000000
20
-0.000000000000
30
0.0
11
610.000000000000
21
320.000000000000
31
0.0
0
LINE
5
c53
100
AcDbEntity
8
F-F_J_ADD
6
HIDDEN
62
253
100
AcDbLine
10
1140.000000000000
20
-0.000000000000
30
0.0
11
0.000000000000
21
-0.000000000000
31
0.0
0
LINE
5
c54
100
AcDbEntity
8
F-F_J_ADD
6
HIDDEN
62
253
100
AcDbLine
10
0.000000000000
20
120.000000000000
30
0.0
11
1140.000000000000
21
120.000000000000
31
0.0
0
LINE
5
c55
100
AcDbEntity
8
F-F_J_ADD
6
HIDDEN
62
253
100
AcDbLine
10
1140.000000000000
20
-0.000000000000
30
0.0
11
1140.000000000000
21
320.000000000000
31
0.0
0
LINE
5
c56
100
AcDbEntity
8
F-F_J_ADD
6
HIDDEN
62
253
100
AcDbLine
10
840.000000000000
20
-0.000000000000
30
0.0
11
840.000000000000
21
320.000000000000
31
0.0
0
LINE
5
c57
100
AcDbEntity
8
F-F_J_ADD
6
HIDDEN
62
253
100
AcDbLine
10
990.000000000000
20
-0.000000000000
30
0.0
11
990.000000000000
21
320.000000000000
31
0.0
0
LINE
5
c58
100
AcDbEntity
8
F-F_J_ADD
6
HIDDEN
62
253
100
AcDbLine
10
0.000000000000
20
320.000000000000
30
0.0
11
1140.000000000000
21
320.000000000000
31
0.0
0
LINE
5
c59
100
AcDbEntity
8
F-F_J_ADD
6
HIDDEN
62
253
100
AcDbLine
10
0.000000000000
20
-0.000000000000
30
0.0
11
0.000000000000
21
320.000000000000
31
0.0
0
LINE
5
c5a
100
AcDbEntity
8
F-F_J_ADD
6
HIDDEN
62
253
100
AcDbLine
10
200.000000000000
20
-0.000000000000
30
0.0
11
200.000000000000
21
320.000000000000
31
0.0
0
LINE
5
c5b
100
AcDbEntity
8
F-F_J_ADD
6
HIDDEN
62
253
100
AcDbLine
10
400.000000000000
20
-0.000000000000
30
0.0
11
400.000000000000
21
320.000000000000
31
0.0
0
TEXT
5
c5c
100
AcDbEntity
8
0-0
62
7
370
-3
100
AcDbText
10
610.172
20
0.660
30
0.0
40
3.618
1
CAP5-UR
41
0.382
50
0.000
100
AcDbText
0
TEXT
5
c5d
100
AcDbEntity
8
0-0
62
7
370
-3
100
AcDbText
10
400.172
20
0.660
30
0.0
40
3.618
1
CA50VN
41
0.374
50
0.000
100
AcDbText
0
TEXT
5
c5e
100
AcDbEntity
8
0-0
62
7
370
-3
100
AcDbText
10
200.172
20
0.660
30
0.0
40
3.618
1
CA50V
41
0.372
50
0.000
100
AcDbText
0
TEXT
5
c5f
100
AcDbEntity
8
0-0
62
7
370
-3
100
AcDbText
10
840.172
20
0.660
30
0.0
40
3.618
1
CAP5-UR25
41
0.376
50
0.000
100
AcDbText
0
TEXT
5
c60
100
AcDbEntity
8
0-0
62
7
370
-3
100
AcDbText
10
990.172
20
0.660
30
0.0
40
3.618
1
CAP5-UR40
41
0.392
50
0.000
100
AcDbText
0
ENDSEC
 0
SECTION
  2
OBJECTS
 0
DICTIONARY
  5
C
100
AcDbDictionary
  3
ACAD_GROUP
350
D
  3
ACAD_MLINESTYLE
350
E
 0
DICTIONARY
  5
D
102
{ACAD_REACTORS
102
}
100
AcDbDictionary
 0
DICTIONARY
  5
E
102
{ACAD_REACTORS
102
}
100
AcDbDictionary
  3
STANDARD
350
13
0
MLINESTYLE
  5
13
102
{ACAD_REACTORS
102
}
100
AcDbMlineStyle
  2
STANDARD
 70
    0
3

62
256
51
90.0
52
90.0
71
0
0
ACDBPLACEHOLDER
  5
14
102
{ACAD_REACTORS
102
}
0
ENDSEC
0
EOF
