0
SECTION
2
HEADER
9
$ACADVER
1
AC1015
9
$ACADMAINTVER
 70
6
9
$DWGCODEPAGE
3
ANSI_932
9
$EXTMIN
10
0.000
20
0.000
30
0.0
9
$EXTMAX
10
1189.000
20
841.000
30
0.0
9
$LIMMIN
10
0.000
20
0.000
9
$LIMMAX
10
1189.000
20
841.000
9
$DIMSCALE
40
1.000000
9
$LTSCALE
40
2.000
9
$PDMODE
70
0
9
$PDSIZE
40
40.0
9
$HANDSEED
5
6216b
9
$UNITMODE
70
0
9
$VISRETAIN
70
0
9
$PLINEGEN
70
0
9
$PSLTSCALE
70
1
9
$TREEDEPTH
70
3020
9
$CMLSTYLE
2
STANDARD
9
$CMLJUST
70
0
9
$CMLSCALE
40
1.0
9
$PROXYGRAPHICS
70
1
9
$MEASUREMENT
70
0
9
$CELWEIGHT
370
-1
9
$ENDCAPS
280
0
9
$JOINSTYLE
280
0
9
$LWDISPLAY
290
0
9
$INSUNITS
70
0
9
$HYPERLINKBASE
1

9
$STYLESHEET
1

9
$XEDIT
290
1
9
$CEPSNTYPE
380
0
9
$PSTYLEMODE
290
1
9
$FINGERPRINTGUID
2
{5F082321-0195-11D3-BDFB-0060B0CD5109}
9
$VERSIONGUID
2
{12943756-294D-11D3-98C2-0060B087942D}
9
$EXTNAMES
290
1
9
$PSVPSCALE
40
0.0
9
$OLESTARTUP
290
0
0
ENDSEC
0
SECTION
  2
CLASSES
0
ENDSEC
0
SECTION
2
TABLES
0
TABLE
2
VPORT
5
190
100
AcDbSymbolTable
70
2
0
VPORT
5
191
100
AcDbSymbolTableRecord
100
AcDbViewportTableRecord
2
*ACTIVE
70
0
10
0.0
20
0.0
11
1.0
21
1.0
12
594.500
22
420.500
13
0.0
23
0.0
14
1.0
24
1.0
15
0.0
25
0.0
16
0.0
26
0.0
36
1.0
17
0.0
27
0.0
37
0.0
40
861.594
41
2.0
42
50.0
43
0.0
44
0.0
50
0.0
51
0.0
71
0
72
1000
73
1
74
1
75
0
76
0
77
0
78
0
0
ENDTAB
0
TABLE
2
LTYPE
5
1f4
100
AcDbSymbolTable
70
9
0
LTYPE
5
1f5
100
AcDbSymbolTableRecord
100
AcDbLinetypeTableRecord
2
BYBLOCK
70
 64
3

72
 65
73
  0
40
0.0
0
LTYPE
5
1f6
100
AcDbSymbolTableRecord
100
AcDbLinetypeTableRecord
2
BYLAYER
70
 64
3

72
 65
73
  0
40
0.0
0
LTYPE
5
1f7
100
AcDbSymbolTableRecord
100
AcDbLinetypeTableRecord
2
CONTINUOUS
70
64
3
SolidLine
72
65
73
0
40
0.0
0
LTYPE
5
1f8
100
AcDbSymbolTableRecord
100
AcDbLinetypeTableRecord
2
DOT
70
64
3
--  --  --  --  --  --  --  --     
72
65
73
2
40
3.000
49
1.000
74
0
49
-2.000
74
0
0
LTYPE
5
1f9
100
AcDbSymbolTableRecord
100
AcDbLinetypeTableRecord
2
DASHED
70
64
3
----    ----    ----    ----    
72
65
73
2
40
5.000
49
2.000
74
0
49
-3.000
74
0
0
LTYPE
5
1fa
100
AcDbSymbolTableRecord
100
AcDbLinetypeTableRecord
2
DASHED2
70
64
3
------  ------  ------  ------ 
72
65
73
2
40
10.000
49
4.000
74
0
49
-6.000
74
0
0
LTYPE
5
1fb
100
AcDbSymbolTableRecord
100
AcDbLinetypeTableRecord
2
CENTER
70
64
3
----- - ----- - ----- - ----- - 
72
65
73
4
40
10.000
49
6.000
74
0
49
-3.000
74
0
49
1.000
74
0
49
-3.000
74
0
0
LTYPE
5
1fc
100
AcDbSymbolTableRecord
100
AcDbLinetypeTableRecord
2
CENTER2
70
64
3
----------  --  ----------  -- 
72
65
73
4
40
17.000
49
12.000
74
0
49
-5.000
74
0
49
2.000
74
0
49
-5.000
74
0
0
LTYPE
5
1fd
100
AcDbSymbolTableRecord
100
AcDbLinetypeTableRecord
2
PHANTOM
70
64
3
--- - - --- - - --- - - --- - -
72
65
73
6
40
13.000
49
5.000
74
0
49
-3.000
74
0
49
1.000
74
0
49
-3.000
74
0
49
1.000
74
0
49
-3.000
74
0
0
LTYPE
5
1fe
100
AcDbSymbolTableRecord
100
AcDbLinetypeTableRecord
2
PHANTOM2
70
64
3
--------  -  -  --------  -  -
72
65
73
6
40
20.000
49
6.000
74
0
49
-5.000
74
0
49
2.000
74
0
49
-5.000
74
0
49
2.000
74
0
49
-5.000
74
0
0
LTYPE
5
1ff
100
AcDbSymbolTableRecord
100
AcDbLinetypeTableRecord
2
HIDDEN
70
64
3
-   -   -   -   -   -   -   -   
72
65
73
2
40
3.000
49
0.500
74
0
49
-2.500
74
0
0
ENDTAB
0
TABLE
2
STYLE
5
200
100
AcDbSymbolTable
70
1
0
STYLE
5
201
100
AcDbSymbolTableRecord
100
AcDbTextStyleTableRecord
2
STANDARD
70
0
40
0.0
41
1.0
50
0.0
71
0
42
0.0
3
txt.shx
4
extfont.shx
0
STYLE
5
202
100
AcDbSymbolTableRecord
100
AcDbTextStyleTableRecord
2
TATEGAKI
70
4
40
0.0
41
1.0
50
0.0
71
0
42
0.0
3
txt.shx
4
extfont.shx
0
STYLE
5
203
100
AcDbSymbolTableRecord
100
AcDbTextStyleTableRecord
2
DIM
70
0
40
0.0
41
0.75
50
0.0
71
0
42
0.0
3
txt.shx
4
extfont.shx
0
STYLE
5
204
100
AcDbSymbolTableRecord
100
AcDbTextStyleTableRecord
2
_Gothic_
70
0
40
1.0
41
1.0
50
0.0
71
0
42
10.0
3

4

1001
ACAD
1000
MS Gothic
1071
32817
0
STYLE
5
205
100
AcDbSymbolTableRecord
100
AcDbTextStyleTableRecord
2
_TateGothic_
70
4
40
0.0
41
1.0
50
0.0
71
0
42
0.0
3
@MS Gothic
4

0
ENDTAB
0
TABLE
2
VIEW
5
206
100
AcDbSymbolTable
70
0
0
ENDTAB
0
TABLE
2
UCS
5
207
100
AcDbSymbolTable
70
0
0
ENDTAB
0
TABLE
2
APPID
5
208
100
AcDbSymbolTable
70
1
0
APPID
5
209
100
AcDbSymbolTableRecord
100
AcDbRegAppTableRecord
2
ACAD
70
0
0
ENDTAB
0
TABLE
2
DIMSTYLE
5
403
330
0
100
AcDbSymbolTable
70
1
100
AcDbDimStyleTable
71
0
0
DIMSTYLE
105
404
330
402
100
AcDbSymbolTableRecord
100
AcDbDimStyleTableRecord
2
JAC_DIM
70
0
41
2.000
42
0.000
44
0.0
73
0
74
0
77
1
78
8
79
2
140
0.000
170
0
171
2
172
0
173
0
174
0
175
0
176
0
177
0
178
0
270
2
271
0
272
0
273
2
274
2
340
201
275
0
280
0
281
0
282
0
283
0
284
0
285
0
286
0
287
3
288
0
0
ENDTAB
0
TABLE
2
BLOCK_RECORD
5
405
100
AcDbSymbolTable
70
0
0
BLOCK_RECORD
5
406
100
AcDbSymbolTableRecord
100
AcDbBlockTableRecord
2
*MODEL_SPACE
0
BLOCK_RECORD
5
407
100
AcDbSymbolTableRecord
100
AcDbBlockTableRecord
2
*PAPER_SPACE
0
BLOCK_RECORD
5
408
100
AcDbSymbolTableRecord
100
AcDbBlockTableRecord
2
_JACCONVERT_
0
ENDTAB
0
TABLE
2
LAYER
5
409
100
AcDbSymbolTable
70
10
0
LAYER
5
40a
100
AcDbSymbolTableRecord
100
AcDbLayerTableRecord
2
0
70
0
62
7
6
CONTINUOUS
370
-3
390
14
0
LAYER
5
40b
100
AcDbSymbolTableRecord
100
AcDbLayerTableRecord
2
0-0
70
0
62
7
6
CONTINUOUS
370
-3
390
14
0
LAYER
5
40c
100
AcDbSymbolTableRecord
100
AcDbLayerTableRecord
2
0-F
70
0
62
7
6
CONTINUOUS
370
-3
390
14
0
LAYER
5
40d
100
AcDbSymbolTableRecord
100
AcDbLayerTableRecord
2
F-F_J_ADD
70
0
62
-7
6
CONTINUOUS
290
0
370
-3
390
14
0
ENDTAB
0
ENDSEC
0
SECTION
2
BLOCKS
0
BLOCK
5
40e
100
AcDbEntity
67
1
8
0
100
AcDbBlockBegin
2
*MODEL_SPACE
70
0
10
0.0
20
0.0
30
0.0
3
*MODEL_SPACE
1

0
ENDBLK
5
40f
100
AcDbEntity
8
0
100
AcDbBlockEnd
0
BLOCK
5
410
100
AcDbEntity
67
1
8
0
100
AcDbBlockBegin
2
*PAPER_SPACE
70
0
10
0.0
20
0.0
30
0.0
3
*PAPER_SPACE
1

0
ENDBLK
5
411
100
AcDbEntity
67
1
8
0
100
AcDbBlockEnd
0
BLOCK
5
412
100
AcDbEntity
8
0
100
AcDbBlockBegin
2
_JACCONVERT_
70
2
10
0.0
20
0.0
30
0.0
3
_JACCONVERT_
1
_JACCONVERT_
0
ATTDEF
5
413
100
AcDbEntity
8
0
62
0
100
AcDbText
10
0.0
20
0.0
30
0.0
40
1.0
1
User:UnSettingUp
100
AcDbAttributeDefinition
3

2
USER
70
8
0
ATTDEF
5
414
100
AcDbEntity
8
0
62
0
100
AcDbText
10
0.0
20
2.0
30
0.0
40
1.0
1
Date:23/07/14 16:41
100
AcDbAttributeDefinition
3

2
REVDATE
70
8
0
ATTDEF
5
415
100
AcDbEntity
8
0
62
0
100
AcDbText
10
0.0
20
4.0
30
0.0
40
1.0
1
File:105_LECO25_endcap.dxf
100
AcDbAttributeDefinition
3

2
FNAME
70
8
0
ATTDEF
5
416
100
AcDbEntity
8
0
62
0
100
AcDbText
10
0.0
20
6.0
30
0.0
40
1.0
1
JacConvert Version3.11 copyright (c) 2001-2016 K.Nakahara
100
AcDbAttributeDefinition
3

2
VER
70
8
0
ENDBLK
5
417
100
AcDbEntity
67
1
8
0
100
AcDbBlockEnd
0
ENDSEC
0
SECTION
2
ENTITIES
0
LINE
5
418
100
AcDbEntity
8
0-0
6
CONTINUOUS
62
7
100
AcDbLine
10
442.506438710376
20
921.459738049323
30
0.0
11
439.830077967062
21
921.459738049323
31
0.0
0
LINE
5
419
100
AcDbEntity
8
0-0
6
CONTINUOUS
62
7
100
AcDbLine
10
814.028002547538
20
65.900010000000
30
0.0
11
815.728002547539
21
65.900010000000
31
0.0
0
LINE
5
41a
100
AcDbEntity
8
0-0
6
CONTINUOUS
62
7
100
AcDbLine
10
816.028002547538
20
65.600010000000
30
0.0
11
816.028002547538
21
56.400010000000
31
0.0
0
LINE
5
41b
100
AcDbEntity
8
0-0
6
CONTINUOUS
62
7
100
AcDbLine
10
815.728002547539
20
56.100010000000
30
0.0
11
814.028002547538
21
56.100010000000
31
0.0
0
LINE
5
41c
100
AcDbEntity
8
0-0
6
CONTINUOUS
62
7
100
AcDbLine
10
816.028002547538
20
57.500010000000
30
0.0
11
819.606506481903
21
57.687551444356
31
0.0
0
LINE
5
41d
100
AcDbEntity
8
0-0
6
CONTINUOUS
62
7
100
AcDbLine
10
821.028002547538
20
59.185495746488
30
0.0
11
821.028002547538
21
62.814524253513
31
0.0
0
LINE
5
41e
100
AcDbEntity
8
0-0
6
CONTINUOUS
62
7
100
AcDbLine
10
819.606506481903
20
64.312468555644
30
0.0
11
816.028002547538
21
64.500010000000
31
0.0
0
ARC
5
41f
100
AcDbEntity
8
0-0
6
CONTINUOUS
62
7
100
AcDbCircle
10
819.528002547538
20
59.185495746488
30
0.0
40
1.500000000000
100
AcDbArc
50
273.000000000000
51
360.000000000000
0
ARC
5
420
100
AcDbEntity
8
0-0
6
CONTINUOUS
62
7
100
AcDbCircle
10
819.528002547538
20
62.814524253513
30
0.0
40
1.500000000000
100
AcDbArc
50
0.000000000000
51
87.000000000000
0
ARC
5
421
100
AcDbEntity
8
0-0
6
CONTINUOUS
62
7
100
AcDbCircle
10
815.728002547539
20
56.400010000000
30
0.0
40
0.300000000000
100
AcDbArc
50
270.000000000000
51
360.000000000000
0
ARC
5
422
100
AcDbEntity
8
0-0
6
CONTINUOUS
62
7
100
AcDbCircle
10
815.728002547539
20
65.600010000000
30
0.0
40
0.300000000000
100
AcDbArc
50
0.000000000000
51
90.000000000000
0
LINE
5
423
100
AcDbEntity
8
0-0
6
CONTINUOUS
62
7
100
AcDbLine
10
765.300000000000
20
55.000000000000
30
0.0
11
772.700000000000
21
55.000000000000
31
0.0
0
LINE
5
424
100
AcDbEntity
8
0-0
6
CONTINUOUS
62
7
100
AcDbLine
10
773.000000000000
20
54.700000000000
30
0.0
11
773.000000000000
21
52.300000000000
31
0.0
0
LINE
5
425
100
AcDbEntity
8
0-0
6
CONTINUOUS
62
7
100
AcDbLine
10
772.700000000000
20
52.000000000000
30
0.0
11
765.300000000000
21
52.000000000000
31
0.0
0
LINE
5
426
100
AcDbEntity
8
0-0
6
CONTINUOUS
62
7
100
AcDbLine
10
765.000000000000
20
52.300000000000
30
0.0
11
765.000000000000
21
54.700000000000
31
0.0
0
POLYLINE
5
427
100
AcDbEntity
8
0-0
6
CONTINUOUS
62
  7
100
AcDb2dPolyline
66
1
10
0.0
20
0.0
30
0.0
70
0
0
VERTEX
5
428
100
AcDbEntity
8
0-0
6
CONTINUOUS
62
  7
100
AcDbVertex
100
AcDb2dVertex
10
765.534670000000
20
54.551170000000
30
0.0
0
VERTEX
5
429
100
AcDbEntity
8
0-0
6
CONTINUOUS
62
  7
100
AcDbVertex
100
AcDb2dVertex
10
765.534670000000
20
52.509610000000
30
0.0
0
VERTEX
5
42a
100
AcDbEntity
8
0-0
6
CONTINUOUS
62
  7
100
AcDbVertex
100
AcDb2dVertex
10
766.964010000000
20
52.509610000000
30
0.0
0
VERTEX
5
42b
100
AcDbEntity
8
0-0
6
CONTINUOUS
62
  7
100
AcDbVertex
100
AcDb2dVertex
10
766.964010000000
20
52.873560000000
30
0.0
0
VERTEX
5
42c
100
AcDbEntity
8
0-0
6
CONTINUOUS
62
  7
100
AcDbVertex
100
AcDb2dVertex
10
766.043780000000
20
52.873560000000
30
0.0
0
VERTEX
5
42d
100
AcDbEntity
8
0-0
6
CONTINUOUS
62
  7
100
AcDbVertex
100
AcDb2dVertex
10
766.043780000000
20
54.551170000000
30
0.0
0
VERTEX
5
42e
100
AcDbEntity
8
0-0
6
CONTINUOUS
62
  7
100
AcDbVertex
100
AcDb2dVertex
10
765.534670000000
20
54.551170000000
30
0.0
0
SEQEND
5
42f
100
AcDbEntity
8
0-0
0
POLYLINE
5
430
100
AcDbEntity
8
0-0
6
CONTINUOUS
62
  7
100
AcDb2dPolyline
66
1
10
0.0
20
0.0
30
0.0
70
0
0
VERTEX
5
431
100
AcDbEntity
8
0-0
6
CONTINUOUS
62
  7
100
AcDbVertex
100
AcDb2dVertex
10
767.356810000000
20
54.551170000000
30
0.0
0
VERTEX
5
432
100
AcDbEntity
8
0-0
6
CONTINUOUS
62
  7
100
AcDbVertex
100
AcDb2dVertex
10
768.786530000000
20
54.551170000000
30
0.0
0
VERTEX
5
433
100
AcDbEntity
8
0-0
6
CONTINUOUS
62
  7
100
AcDbVertex
100
AcDb2dVertex
10
768.786530000000
20
54.187210000000
30
0.0
0
VERTEX
5
434
100
AcDbEntity
8
0-0
6
CONTINUOUS
62
  7
100
AcDbVertex
100
AcDb2dVertex
10
767.864110000000
20
54.187210000000
30
0.0
0
VERTEX
5
435
100
AcDbEntity
8
0-0
6
CONTINUOUS
62
  7
100
AcDbVertex
100
AcDb2dVertex
10
767.864110000000
20
53.713770000000
30
0.0
0
VERTEX
5
436
100
AcDbEntity
8
0-0
6
CONTINUOUS
62
  7
100
AcDbVertex
100
AcDb2dVertex
10
768.698560000000
20
53.713770000000
30
0.0
0
VERTEX
5
437
100
AcDbEntity
8
0-0
6
CONTINUOUS
62
  7
100
AcDbVertex
100
AcDb2dVertex
10
768.698560000000
20
53.372110000000
30
0.0
0
VERTEX
5
438
100
AcDbEntity
8
0-0
6
CONTINUOUS
62
  7
100
AcDbVertex
100
AcDb2dVertex
10
767.864110000000
20
53.372110000000
30
0.0
0
VERTEX
5
439
100
AcDbEntity
8
0-0
6
CONTINUOUS
62
  7
100
AcDbVertex
100
AcDb2dVertex
10
767.864110000000
20
52.873560000000
30
0.0
0
VERTEX
5
43a
100
AcDbEntity
8
0-0
6
CONTINUOUS
62
  7
100
AcDbVertex
100
AcDb2dVertex
10
768.786530000000
20
52.873560000000
30
0.0
0
VERTEX
5
43b
100
AcDbEntity
8
0-0
6
CONTINUOUS
62
  7
100
AcDbVertex
100
AcDb2dVertex
10
768.786530000000
20
52.509610000000
30
0.0
0
VERTEX
5
43c
100
AcDbEntity
8
0-0
6
CONTINUOUS
62
  7
100
AcDbVertex
100
AcDb2dVertex
10
767.356810000000
20
52.509610000000
30
0.0
0
VERTEX
5
43d
100
AcDbEntity
8
0-0
6
CONTINUOUS
62
  7
100
AcDbVertex
100
AcDb2dVertex
10
767.356810000000
20
54.551170000000
30
0.0
0
SEQEND
5
43e
100
AcDbEntity
8
0-0
0
LINE
5
43f
100
AcDbEntity
8
0-0
6
CONTINUOUS
62
7
100
AcDbLine
10
770.089970000000
20
53.941450000000
30
0.0
11
770.610070000000
21
53.941450000000
31
0.0
0
LINE
5
440
100
AcDbEntity
8
0-0
6
CONTINUOUS
62
7
100
AcDbLine
10
770.623490000000
20
53.205790000000
30
0.0
11
770.092500000000
21
53.205790000000
31
0.0
0
ARC
5
441
100
AcDbEntity
8
0-0
6
CONTINUOUS
62
7
100
AcDbCircle
10
771.558520000000
20
53.530390000000
30
0.0
40
2.398986300000
100
AcDbArc
50
164.216000000000
51
195.783990000000
0
ARC
5
442
100
AcDbEntity
8
0-0
6
CONTINUOUS
62
7
100
AcDbCircle
10
775.795690000000
20
53.530390000000
30
0.0
40
6.092738900000
100
AcDbArc
50
176.789190000000
51
183.210800000000
0
ARC
5
443
100
AcDbEntity
8
0-0
6
CONTINUOUS
62
7
100
AcDbCircle
10
769.790610000000
20
53.065230000000
30
0.0
40
0.572178900000
100
AcDbArc
50
199.118120000000
51
253.770890000000
0
ARC
5
444
100
AcDbEntity
8
0-0
6
CONTINUOUS
62
7
100
AcDbCircle
10
769.902540000000
20
53.584730000000
30
0.0
40
1.102902900000
100
AcDbArc
50
255.730700000000
51
284.269290000000
0
ARC
5
445
100
AcDbEntity
8
0-0
6
CONTINUOUS
62
7
100
AcDbCircle
10
770.014470000000
20
53.065230000000
30
0.0
40
0.572178900000
100
AcDbArc
50
286.229100000000
51
340.881870000000
0
ARC
5
446
100
AcDbEntity
8
0-0
6
CONTINUOUS
62
7
100
AcDbCircle
10
768.246560000000
20
53.530390000000
30
0.0
40
2.398986300000
100
AcDbArc
50
344.216000000000
51
352.223750000000
0
ARC
5
447
100
AcDbEntity
8
0-0
6
CONTINUOUS
62
7
100
AcDbCircle
10
769.902540000000
20
52.997740000000
30
0.0
40
0.165862900000
100
AcDbArc
50
198.780930000000
51
341.219060000000
0
ARC
5
448
100
AcDbEntity
8
0-0
6
CONTINUOUS
62
7
100
AcDbCircle
10
769.166330000000
20
53.189630000000
30
0.0
40
0.926307300000
100
AcDbArc
50
344.644740000000
51
361.000075600000
0
ARC
5
449
100
AcDbEntity
8
0-0
6
CONTINUOUS
62
7
100
AcDbCircle
10
770.638750000000
20
53.189630000000
30
0.0
40
0.926307300000
100
AcDbArc
50
179.280770000000
51
195.355250000000
0
ARC
5
44a
100
AcDbEntity
8
0-0
6
CONTINUOUS
62
7
100
AcDbCircle
10
769.902540000000
20
54.063040000000
30
0.0
40
0.165862900000
100
AcDbArc
50
18.780934000000
51
161.219060000000
0
ARC
5
44b
100
AcDbEntity
8
0-0
6
CONTINUOUS
62
7
100
AcDbCircle
10
770.638750000000
20
53.871150000000
30
0.0
40
0.926307300000
100
AcDbArc
50
164.644740000000
51
180.719220000000
0
ARC
5
44c
100
AcDbEntity
8
0-0
6
CONTINUOUS
62
7
100
AcDbCircle
10
769.166330000000
20
53.871150000000
30
0.0
40
0.926307300000
100
AcDbArc
50
4.352810000000
51
15.355258000000
0
ARC
5
44d
100
AcDbEntity
8
0-0
6
CONTINUOUS
62
7
100
AcDbCircle
10
770.014470000000
20
53.995540000000
30
0.0
40
0.572178900000
100
AcDbArc
50
19.118120000000
51
73.770896000000
0
ARC
5
44e
100
AcDbEntity
8
0-0
6
CONTINUOUS
62
7
100
AcDbCircle
10
768.246560000000
20
53.530390000000
30
0.0
40
2.398986300000
100
AcDbArc
50
9.866322700000
51
15.783997000000
0
ARC
5
44f
100
AcDbEntity
8
0-0
6
CONTINUOUS
62
7
100
AcDbCircle
10
769.902540000000
20
53.476040000000
30
0.0
40
1.102902900000
100
AcDbArc
50
75.730707000000
51
104.269290000000
0
ARC
5
450
100
AcDbEntity
8
0-0
6
CONTINUOUS
62
7
100
AcDbCircle
10
769.790610000000
20
53.995540000000
30
0.0
40
0.572178900000
100
AcDbArc
50
106.229100000000
51
160.881870000000
0
ARC
5
451
100
AcDbEntity
8
0-0
6
CONTINUOUS
62
7
100
AcDbCircle
10
773.347810000000
20
53.530390000000
30
0.0
40
2.398986300000
100
AcDbArc
50
164.216000000000
51
195.783990000000
0
ARC
5
452
100
AcDbEntity
8
0-0
6
CONTINUOUS
62
7
100
AcDbCircle
10
777.584980000000
20
53.530390000000
30
0.0
40
6.092738900000
100
AcDbArc
50
176.789190000000
51
183.210800000000
0
ARC
5
453
100
AcDbEntity
8
0-0
6
CONTINUOUS
62
7
100
AcDbCircle
10
765.798680000000
20
53.530390000000
30
0.0
40
6.092738900000
100
AcDbArc
50
356.789190000000
51
363.210809900000
0
ARC
5
454
100
AcDbEntity
8
0-0
6
CONTINUOUS
62
7
100
AcDbCircle
10
771.691830000000
20
52.997740000000
30
0.0
40
0.165862900000
100
AcDbArc
50
198.780930000000
51
341.219060000000
0
ARC
5
455
100
AcDbEntity
8
0-0
6
CONTINUOUS
62
7
100
AcDbCircle
10
771.691830000000
20
53.584730000000
30
0.0
40
1.102902900000
100
AcDbArc
50
255.730700000000
51
284.269290000000
0
ARC
5
456
100
AcDbEntity
8
0-0
6
CONTINUOUS
62
7
100
AcDbCircle
10
771.803760000000
20
53.065230000000
30
0.0
40
0.572178900000
100
AcDbArc
50
286.229100000000
51
340.881870000000
0
ARC
5
457
100
AcDbEntity
8
0-0
6
CONTINUOUS
62
7
100
AcDbCircle
10
771.579900000000
20
53.065230000000
30
0.0
40
0.572178900000
100
AcDbArc
50
199.118120000000
51
253.770890000000
0
ARC
5
458
100
AcDbEntity
8
0-0
6
CONTINUOUS
62
7
100
AcDbCircle
10
770.035850000000
20
53.530390000000
30
0.0
40
2.398986300000
100
AcDbArc
50
344.216000000000
51
375.783997000000
0
ARC
5
459
100
AcDbEntity
8
0-0
6
CONTINUOUS
62
7
100
AcDbCircle
10
770.955620000000
20
53.189630000000
30
0.0
40
0.926307300000
100
AcDbArc
50
344.644740000000
51
360.719224300000
0
ARC
5
45a
100
AcDbEntity
8
0-0
6
CONTINUOUS
62
7
100
AcDbCircle
10
772.428040000000
20
53.189630000000
30
0.0
40
0.926307300000
100
AcDbArc
50
179.280770000000
51
195.355250000000
0
ARC
5
45b
100
AcDbEntity
8
0-0
6
CONTINUOUS
62
7
100
AcDbCircle
10
772.428040000000
20
53.871150000000
30
0.0
40
0.926307300000
100
AcDbArc
50
164.644740000000
51
180.719220000000
0
ARC
5
45c
100
AcDbEntity
8
0-0
6
CONTINUOUS
62
7
100
AcDbCircle
10
771.691830000000
20
54.063040000000
30
0.0
40
0.165862900000
100
AcDbArc
50
18.780934000000
51
161.219060000000
0
ARC
5
45d
100
AcDbEntity
8
0-0
6
CONTINUOUS
62
7
100
AcDbCircle
10
770.955620000000
20
53.871150000000
30
0.0
40
0.926307300000
100
AcDbArc
50
359.280770000000
51
375.355258000000
0
ARC
5
45e
100
AcDbEntity
8
0-0
6
CONTINUOUS
62
7
100
AcDbCircle
10
771.691830000000
20
53.476040000000
30
0.0
40
1.102902900000
100
AcDbArc
50
75.730707000000
51
104.269290000000
0
ARC
5
45f
100
AcDbEntity
8
0-0
6
CONTINUOUS
62
7
100
AcDbCircle
10
771.579900000000
20
53.995540000000
30
0.0
40
0.572178900000
100
AcDbArc
50
106.229100000000
51
160.881870000000
0
ARC
5
460
100
AcDbEntity
8
0-0
6
CONTINUOUS
62
7
100
AcDbCircle
10
771.803760000000
20
53.995540000000
30
0.0
40
0.572178900000
100
AcDbArc
50
19.118120000000
51
73.770896000000
0
ARC
5
461
100
AcDbEntity
8
0-0
6
CONTINUOUS
62
7
100
AcDbCircle
10
765.300000000000
20
52.300000000000
30
0.0
40
0.300000000000
100
AcDbArc
50
180.000000000000
51
270.000000000000
0
ARC
5
462
100
AcDbEntity
8
0-0
6
CONTINUOUS
62
7
100
AcDbCircle
10
765.300000000000
20
54.700000000000
30
0.0
40
0.300000000000
100
AcDbArc
50
90.000000000000
51
180.000000000000
0
ARC
5
463
100
AcDbEntity
8
0-0
6
CONTINUOUS
62
7
100
AcDbCircle
10
772.700000000000
20
54.700000000000
30
0.0
40
0.300000000000
100
AcDbArc
50
0.000000000000
51
90.000000000000
0
ARC
5
464
100
AcDbEntity
8
0-0
6
CONTINUOUS
62
7
100
AcDbCircle
10
772.700000000000
20
52.300000000000
30
0.0
40
0.300000000000
100
AcDbArc
50
270.000000000000
51
360.000000000000
0
LINE
5
465
100
AcDbEntity
8
0-0
6
CONTINUOUS
62
7
100
AcDbLine
10
774.707110000000
20
75.648230000000
30
0.0
11
768.384780000000
21
81.970560000000
31
0.0
0
LINE
5
466
100
AcDbEntity
8
0-0
6
CONTINUOUS
62
7
100
AcDbLine
10
766.970560000000
20
81.970560000000
30
0.0
11
750.292890000000
21
65.292890000000
31
0.0
0
LINE
5
467
100
AcDbEntity
8
0-0
6
CONTINUOUS
62
7
100
AcDbLine
10
750.000000000000
20
64.585780000000
30
0.0
11
750.000000000000
21
51.000000000000
31
0.0
0
LINE
5
468
100
AcDbEntity
8
0-0
6
CONTINUOUS
62
7
100
AcDbLine
10
751.000000000000
20
50.000000000000
30
0.0
11
774.000000000000
21
50.000000000000
31
0.0
0
LINE
5
469
100
AcDbEntity
8
0-0
6
CONTINUOUS
62
7
100
AcDbLine
10
775.000000000000
20
51.000000000000
30
0.0
11
775.000000000000
21
74.941120000000
31
0.0
0
LINE
5
46a
100
AcDbEntity
8
0-0
6
CONTINUOUS
62
7
100
AcDbLine
10
762.997400000000
20
63.248310000000
30
0.0
11
762.997400000000
21
62.234200000000
31
0.0
0
LINE
5
46b
100
AcDbEntity
8
0-0
6
CONTINUOUS
62
7
100
AcDbLine
10
762.002610000000
20
62.234200000000
30
0.0
11
762.002610000000
21
63.248310000000
31
0.0
0
LINE
5
46c
100
AcDbEntity
8
0-0
6
CONTINUOUS
62
7
100
AcDbLine
10
761.265770000000
20
61.497360000000
30
0.0
11
760.251730000000
21
61.497360000000
31
0.0
0
LINE
5
46d
100
AcDbEntity
8
0-0
6
CONTINUOUS
62
7
100
AcDbLine
10
760.251730000000
20
60.502610000000
30
0.0
11
761.265770000000
21
60.502610000000
31
0.0
0
LINE
5
46e
100
AcDbEntity
8
0-0
6
CONTINUOUS
62
7
100
AcDbLine
10
762.002610000000
20
59.765770000000
30
0.0
11
762.002610000000
21
58.751710000000
31
0.0
0
LINE
5
46f
100
AcDbEntity
8
0-0
6
CONTINUOUS
62
7
100
AcDbLine
10
762.997400000000
20
58.751710000000
30
0.0
11
762.997400000000
21
59.765770000000
31
0.0
0
LINE
5
470
100
AcDbEntity
8
0-0
6
CONTINUOUS
62
7
100
AcDbLine
10
763.734240000000
20
60.502610000000
30
0.0
11
764.748330000000
21
60.502610000000
31
0.0
0
LINE
5
471
100
AcDbEntity
8
0-0
6
CONTINUOUS
62
7
100
AcDbLine
10
764.748330000000
20
61.497360000000
30
0.0
11
763.734240000000
21
61.497360000000
31
0.0
0
ARC
5
472
100
AcDbEntity
8
0-0
6
CONTINUOUS
62
7
100
AcDbCircle
10
774.000000000000
20
74.941120000000
30
0.0
40
1.000000000000
100
AcDbArc
50
0.000000000000
51
45.000000000000
0
ARC
5
473
100
AcDbEntity
8
0-0
6
CONTINUOUS
62
7
100
AcDbCircle
10
767.677670000000
20
81.263450000000
30
0.0
40
1.000000000000
100
AcDbArc
50
45.000000000000
51
135.000000000000
0
ARC
5
474
100
AcDbEntity
8
0-0
6
CONTINUOUS
62
7
100
AcDbCircle
10
774.000000000000
20
51.000000000000
30
0.0
40
1.000000000000
100
AcDbArc
50
270.000000000000
51
360.000000000000
0
ARC
5
475
100
AcDbEntity
8
0-0
6
CONTINUOUS
62
7
100
AcDbCircle
10
751.000000000000
20
51.000000000000
30
0.0
40
1.000000000000
100
AcDbArc
50
180.000000000000
51
270.000000000000
0
ARC
5
476
100
AcDbEntity
8
0-0
6
CONTINUOUS
62
7
100
AcDbCircle
10
751.000000000000
20
64.585780000000
30
0.0
40
1.000000000000
100
AcDbArc
50
135.000000000000
51
180.000000000000
0
CIRCLE
5
477
100
AcDbEntity
8
0-0
6
CONTINUOUS
62
7
100
AcDbCircle
10
762.500000000000
20
61.000000000000
30
0.0
40
3.550000000000
0
ARC
5
478
100
AcDbEntity
8
0-0
6
CONTINUOUS
62
7
100
AcDbCircle
10
763.734240000000
20
62.234200000000
30
0.0
40
0.736848000000
100
AcDbArc
50
180.000000000000
51
270.000000000000
0
ARC
5
479
100
AcDbEntity
8
0-0
6
CONTINUOUS
62
7
100
AcDbCircle
10
761.265770000000
20
62.234200000000
30
0.0
40
0.736848000000
100
AcDbArc
50
270.000000000000
51
360.000000000000
0
ARC
5
47a
100
AcDbEntity
8
0-0
6
CONTINUOUS
62
7
100
AcDbCircle
10
761.265770000000
20
59.765770000000
30
0.0
40
0.736848000000
100
AcDbArc
50
0.000000000000
51
90.000000000000
0
ARC
5
47b
100
AcDbEntity
8
0-0
6
CONTINUOUS
62
7
100
AcDbCircle
10
763.734240000000
20
59.765770000000
30
0.0
40
0.736848000000
100
AcDbArc
50
90.000000000000
51
180.000000000000
0
ARC
5
47c
100
AcDbEntity
8
0-0
6
CONTINUOUS
62
7
100
AcDbCircle
10
762.499980000000
20
61.000010000000
30
0.0
40
2.302650000000
100
AcDbArc
50
167.525720000000
51
192.474280000000
0
ARC
5
47d
100
AcDbEntity
8
0-0
6
CONTINUOUS
62
7
100
AcDbCircle
10
762.499980000000
20
61.000010000000
30
0.0
40
2.302650000000
100
AcDbArc
50
77.525820000000
51
102.474180000000
0
ARC
5
47e
100
AcDbEntity
8
0-0
6
CONTINUOUS
62
7
100
AcDbCircle
10
762.499980000000
20
61.000010000000
30
0.0
40
2.302650000000
100
AcDbArc
50
347.525730000000
51
372.474280000000
0
ARC
5
47f
100
AcDbEntity
8
0-0
6
CONTINUOUS
62
7
100
AcDbCircle
10
762.499980000000
20
61.000010000000
30
0.0
40
2.302650000000
100
AcDbArc
50
257.525820000000
51
282.474190000000
0
LINE
5
480
100
AcDbEntity
8
0-0
6
CONTINUOUS
62
7
100
AcDbLine
10
814.028002547538
20
82.263450000000
30
0.0
11
812.028002547538
21
82.263450000000
31
0.0
0
ARC
5
481
100
AcDbEntity
8
0-0
6
CONTINUOUS
62
7
100
AcDbCircle
10
812.028002547538
20
81.263450000000
30
0.0
40
1.000000000000
100
AcDbArc
50
90.000000000000
51
180.000000000000
0
LINE
5
482
100
AcDbEntity
8
0-0
6
CONTINUOUS
62
7
100
AcDbLine
10
812.028002547538
20
50.000000000000
30
0.0
11
814.028002547538
21
50.000000000000
31
0.0
0
ARC
5
483
100
AcDbEntity
8
0-0
6
CONTINUOUS
62
7
100
AcDbCircle
10
812.028002547538
20
51.000000000000
30
0.0
40
1.000000000000
100
AcDbArc
50
180.000000000000
51
270.000000000000
0
LINE
5
484
100
AcDbEntity
8
0-0
6
CONTINUOUS
62
7
100
AcDbLine
10
811.028002547538
20
81.263450000000
30
0.0
11
811.028002547538
21
51.000000000000
31
0.0
0
LINE
5
485
100
AcDbEntity
8
0-0
6
CONTINUOUS
62
7
100
AcDbLine
10
814.028002547538
20
50.000000000000
30
0.0
11
814.028002547538
21
82.263450000000
31
0.0
0
TEXT
5
486
100
AcDbEntity
8
0-0
62
7
370
-3
100
AcDbText
10
745.215
20
77.487
30
0.0
40
3.618
1
E25P-R
41
0.372
50
0.000
100
AcDbText
0
LINE
5
487
100
AcDbEntity
8
0-0
6
CONTINUOUS
62
7
100
AcDbLine
10
610.000000000000
20
52.300000000000
30
0.0
11
610.000000000000
21
54.700000000000
31
0.0
0
LINE
5
488
100
AcDbEntity
8
0-0
6
CONTINUOUS
62
7
100
AcDbLine
10
609.700000000000
20
55.000000000000
30
0.0
11
602.300000000000
21
55.000000000000
31
0.0
0
LINE
5
489
100
AcDbEntity
8
0-0
6
CONTINUOUS
62
7
100
AcDbLine
10
602.000000000000
20
54.700000000000
30
0.0
11
602.000000000000
21
52.300000000000
31
0.0
0
LINE
5
48a
100
AcDbEntity
8
0-0
6
CONTINUOUS
62
7
100
AcDbLine
10
602.300000000000
20
52.000000000000
30
0.0
11
609.700000000000
21
52.000000000000
31
0.0
0
LINE
5
48b
100
AcDbEntity
8
0-0
6
CONTINUOUS
62
7
100
AcDbLine
10
607.623490000000
20
53.205790000000
30
0.0
11
607.092500000000
21
53.205790000000
31
0.0
0
LINE
5
48c
100
AcDbEntity
8
0-0
6
CONTINUOUS
62
7
100
AcDbLine
10
607.089970000000
20
53.941450000000
30
0.0
11
607.610070000000
21
53.941450000000
31
0.0
0
POLYLINE
5
48d
100
AcDbEntity
8
0-0
6
CONTINUOUS
62
  7
100
AcDb2dPolyline
66
1
10
0.0
20
0.0
30
0.0
70
0
0
VERTEX
5
48e
100
AcDbEntity
8
0-0
6
CONTINUOUS
62
  7
100
AcDbVertex
100
AcDb2dVertex
10
605.786520000000
20
54.187210000000
30
0.0
0
VERTEX
5
48f
100
AcDbEntity
8
0-0
6
CONTINUOUS
62
  7
100
AcDbVertex
100
AcDb2dVertex
10
604.864110000000
20
54.187210000000
30
0.0
0
VERTEX
5
490
100
AcDbEntity
8
0-0
6
CONTINUOUS
62
  7
100
AcDbVertex
100
AcDb2dVertex
10
604.864110000000
20
53.713770000000
30
0.0
0
VERTEX
5
491
100
AcDbEntity
8
0-0
6
CONTINUOUS
62
  7
100
AcDbVertex
100
AcDb2dVertex
10
605.698560000000
20
53.713770000000
30
0.0
0
VERTEX
5
492
100
AcDbEntity
8
0-0
6
CONTINUOUS
62
  7
100
AcDbVertex
100
AcDb2dVertex
10
605.698560000000
20
53.372110000000
30
0.0
0
VERTEX
5
493
100
AcDbEntity
8
0-0
6
CONTINUOUS
62
  7
100
AcDbVertex
100
AcDb2dVertex
10
604.864110000000
20
53.372110000000
30
0.0
0
VERTEX
5
494
100
AcDbEntity
8
0-0
6
CONTINUOUS
62
  7
100
AcDbVertex
100
AcDb2dVertex
10
604.864110000000
20
52.873560000000
30
0.0
0
VERTEX
5
495
100
AcDbEntity
8
0-0
6
CONTINUOUS
62
  7
100
AcDbVertex
100
AcDb2dVertex
10
605.786520000000
20
52.873560000000
30
0.0
0
VERTEX
5
496
100
AcDbEntity
8
0-0
6
CONTINUOUS
62
  7
100
AcDbVertex
100
AcDb2dVertex
10
605.786520000000
20
52.509610000000
30
0.0
0
VERTEX
5
497
100
AcDbEntity
8
0-0
6
CONTINUOUS
62
  7
100
AcDbVertex
100
AcDb2dVertex
10
604.356810000000
20
52.509610000000
30
0.0
0
VERTEX
5
498
100
AcDbEntity
8
0-0
6
CONTINUOUS
62
  7
100
AcDbVertex
100
AcDb2dVertex
10
604.356810000000
20
54.551170000000
30
0.0
0
VERTEX
5
499
100
AcDbEntity
8
0-0
6
CONTINUOUS
62
  7
100
AcDbVertex
100
AcDb2dVertex
10
605.786520000000
20
54.551170000000
30
0.0
0
VERTEX
5
49a
100
AcDbEntity
8
0-0
6
CONTINUOUS
62
  7
100
AcDbVertex
100
AcDb2dVertex
10
605.786520000000
20
54.187210000000
30
0.0
0
SEQEND
5
49b
100
AcDbEntity
8
0-0
0
POLYLINE
5
49c
100
AcDbEntity
8
0-0
6
CONTINUOUS
62
  7
100
AcDb2dPolyline
66
1
10
0.0
20
0.0
30
0.0
70
0
0
VERTEX
5
49d
100
AcDbEntity
8
0-0
6
CONTINUOUS
62
  7
100
AcDbVertex
100
AcDb2dVertex
10
603.043780000000
20
54.551170000000
30
0.0
0
VERTEX
5
49e
100
AcDbEntity
8
0-0
6
CONTINUOUS
62
  7
100
AcDbVertex
100
AcDb2dVertex
10
603.043780000000
20
52.873560000000
30
0.0
0
VERTEX
5
49f
100
AcDbEntity
8
0-0
6
CONTINUOUS
62
  7
100
AcDbVertex
100
AcDb2dVertex
10
603.964010000000
20
52.873560000000
30
0.0
0
VERTEX
5
4a0
100
AcDbEntity
8
0-0
6
CONTINUOUS
62
  7
100
AcDbVertex
100
AcDb2dVertex
10
603.964010000000
20
52.509610000000
30
0.0
0
VERTEX
5
4a1
100
AcDbEntity
8
0-0
6
CONTINUOUS
62
  7
100
AcDbVertex
100
AcDb2dVertex
10
602.534670000000
20
52.509610000000
30
0.0
0
VERTEX
5
4a2
100
AcDbEntity
8
0-0
6
CONTINUOUS
62
  7
100
AcDbVertex
100
AcDb2dVertex
10
602.534670000000
20
54.551170000000
30
0.0
0
VERTEX
5
4a3
100
AcDbEntity
8
0-0
6
CONTINUOUS
62
  7
100
AcDbVertex
100
AcDb2dVertex
10
603.043780000000
20
54.551170000000
30
0.0
0
SEQEND
5
4a4
100
AcDbEntity
8
0-0
0
ARC
5
4a5
100
AcDbEntity
8
0-0
6
CONTINUOUS
62
7
100
AcDbCircle
10
608.558520000000
20
53.530390000000
30
0.0
40
2.398986300000
100
AcDbArc
50
164.216000000000
51
195.783990000000
0
ARC
5
4a6
100
AcDbEntity
8
0-0
6
CONTINUOUS
62
7
100
AcDbCircle
10
612.795690000000
20
53.530390000000
30
0.0
40
6.092738900000
100
AcDbArc
50
176.789190000000
51
183.210800000000
0
ARC
5
4a7
100
AcDbEntity
8
0-0
6
CONTINUOUS
62
7
100
AcDbCircle
10
606.790610000000
20
53.065230000000
30
0.0
40
0.572178900000
100
AcDbArc
50
199.118120000000
51
253.770890000000
0
ARC
5
4a8
100
AcDbEntity
8
0-0
6
CONTINUOUS
62
7
100
AcDbCircle
10
606.902540000000
20
53.584730000000
30
0.0
40
1.102902900000
100
AcDbArc
50
255.730700000000
51
284.269290000000
0
ARC
5
4a9
100
AcDbEntity
8
0-0
6
CONTINUOUS
62
7
100
AcDbCircle
10
607.014470000000
20
53.065230000000
30
0.0
40
0.572178900000
100
AcDbArc
50
286.229100000000
51
340.881870000000
0
ARC
5
4aa
100
AcDbEntity
8
0-0
6
CONTINUOUS
62
7
100
AcDbCircle
10
605.246560000000
20
53.530390000000
30
0.0
40
2.398986300000
100
AcDbArc
50
344.216000000000
51
352.223750000000
0
ARC
5
4ab
100
AcDbEntity
8
0-0
6
CONTINUOUS
62
7
100
AcDbCircle
10
606.902540000000
20
52.997740000000
30
0.0
40
0.165862900000
100
AcDbArc
50
198.780930000000
51
341.219060000000
0
ARC
5
4ac
100
AcDbEntity
8
0-0
6
CONTINUOUS
62
7
100
AcDbCircle
10
606.166330000000
20
53.189630000000
30
0.0
40
0.926307300000
100
AcDbArc
50
344.644740000000
51
361.000075600000
0
ARC
5
4ad
100
AcDbEntity
8
0-0
6
CONTINUOUS
62
7
100
AcDbCircle
10
607.638750000000
20
53.189630000000
30
0.0
40
0.926307300000
100
AcDbArc
50
179.280770000000
51
195.355250000000
0
ARC
5
4ae
100
AcDbEntity
8
0-0
6
CONTINUOUS
62
7
100
AcDbCircle
10
606.902540000000
20
54.063040000000
30
0.0
40
0.165862900000
100
AcDbArc
50
18.780934000000
51
161.219060000000
0
ARC
5
4af
100
AcDbEntity
8
0-0
6
CONTINUOUS
62
7
100
AcDbCircle
10
607.638750000000
20
53.871150000000
30
0.0
40
0.926307300000
100
AcDbArc
50
164.644740000000
51
180.719220000000
0
ARC
5
4b0
100
AcDbEntity
8
0-0
6
CONTINUOUS
62
7
100
AcDbCircle
10
606.166330000000
20
53.871150000000
30
0.0
40
0.926307300000
100
AcDbArc
50
4.352810000000
51
15.355258000000
0
ARC
5
4b1
100
AcDbEntity
8
0-0
6
CONTINUOUS
62
7
100
AcDbCircle
10
607.014470000000
20
53.995540000000
30
0.0
40
0.572178900000
100
AcDbArc
50
19.118120000000
51
73.770896000000
0
ARC
5
4b2
100
AcDbEntity
8
0-0
6
CONTINUOUS
62
7
100
AcDbCircle
10
605.246560000000
20
53.530390000000
30
0.0
40
2.398986300000
100
AcDbArc
50
9.866322700000
51
15.783997000000
0
ARC
5
4b3
100
AcDbEntity
8
0-0
6
CONTINUOUS
62
7
100
AcDbCircle
10
606.902540000000
20
53.476040000000
30
0.0
40
1.102902900000
100
AcDbArc
50
75.730707000000
51
104.269290000000
0
ARC
5
4b4
100
AcDbEntity
8
0-0
6
CONTINUOUS
62
7
100
AcDbCircle
10
606.790610000000
20
53.995540000000
30
0.0
40
0.572178900000
100
AcDbArc
50
106.229100000000
51
160.881870000000
0
ARC
5
4b5
100
AcDbEntity
8
0-0
6
CONTINUOUS
62
7
100
AcDbCircle
10
610.347810000000
20
53.530390000000
30
0.0
40
2.398986300000
100
AcDbArc
50
164.216000000000
51
195.783990000000
0
ARC
5
4b6
100
AcDbEntity
8
0-0
6
CONTINUOUS
62
7
100
AcDbCircle
10
614.584980000000
20
53.530390000000
30
0.0
40
6.092738900000
100
AcDbArc
50
176.789190000000
51
183.210800000000
0
ARC
5
4b7
100
AcDbEntity
8
0-0
6
CONTINUOUS
62
7
100
AcDbCircle
10
602.798680000000
20
53.530390000000
30
0.0
40
6.092738900000
100
AcDbArc
50
356.789190000000
51
363.210809900000
0
ARC
5
4b8
100
AcDbEntity
8
0-0
6
CONTINUOUS
62
7
100
AcDbCircle
10
608.691830000000
20
52.997740000000
30
0.0
40
0.165862900000
100
AcDbArc
50
198.780930000000
51
341.219060000000
0
ARC
5
4b9
100
AcDbEntity
8
0-0
6
CONTINUOUS
62
7
100
AcDbCircle
10
608.691830000000
20
53.584730000000
30
0.0
40
1.102902900000
100
AcDbArc
50
255.730700000000
51
284.269290000000
0
ARC
5
4ba
100
AcDbEntity
8
0-0
6
CONTINUOUS
62
7
100
AcDbCircle
10
608.803760000000
20
53.065230000000
30
0.0
40
0.572178900000
100
AcDbArc
50
286.229100000000
51
340.881870000000
0
ARC
5
4bb
100
AcDbEntity
8
0-0
6
CONTINUOUS
62
7
100
AcDbCircle
10
608.579900000000
20
53.065230000000
30
0.0
40
0.572178900000
100
AcDbArc
50
199.118120000000
51
253.770890000000
0
ARC
5
4bc
100
AcDbEntity
8
0-0
6
CONTINUOUS
62
7
100
AcDbCircle
10
607.035850000000
20
53.530390000000
30
0.0
40
2.398986300000
100
AcDbArc
50
344.216000000000
51
375.783997000000
0
ARC
5
4bd
100
AcDbEntity
8
0-0
6
CONTINUOUS
62
7
100
AcDbCircle
10
607.955620000000
20
53.189630000000
30
0.0
40
0.926307300000
100
AcDbArc
50
344.644740000000
51
360.719224300000
0
ARC
5
4be
100
AcDbEntity
8
0-0
6
CONTINUOUS
62
7
100
AcDbCircle
10
609.428040000000
20
53.189630000000
30
0.0
40
0.926307300000
100
AcDbArc
50
179.280770000000
51
195.355250000000
0
ARC
5
4bf
100
AcDbEntity
8
0-0
6
CONTINUOUS
62
7
100
AcDbCircle
10
609.428040000000
20
53.871150000000
30
0.0
40
0.926307300000
100
AcDbArc
50
164.644740000000
51
180.719220000000
0
ARC
5
4c0
100
AcDbEntity
8
0-0
6
CONTINUOUS
62
7
100
AcDbCircle
10
608.691830000000
20
54.063040000000
30
0.0
40
0.165862900000
100
AcDbArc
50
18.780934000000
51
161.219060000000
0
ARC
5
4c1
100
AcDbEntity
8
0-0
6
CONTINUOUS
62
7
100
AcDbCircle
10
607.955620000000
20
53.871150000000
30
0.0
40
0.926307300000
100
AcDbArc
50
359.280770000000
51
375.355258000000
0
ARC
5
4c2
100
AcDbEntity
8
0-0
6
CONTINUOUS
62
7
100
AcDbCircle
10
608.691830000000
20
53.476040000000
30
0.0
40
1.102902900000
100
AcDbArc
50
75.730707000000
51
104.269290000000
0
ARC
5
4c3
100
AcDbEntity
8
0-0
6
CONTINUOUS
62
7
100
AcDbCircle
10
608.579900000000
20
53.995540000000
30
0.0
40
0.572178900000
100
AcDbArc
50
106.229100000000
51
160.881870000000
0
ARC
5
4c4
100
AcDbEntity
8
0-0
6
CONTINUOUS
62
7
100
AcDbCircle
10
608.803760000000
20
53.995540000000
30
0.0
40
0.572178900000
100
AcDbArc
50
19.118120000000
51
73.770896000000
0
ARC
5
4c5
100
AcDbEntity
8
0-0
6
CONTINUOUS
62
7
100
AcDbCircle
10
602.300000000000
20
52.300000000000
30
0.0
40
0.300000000000
100
AcDbArc
50
180.000000000000
51
270.000000000000
0
ARC
5
4c6
100
AcDbEntity
8
0-0
6
CONTINUOUS
62
7
100
AcDbCircle
10
602.300000000000
20
54.700000000000
30
0.0
40
0.300000000000
100
AcDbArc
50
90.000000000000
51
180.000000000000
0
ARC
5
4c7
100
AcDbEntity
8
0-0
6
CONTINUOUS
62
7
100
AcDbCircle
10
609.700000000000
20
54.700000000000
30
0.0
40
0.300000000000
100
AcDbArc
50
0.000000000000
51
90.000000000000
0
ARC
5
4c8
100
AcDbEntity
8
0-0
6
CONTINUOUS
62
7
100
AcDbCircle
10
609.700000000000
20
52.300000000000
30
0.0
40
0.300000000000
100
AcDbArc
50
270.000000000000
51
360.000000000000
0
LINE
5
4c9
100
AcDbEntity
8
0-0
6
CONTINUOUS
62
7
100
AcDbLine
10
625.000000000000
20
64.585780000000
30
0.0
11
625.000000000000
21
51.000000000000
31
0.0
0
LINE
5
4ca
100
AcDbEntity
8
0-0
6
CONTINUOUS
62
7
100
AcDbLine
10
624.000000000000
20
50.000000000000
30
0.0
11
601.000000000000
21
50.000000000000
31
0.0
0
LINE
5
4cb
100
AcDbEntity
8
0-0
6
CONTINUOUS
62
7
100
AcDbLine
10
600.000000000000
20
51.000000000000
30
0.0
11
600.000000000000
21
74.941120000000
31
0.0
0
LINE
5
4cc
100
AcDbEntity
8
0-0
6
CONTINUOUS
62
7
100
AcDbLine
10
600.292890000000
20
75.648230000000
30
0.0
11
606.615220000000
21
81.970560000000
31
0.0
0
LINE
5
4cd
100
AcDbEntity
8
0-0
6
CONTINUOUS
62
7
100
AcDbLine
10
608.029440000000
20
81.970560000000
30
0.0
11
624.707110000000
21
65.292890000000
31
0.0
0
LINE
5
4ce
100
AcDbEntity
8
0-0
6
CONTINUOUS
62
7
100
AcDbLine
10
612.997390000000
20
63.248310000000
30
0.0
11
612.997390000000
21
62.234200000000
31
0.0
0
LINE
5
4cf
100
AcDbEntity
8
0-0
6
CONTINUOUS
62
7
100
AcDbLine
10
612.002590000000
20
62.234200000000
30
0.0
11
612.002590000000
21
63.248310000000
31
0.0
0
LINE
5
4d0
100
AcDbEntity
8
0-0
6
CONTINUOUS
62
7
100
AcDbLine
10
611.265750000000
20
61.497360000000
30
0.0
11
610.251670000000
21
61.497360000000
31
0.0
0
LINE
5
4d1
100
AcDbEntity
8
0-0
6
CONTINUOUS
62
7
100
AcDbLine
10
610.251670000000
20
60.502610000000
30
0.0
11
611.265750000000
21
60.502610000000
31
0.0
0
LINE
5
4d2
100
AcDbEntity
8
0-0
6
CONTINUOUS
62
7
100
AcDbLine
10
612.002590000000
20
59.765770000000
30
0.0
11
612.002590000000
21
58.751710000000
31
0.0
0
LINE
5
4d3
100
AcDbEntity
8
0-0
6
CONTINUOUS
62
7
100
AcDbLine
10
612.997390000000
20
58.751710000000
30
0.0
11
612.997390000000
21
59.765770000000
31
0.0
0
LINE
5
4d4
100
AcDbEntity
8
0-0
6
CONTINUOUS
62
7
100
AcDbLine
10
613.734230000000
20
60.502610000000
30
0.0
11
614.748270000000
21
60.502610000000
31
0.0
0
LINE
5
4d5
100
AcDbEntity
8
0-0
6
CONTINUOUS
62
7
100
AcDbLine
10
614.748270000000
20
61.497360000000
30
0.0
11
613.734230000000
21
61.497360000000
31
0.0
0
ARC
5
4d6
100
AcDbEntity
8
0-0
6
CONTINUOUS
62
7
100
AcDbCircle
10
601.000000000000
20
74.941120000000
30
0.0
40
1.000000000000
100
AcDbArc
50
135.000000000000
51
180.000000000000
0
ARC
5
4d7
100
AcDbEntity
8
0-0
6
CONTINUOUS
62
7
100
AcDbCircle
10
607.322330000000
20
81.263450000000
30
0.0
40
1.000000000000
100
AcDbArc
50
45.000000000000
51
135.000000000000
0
ARC
5
4d8
100
AcDbEntity
8
0-0
6
CONTINUOUS
62
7
100
AcDbCircle
10
601.000000000000
20
51.000000000000
30
0.0
40
1.000000000000
100
AcDbArc
50
180.000000000000
51
270.000000000000
0
ARC
5
4d9
100
AcDbEntity
8
0-0
6
CONTINUOUS
62
7
100
AcDbCircle
10
624.000000000000
20
51.000000000000
30
0.0
40
1.000000000000
100
AcDbArc
50
270.000000000000
51
360.000000000000
0
ARC
5
4da
100
AcDbEntity
8
0-0
6
CONTINUOUS
62
7
100
AcDbCircle
10
624.000000000000
20
64.585780000000
30
0.0
40
1.000000000000
100
AcDbArc
50
0.000000000000
51
45.000000000000
0
CIRCLE
5
4db
100
AcDbEntity
8
0-0
6
CONTINUOUS
62
7
100
AcDbCircle
10
612.500000000000
20
61.000000000000
30
0.0
40
3.550000000000
0
ARC
5
4dc
100
AcDbEntity
8
0-0
6
CONTINUOUS
62
7
100
AcDbCircle
10
611.265750000000
20
62.234200000000
30
0.0
40
0.736848000000
100
AcDbArc
50
270.000000000000
51
360.000000000000
0
ARC
5
4dd
100
AcDbEntity
8
0-0
6
CONTINUOUS
62
7
100
AcDbCircle
10
613.734230000000
20
62.234200000000
30
0.0
40
0.736848000000
100
AcDbArc
50
180.000000000000
51
270.000000000000
0
ARC
5
4de
100
AcDbEntity
8
0-0
6
CONTINUOUS
62
7
100
AcDbCircle
10
613.734230000000
20
59.765770000000
30
0.0
40
0.736848000000
100
AcDbArc
50
90.000000000000
51
180.000000000000
0
ARC
5
4df
100
AcDbEntity
8
0-0
6
CONTINUOUS
62
7
100
AcDbCircle
10
611.265750000000
20
59.765770000000
30
0.0
40
0.736848000000
100
AcDbArc
50
0.000000000000
51
90.000000000000
0
ARC
5
4e0
100
AcDbEntity
8
0-0
6
CONTINUOUS
62
7
100
AcDbCircle
10
612.500010000000
20
61.000010000000
30
0.0
40
2.302650000000
100
AcDbArc
50
347.525720000000
51
372.474273000000
0
ARC
5
4e1
100
AcDbEntity
8
0-0
6
CONTINUOUS
62
7
100
AcDbCircle
10
612.500010000000
20
61.000010000000
30
0.0
40
2.302650000000
100
AcDbArc
50
77.525817000000
51
102.474180000000
0
ARC
5
4e2
100
AcDbEntity
8
0-0
6
CONTINUOUS
62
7
100
AcDbCircle
10
612.500010000000
20
61.000010000000
30
0.0
40
2.302650000000
100
AcDbArc
50
167.525720000000
51
192.474270000000
0
ARC
5
4e3
100
AcDbEntity
8
0-0
6
CONTINUOUS
62
7
100
AcDbCircle
10
612.500010000000
20
61.000010000000
30
0.0
40
2.302650000000
100
AcDbArc
50
257.525810000000
51
282.474180000000
0
TEXT
5
4e4
100
AcDbEntity
8
0-0
62
7
370
-3
100
AcDbText
10
618.691
20
79.350
30
0.0
40
3.618
1
E25P-L
41
0.373
50
0.000
100
AcDbText
0
LINE
5
4e5
100
AcDbEntity
8
0-0
6
CONTINUOUS
62
7
100
AcDbLine
10
650.000000000000
20
65.900010000000
30
0.0
11
651.700000000000
21
65.900010000000
31
0.0
0
LINE
5
4e6
100
AcDbEntity
8
0-0
6
CONTINUOUS
62
7
100
AcDbLine
10
652.000000000000
20
65.600010000000
30
0.0
11
652.000000000000
21
56.400010000000
31
0.0
0
LINE
5
4e7
100
AcDbEntity
8
0-0
6
CONTINUOUS
62
7
100
AcDbLine
10
651.700000000000
20
56.100010000000
30
0.0
11
650.000000000000
21
56.100010000000
31
0.0
0
LINE
5
4e8
100
AcDbEntity
8
0-0
6
CONTINUOUS
62
7
100
AcDbLine
10
652.000000000000
20
57.500010000000
30
0.0
11
655.578503934365
21
57.687551444356
31
0.0
0
LINE
5
4e9
100
AcDbEntity
8
0-0
6
CONTINUOUS
62
7
100
AcDbLine
10
657.000000000000
20
59.185495746488
30
0.0
11
657.000000000000
21
62.814524253513
31
0.0
0
LINE
5
4ea
100
AcDbEntity
8
0-0
6
CONTINUOUS
62
7
100
AcDbLine
10
655.578503934365
20
64.312468555644
30
0.0
11
652.000000000000
21
64.500010000000
31
0.0
0
ARC
5
4eb
100
AcDbEntity
8
0-0
6
CONTINUOUS
62
7
100
AcDbCircle
10
655.500000000000
20
59.185495746488
30
0.0
40
1.500000000000
100
AcDbArc
50
273.000000000000
51
360.000000000000
0
ARC
5
4ec
100
AcDbEntity
8
0-0
6
CONTINUOUS
62
7
100
AcDbCircle
10
655.500000000000
20
62.814524253513
30
0.0
40
1.500000000000
100
AcDbArc
50
0.000000000000
51
87.000000000000
0
ARC
5
4ed
100
AcDbEntity
8
0-0
6
CONTINUOUS
62
7
100
AcDbCircle
10
651.700000000000
20
56.400010000000
30
0.0
40
0.300000000000
100
AcDbArc
50
270.000000000000
51
360.000000000000
0
ARC
5
4ee
100
AcDbEntity
8
0-0
6
CONTINUOUS
62
7
100
AcDbCircle
10
651.700000000000
20
65.600010000000
30
0.0
40
0.300000000000
100
AcDbArc
50
0.000000000000
51
90.000000000000
0
LINE
5
4ef
100
AcDbEntity
8
0-0
6
CONTINUOUS
62
7
100
AcDbLine
10
650.000000000000
20
82.263450000000
30
0.0
11
648.000000000000
21
82.263450000000
31
0.0
0
ARC
5
4f0
100
AcDbEntity
8
0-0
6
CONTINUOUS
62
7
100
AcDbCircle
10
648.000000000000
20
81.263450000000
30
0.0
40
1.000000000000
100
AcDbArc
50
90.000000000000
51
180.000000000000
0
LINE
5
4f1
100
AcDbEntity
8
0-0
6
CONTINUOUS
62
7
100
AcDbLine
10
648.000000000000
20
50.000000000000
30
0.0
11
650.000000000000
21
50.000000000000
31
0.0
0
ARC
5
4f2
100
AcDbEntity
8
0-0
6
CONTINUOUS
62
7
100
AcDbCircle
10
648.000000000000
20
51.000000000000
30
0.0
40
1.000000000000
100
AcDbArc
50
180.000000000000
51
270.000000000000
0
LINE
5
4f3
100
AcDbEntity
8
0-0
6
CONTINUOUS
62
7
100
AcDbLine
10
647.000000000000
20
81.263450000000
30
0.0
11
647.000000000000
21
51.000000000000
31
0.0
0
LINE
5
4f4
100
AcDbEntity
8
0-0
6
CONTINUOUS
62
7
100
AcDbLine
10
650.000000000000
20
50.000000000000
30
0.0
11
650.000000000000
21
82.263450000000
31
0.0
0
POLYLINE
5
4f5
100
AcDbEntity
8
0-0
6
CONTINUOUS
62
  7
100
AcDb2dPolyline
66
1
10
0.0
20
0.0
30
0.0
70
0
0
VERTEX
5
4f6
100
AcDbEntity
8
0-0
6
CONTINUOUS
62
  7
100
AcDbVertex
100
AcDb2dVertex
10
766.043777683123
20
204.551172485646
30
0.0
0
VERTEX
5
4f7
100
AcDbEntity
8
0-0
6
CONTINUOUS
62
  7
100
AcDbVertex
100
AcDb2dVertex
10
765.534672154723
20
204.551172485646
30
0.0
0
VERTEX
5
4f8
100
AcDbEntity
8
0-0
6
CONTINUOUS
62
  7
100
AcDbVertex
100
AcDb2dVertex
10
765.534672154723
20
202.509611243046
30
0.0
0
VERTEX
5
4f9
100
AcDbEntity
8
0-0
6
CONTINUOUS
62
  7
100
AcDbVertex
100
AcDb2dVertex
10
766.964014931038
20
202.509611243046
30
0.0
0
VERTEX
5
4fa
100
AcDbEntity
8
0-0
6
CONTINUOUS
62
  7
100
AcDbVertex
100
AcDb2dVertex
10
766.964014931038
20
202.873569179826
30
0.0
0
VERTEX
5
4fb
100
AcDbEntity
8
0-0
6
CONTINUOUS
62
  7
100
AcDbVertex
100
AcDb2dVertex
10
766.043777683123
20
202.873569179826
30
0.0
0
VERTEX
5
4fc
100
AcDbEntity
8
0-0
6
CONTINUOUS
62
  7
100
AcDbVertex
100
AcDb2dVertex
10
766.043777683123
20
204.551172485646
30
0.0
0
SEQEND
5
4fd
100
AcDbEntity
8
0-0
0
POLYLINE
5
4fe
100
AcDbEntity
8
0-0
6
CONTINUOUS
62
  7
100
AcDb2dPolyline
66
1
10
0.0
20
0.0
30
0.0
70
0
0
VERTEX
5
4ff
100
AcDbEntity
8
0-0
6
CONTINUOUS
62
  7
100
AcDbVertex
100
AcDb2dVertex
10
767.356811237215
20
204.551172485646
30
0.0
0
VERTEX
5
500
100
AcDbEntity
8
0-0
6
CONTINUOUS
62
  7
100
AcDbVertex
100
AcDb2dVertex
10
767.356811237215
20
202.509611243046
30
0.0
0
VERTEX
5
501
100
AcDbEntity
8
0-0
6
CONTINUOUS
62
  7
100
AcDbVertex
100
AcDb2dVertex
10
768.786526028760
20
202.509611243046
30
0.0
0
VERTEX
5
502
100
AcDbEntity
8
0-0
6
CONTINUOUS
62
  7
100
AcDbVertex
100
AcDb2dVertex
10
768.786526028760
20
202.873569179826
30
0.0
0
VERTEX
5
503
100
AcDbEntity
8
0-0
6
CONTINUOUS
62
  7
100
AcDbVertex
100
AcDb2dVertex
10
767.864111322655
20
202.873569179826
30
0.0
0
VERTEX
5
504
100
AcDbEntity
8
0-0
6
CONTINUOUS
62
  7
100
AcDbVertex
100
AcDb2dVertex
10
767.864111322655
20
203.372119156975
30
0.0
0
VERTEX
5
505
100
AcDbEntity
8
0-0
6
CONTINUOUS
62
  7
100
AcDbVertex
100
AcDb2dVertex
10
768.698564997633
20
203.372119156975
30
0.0
0
VERTEX
5
506
100
AcDbEntity
8
0-0
6
CONTINUOUS
62
  7
100
AcDbVertex
100
AcDb2dVertex
10
768.698564997633
20
203.713770234956
30
0.0
0
VERTEX
5
507
100
AcDbEntity
8
0-0
6
CONTINUOUS
62
  7
100
AcDbVertex
100
AcDb2dVertex
10
767.864111322655
20
203.713770234956
30
0.0
0
VERTEX
5
508
100
AcDbEntity
8
0-0
6
CONTINUOUS
62
  7
100
AcDbVertex
100
AcDb2dVertex
10
767.864111322655
20
204.187214548894
30
0.0
0
VERTEX
5
509
100
AcDbEntity
8
0-0
6
CONTINUOUS
62
  7
100
AcDbVertex
100
AcDb2dVertex
10
768.786526028760
20
204.187214548894
30
0.0
0
VERTEX
5
50a
100
AcDbEntity
8
0-0
6
CONTINUOUS
62
  7
100
AcDbVertex
100
AcDb2dVertex
10
768.786526028760
20
204.551172485646
30
0.0
0
VERTEX
5
50b
100
AcDbEntity
8
0-0
6
CONTINUOUS
62
  7
100
AcDbVertex
100
AcDb2dVertex
10
767.356811237215
20
204.551172485646
30
0.0
0
SEQEND
5
50c
100
AcDbEntity
8
0-0
0
LINE
5
50d
100
AcDbEntity
8
0-0
6
CONTINUOUS
62
7
100
AcDbLine
10
770.089968065242
20
203.941458279126
30
0.0
11
770.610068711380
21
203.941458279126
31
0.0
0
LINE
5
50e
100
AcDbEntity
8
0-0
6
CONTINUOUS
62
7
100
AcDbLine
10
770.623488207781
20
203.205797659085
30
0.0
11
770.092498802319
21
203.205797659085
31
0.0
0
ARC
5
50f
100
AcDbEntity
8
0-0
6
CONTINUOUS
62
7
100
AcDbCircle
10
771.558519495467
20
203.530391864346
30
0.0
40
2.398986344497
100
AcDbArc
50
164.216002475893
51
195.783997524107
0
ARC
5
510
100
AcDbEntity
8
0-0
6
CONTINUOUS
62
7
100
AcDbCircle
10
775.795690093433
20
203.530391864341
30
0.0
40
6.092738949811
100
AcDbArc
50
176.789190081973
51
183.210809918027
0
ARC
5
511
100
AcDbEntity
8
0-0
6
CONTINUOUS
62
7
100
AcDbCircle
10
769.790609975918
20
203.065238192153
30
0.0
40
0.572178966339
100
AcDbArc
50
199.118120314094
51
253.770896322251
0
ARC
5
512
100
AcDbEntity
8
0-0
6
CONTINUOUS
62
7
100
AcDbCircle
10
769.902541180460
20
203.584735672748
30
0.0
40
1.102902967963
100
AcDbArc
50
255.730707223577
51
284.269292776423
0
ARC
5
513
100
AcDbEntity
8
0-0
6
CONTINUOUS
62
7
100
AcDbCircle
10
770.014472385002
20
203.065238192153
30
0.0
40
0.572178966339
100
AcDbArc
50
286.229103677749
51
340.881879685906
0
ARC
5
514
100
AcDbEntity
8
0-0
6
CONTINUOUS
62
7
100
AcDbCircle
10
768.246562865454
20
203.530391864346
30
0.0
40
2.398986344497
100
AcDbArc
50
344.216002475893
51
352.223758552802
0
ARC
5
515
100
AcDbEntity
8
0-0
6
CONTINUOUS
62
7
100
AcDbCircle
10
769.902541180460
20
202.997740719942
30
0.0
40
0.165862986421
100
AcDbArc
50
198.780934832589
51
341.219065167411
0
ARC
5
516
100
AcDbEntity
8
0-0
6
CONTINUOUS
62
7
100
AcDbCircle
10
769.166332587189
20
203.189630145232
30
0.0
40
0.926307317553
100
AcDbArc
50
344.644741742154
51
361.000075600875
0
ARC
5
517
100
AcDbEntity
8
0-0
6
CONTINUOUS
62
7
100
AcDbCircle
10
770.638749773732
20
203.189630145232
30
0.0
40
0.926307317553
100
AcDbArc
50
179.280775692595
51
195.355258257846
0
ARC
5
518
100
AcDbEntity
8
0-0
6
CONTINUOUS
62
7
100
AcDbCircle
10
769.902541180460
20
204.063043008749
30
0.0
40
0.165862986421
100
AcDbArc
50
18.780934832589
51
161.219065167411
0
ARC
5
519
100
AcDbEntity
8
0-0
6
CONTINUOUS
62
7
100
AcDbCircle
10
770.638749773732
20
203.871153583459
30
0.0
40
0.926307317553
100
AcDbArc
50
164.644741742154
51
180.719224307405
0
ARC
5
51a
100
AcDbEntity
8
0-0
6
CONTINUOUS
62
7
100
AcDbCircle
10
769.166332587189
20
203.871153583459
30
0.0
40
0.926307317553
100
AcDbArc
50
4.352810002801
51
15.355258257846
0
ARC
5
51b
100
AcDbEntity
8
0-0
6
CONTINUOUS
62
7
100
AcDbCircle
10
770.014472385002
20
203.995545536538
30
0.0
40
0.572178966339
100
AcDbArc
50
19.118120314094
51
73.770896322251
0
ARC
5
51c
100
AcDbEntity
8
0-0
6
CONTINUOUS
62
7
100
AcDbCircle
10
768.246562865454
20
203.530391864346
30
0.0
40
2.398986344497
100
AcDbArc
50
9.866322719821
51
15.783997524107
0
ARC
5
51d
100
AcDbEntity
8
0-0
6
CONTINUOUS
62
7
100
AcDbCircle
10
769.902541180460
20
203.476048055943
30
0.0
40
1.102902967963
100
AcDbArc
50
75.730707223577
51
104.269292776423
0
ARC
5
51e
100
AcDbEntity
8
0-0
6
CONTINUOUS
62
7
100
AcDbCircle
10
769.790609975918
20
203.995545536538
30
0.0
40
0.572178966339
100
AcDbArc
50
106.229103677749
51
160.881879685906
0
ARC
5
51f
100
AcDbEntity
8
0-0
6
CONTINUOUS
62
7
100
AcDbCircle
10
773.347811795496
20
203.530391864346
30
0.0
40
2.398986344497
100
AcDbArc
50
164.216002475893
51
195.783997524107
0
ARC
5
520
100
AcDbEntity
8
0-0
6
CONTINUOUS
62
7
100
AcDbCircle
10
777.584982393463
20
203.530391864341
30
0.0
40
6.092738949811
100
AcDbArc
50
176.789190081973
51
183.210809918027
0
ARC
5
521
100
AcDbEntity
8
0-0
6
CONTINUOUS
62
7
100
AcDbCircle
10
765.798684567517
20
203.530391864341
30
0.0
40
6.092738949811
100
AcDbArc
50
356.789190081973
51
363.210809918027
0
ARC
5
522
100
AcDbEntity
8
0-0
6
CONTINUOUS
62
7
100
AcDbCircle
10
771.691833480490
20
202.997740719942
30
0.0
40
0.165862986421
100
AcDbArc
50
198.780934832589
51
341.219065167411
0
ARC
5
523
100
AcDbEntity
8
0-0
6
CONTINUOUS
62
7
100
AcDbCircle
10
771.691833480490
20
203.584735672748
30
0.0
40
1.102902967963
100
AcDbArc
50
255.730707223577
51
284.269292776423
0
ARC
5
524
100
AcDbEntity
8
0-0
6
CONTINUOUS
62
7
100
AcDbCircle
10
771.803764685032
20
203.065238192153
30
0.0
40
0.572178966339
100
AcDbArc
50
286.229103677749
51
340.881879685906
0
ARC
5
525
100
AcDbEntity
8
0-0
6
CONTINUOUS
62
7
100
AcDbCircle
10
771.579902275948
20
203.065238192153
30
0.0
40
0.572178966339
100
AcDbArc
50
199.118120314094
51
253.770896322251
0
ARC
5
526
100
AcDbEntity
8
0-0
6
CONTINUOUS
62
7
100
AcDbCircle
10
770.035855165484
20
203.530391864346
30
0.0
40
2.398986344497
100
AcDbArc
50
344.216002475893
51
375.783997524107
0
ARC
5
527
100
AcDbEntity
8
0-0
6
CONTINUOUS
62
7
100
AcDbCircle
10
770.955624887218
20
203.189630145232
30
0.0
40
0.926307317553
100
AcDbArc
50
344.644741742154
51
360.719224307405
0
ARC
5
528
100
AcDbEntity
8
0-0
6
CONTINUOUS
62
7
100
AcDbCircle
10
772.428042073761
20
203.189630145232
30
0.0
40
0.926307317553
100
AcDbArc
50
179.280775692595
51
195.355258257846
0
ARC
5
529
100
AcDbEntity
8
0-0
6
CONTINUOUS
62
7
100
AcDbCircle
10
772.428042073761
20
203.871153583459
30
0.0
40
0.926307317553
100
AcDbArc
50
164.644741742154
51
180.719224307405
0
ARC
5
52a
100
AcDbEntity
8
0-0
6
CONTINUOUS
62
7
100
AcDbCircle
10
771.691833480490
20
204.063043008749
30
0.0
40
0.165862986421
100
AcDbArc
50
18.780934832589
51
161.219065167411
0
ARC
5
52b
100
AcDbEntity
8
0-0
6
CONTINUOUS
62
7
100
AcDbCircle
10
770.955624887218
20
203.871153583459
30
0.0
40
0.926307317553
100
AcDbArc
50
359.280775692595
51
375.355258257846
0
ARC
5
52c
100
AcDbEntity
8
0-0
6
CONTINUOUS
62
7
100
AcDbCircle
10
771.691833480490
20
203.476048055943
30
0.0
40
1.102902967963
100
AcDbArc
50
75.730707223577
51
104.269292776423
0
ARC
5
52d
100
AcDbEntity
8
0-0
6
CONTINUOUS
62
7
100
AcDbCircle
10
771.579902275948
20
203.995545536538
30
0.0
40
0.572178966339
100
AcDbArc
50
106.229103677749
51
160.881879685906
0
ARC
5
52e
100
AcDbEntity
8
0-0
6
CONTINUOUS
62
7
100
AcDbCircle
10
771.803764685032
20
203.995545536538
30
0.0
40
0.572178966339
100
AcDbArc
50
19.118120314094
51
73.770896322251
0
LINE
5
52f
100
AcDbEntity
8
0-0
6
CONTINUOUS
62
7
100
AcDbLine
10
766.970562748477
20
234.970562748477
30
0.0
11
750.292893218814
21
218.292893218814
31
0.0
0
LINE
5
530
100
AcDbEntity
8
0-0
6
CONTINUOUS
62
7
100
AcDbLine
10
750.000000000000
20
217.585786437627
30
0.0
11
750.000000000000
21
201.000000000000
31
0.0
0
LINE
5
531
100
AcDbEntity
8
0-0
6
CONTINUOUS
62
7
100
AcDbLine
10
751.000000000000
20
200.000000000000
30
0.0
11
774.000000000000
21
200.000000000000
31
0.0
0
LINE
5
532
100
AcDbEntity
8
0-0
6
CONTINUOUS
62
7
100
AcDbLine
10
775.000000000000
20
201.000000000000
30
0.0
11
775.000000000000
21
227.941125496955
31
0.0
0
LINE
5
533
100
AcDbEntity
8
0-0
6
CONTINUOUS
62
7
100
AcDbLine
10
774.707106781187
20
228.648232278141
30
0.0
11
768.384776310850
21
234.970562748477
31
0.0
0
LINE
5
534
100
AcDbEntity
8
0-0
6
CONTINUOUS
62
7
100
AcDbLine
10
762.997370000000
20
214.748300000000
30
0.0
11
762.997370000000
21
213.734190000000
31
0.0
0
LINE
5
535
100
AcDbEntity
8
0-0
6
CONTINUOUS
62
7
100
AcDbLine
10
762.002580000000
20
213.734190000000
30
0.0
11
762.002580000000
21
214.748300000000
31
0.0
0
LINE
5
536
100
AcDbEntity
8
0-0
6
CONTINUOUS
62
7
100
AcDbLine
10
761.265740000000
20
212.997350000000
30
0.0
11
760.251650000000
21
212.997350000000
31
0.0
0
LINE
5
537
100
AcDbEntity
8
0-0
6
CONTINUOUS
62
7
100
AcDbLine
10
760.251650000000
20
212.002600000000
30
0.0
11
761.265740000000
21
212.002600000000
31
0.0
0
LINE
5
538
100
AcDbEntity
8
0-0
6
CONTINUOUS
62
7
100
AcDbLine
10
762.002580000000
20
211.265760000000
30
0.0
11
762.002580000000
21
210.251700000000
31
0.0
0
LINE
5
539
100
AcDbEntity
8
0-0
6
CONTINUOUS
62
7
100
AcDbLine
10
762.997370000000
20
210.251700000000
30
0.0
11
762.997370000000
21
211.265760000000
31
0.0
0
LINE
5
53a
100
AcDbEntity
8
0-0
6
CONTINUOUS
62
7
100
AcDbLine
10
763.734210000000
20
212.002600000000
30
0.0
11
764.748250000000
21
212.002600000000
31
0.0
0
LINE
5
53b
100
AcDbEntity
8
0-0
6
CONTINUOUS
62
7
100
AcDbLine
10
764.748250000000
20
212.997350000000
30
0.0
11
763.734210000000
21
212.997350000000
31
0.0
0
LINE
5
53c
100
AcDbEntity
8
0-0
6
CONTINUOUS
62
7
100
AcDbLine
10
765.000000000000
20
204.700000000000
30
0.0
11
765.000000000000
21
202.300000000000
31
0.0
0
LINE
5
53d
100
AcDbEntity
8
0-0
6
CONTINUOUS
62
7
100
AcDbLine
10
765.300000000000
20
202.000000000000
30
0.0
11
772.700000000000
21
202.000000000000
31
0.0
0
LINE
5
53e
100
AcDbEntity
8
0-0
6
CONTINUOUS
62
7
100
AcDbLine
10
773.000000000000
20
202.300000000000
30
0.0
11
773.000000000000
21
204.700000000000
31
0.0
0
LINE
5
53f
100
AcDbEntity
8
0-0
6
CONTINUOUS
62
7
100
AcDbLine
10
772.700000000000
20
205.000000000000
30
0.0
11
765.300000000000
21
205.000000000000
31
0.0
0
ARC
5
540
100
AcDbEntity
8
0-0
6
CONTINUOUS
62
7
100
AcDbCircle
10
774.000000000000
20
227.941125496955
30
0.0
40
1.000000000000
100
AcDbArc
50
0.000000000000
51
45.000000000000
0
ARC
5
541
100
AcDbEntity
8
0-0
6
CONTINUOUS
62
7
100
AcDbCircle
10
767.677669529663
20
234.263455967291
30
0.0
40
1.000000000000
100
AcDbArc
50
45.000000000000
51
135.000000000000
0
ARC
5
542
100
AcDbEntity
8
0-0
6
CONTINUOUS
62
7
100
AcDbCircle
10
751.000000000000
20
217.585786437627
30
0.0
40
1.000000000000
100
AcDbArc
50
135.000000000000
51
180.000000000000
0
ARC
5
543
100
AcDbEntity
8
0-0
6
CONTINUOUS
62
7
100
AcDbCircle
10
774.000000000000
20
201.000000000000
30
0.0
40
1.000000000000
100
AcDbArc
50
270.000000000000
51
360.000000000000
0
ARC
5
544
100
AcDbEntity
8
0-0
6
CONTINUOUS
62
7
100
AcDbCircle
10
751.000000000000
20
201.000000000000
30
0.0
40
1.000000000000
100
AcDbArc
50
180.000000000000
51
270.000000000000
0
CIRCLE
5
545
100
AcDbEntity
8
0-0
6
CONTINUOUS
62
7
100
AcDbCircle
10
762.499980000000
20
212.499990000000
30
0.0
40
3.550000000000
0
ARC
5
546
100
AcDbEntity
8
0-0
6
CONTINUOUS
62
7
100
AcDbCircle
10
761.265740000000
20
213.734190000000
30
0.0
40
0.736848000000
100
AcDbArc
50
270.000000000000
51
360.000000000000
0
ARC
5
547
100
AcDbEntity
8
0-0
6
CONTINUOUS
62
7
100
AcDbCircle
10
763.734210000000
20
213.734190000000
30
0.0
40
0.736848000000
100
AcDbArc
50
180.000000000000
51
270.000000000000
0
ARC
5
548
100
AcDbEntity
8
0-0
6
CONTINUOUS
62
7
100
AcDbCircle
10
763.734210000000
20
211.265760000000
30
0.0
40
0.736848000000
100
AcDbArc
50
90.000000000000
51
180.000000000000
0
ARC
5
549
100
AcDbEntity
8
0-0
6
CONTINUOUS
62
7
100
AcDbCircle
10
761.265740000000
20
211.265760000000
30
0.0
40
0.736848000000
100
AcDbArc
50
0.000000000000
51
90.000000000000
0
ARC
5
54a
100
AcDbEntity
8
0-0
6
CONTINUOUS
62
7
100
AcDbCircle
10
762.500000000000
20
212.500000000000
30
0.0
40
2.302650000000
100
AcDbArc
50
347.525720000000
51
372.474280000000
0
ARC
5
54b
100
AcDbEntity
8
0-0
6
CONTINUOUS
62
7
100
AcDbCircle
10
762.500000000000
20
212.500000000000
30
0.0
40
2.302650000000
100
AcDbArc
50
77.525820000000
51
102.474180000000
0
ARC
5
54c
100
AcDbEntity
8
0-0
6
CONTINUOUS
62
7
100
AcDbCircle
10
762.500000000000
20
212.500000000000
30
0.0
40
2.302650000000
100
AcDbArc
50
167.525720000000
51
192.474270000000
0
ARC
5
54d
100
AcDbEntity
8
0-0
6
CONTINUOUS
62
7
100
AcDbCircle
10
762.500000000000
20
212.500000000000
30
0.0
40
2.302650000000
100
AcDbArc
50
257.525810000000
51
282.474180000000
0
ARC
5
54e
100
AcDbEntity
8
0-0
6
CONTINUOUS
62
7
100
AcDbCircle
10
765.300000000000
20
202.300000000000
30
0.0
40
0.300000000000
100
AcDbArc
50
180.000000000000
51
270.000000000000
0
ARC
5
54f
100
AcDbEntity
8
0-0
6
CONTINUOUS
62
7
100
AcDbCircle
10
765.300000000000
20
204.700000000000
30
0.0
40
0.300000000000
100
AcDbArc
50
90.000000000000
51
180.000000000000
0
ARC
5
550
100
AcDbEntity
8
0-0
6
CONTINUOUS
62
7
100
AcDbCircle
10
772.700000000000
20
204.700000000000
30
0.0
40
0.300000000000
100
AcDbArc
50
0.000000000000
51
90.000000000000
0
ARC
5
551
100
AcDbEntity
8
0-0
6
CONTINUOUS
62
7
100
AcDbCircle
10
772.700000000000
20
202.300000000000
30
0.0
40
0.300000000000
100
AcDbArc
50
270.000000000000
51
360.000000000000
0
LINE
5
552
100
AcDbEntity
8
0-0
6
CONTINUOUS
62
7
100
AcDbLine
10
811.028022547538
20
234.263455967291
30
0.0
11
811.028022547538
21
201.000000000000
31
0.0
0
POLYLINE
5
553
100
AcDbEntity
8
0-0
6
CONTINUOUS
62
  7
100
AcDb2dPolyline
66
1
10
0.0
20
0.0
30
0.0
70
0
0
VERTEX
5
554
100
AcDbEntity
8
0-0
6
CONTINUOUS
62
  7
100
AcDbVertex
100
AcDb2dVertex
10
812.028022547538
20
200.000000000000
30
0.0
0
VERTEX
5
555
100
AcDbEntity
8
0-0
6
CONTINUOUS
62
  7
100
AcDbVertex
100
AcDb2dVertex
10
814.028022547538
20
200.000000000000
30
0.0
0
VERTEX
5
556
100
AcDbEntity
8
0-0
6
CONTINUOUS
62
  7
100
AcDbVertex
100
AcDb2dVertex
10
814.028022547538
20
235.263455967291
30
0.0
0
VERTEX
5
557
100
AcDbEntity
8
0-0
6
CONTINUOUS
62
  7
100
AcDbVertex
100
AcDb2dVertex
10
812.028022547538
20
235.263455967291
30
0.0
0
SEQEND
5
558
100
AcDbEntity
8
0-0
0
LINE
5
559
100
AcDbEntity
8
0-0
6
CONTINUOUS
62
7
100
AcDbLine
10
814.028022547538
20
217.400000000000
30
0.0
11
815.728022547539
21
217.400000000000
31
0.0
0
LINE
5
55a
100
AcDbEntity
8
0-0
6
CONTINUOUS
62
7
100
AcDbLine
10
816.028022547538
20
217.100000000000
30
0.0
11
816.028022547538
21
207.900000000000
31
0.0
0
LINE
5
55b
100
AcDbEntity
8
0-0
6
CONTINUOUS
62
7
100
AcDbLine
10
815.728022547539
20
207.600000000000
30
0.0
11
814.028022547538
21
207.600000000000
31
0.0
0
LINE
5
55c
100
AcDbEntity
8
0-0
6
CONTINUOUS
62
7
100
AcDbLine
10
816.028022547538
20
209.000000000000
30
0.0
11
819.606526481903
21
209.187541444356
31
0.0
0
LINE
5
55d
100
AcDbEntity
8
0-0
6
CONTINUOUS
62
7
100
AcDbLine
10
821.028022547538
20
210.685485746488
30
0.0
11
821.028022547538
21
214.314514253513
31
0.0
0
LINE
5
55e
100
AcDbEntity
8
0-0
6
CONTINUOUS
62
7
100
AcDbLine
10
819.606526481903
20
215.812458555645
30
0.0
11
816.028022547538
21
216.000000000000
31
0.0
0
ARC
5
55f
100
AcDbEntity
8
0-0
6
CONTINUOUS
62
7
100
AcDbCircle
10
819.528022547538
20
210.685485746488
30
0.0
40
1.500000000000
100
AcDbArc
50
273.000000000000
51
360.000000000000
0
ARC
5
560
100
AcDbEntity
8
0-0
6
CONTINUOUS
62
7
100
AcDbCircle
10
819.528022547538
20
214.314514253513
30
0.0
40
1.500000000000
100
AcDbArc
50
0.000000000000
51
87.000000000000
0
ARC
5
561
100
AcDbEntity
8
0-0
6
CONTINUOUS
62
7
100
AcDbCircle
10
815.728022547539
20
207.900000000000
30
0.0
40
0.300000000000
100
AcDbArc
50
270.000000000000
51
360.000000000000
0
ARC
5
562
100
AcDbEntity
8
0-0
6
CONTINUOUS
62
7
100
AcDbCircle
10
815.728022547539
20
217.100000000000
30
0.0
40
0.300000000000
100
AcDbArc
50
0.000000000000
51
90.000000000000
0
ARC
5
563
100
AcDbEntity
8
0-0
6
CONTINUOUS
62
7
100
AcDbCircle
10
812.028022547538
20
201.000000000000
30
0.0
40
1.000000000000
100
AcDbArc
50
180.000000000000
51
270.000000000000
0
ARC
5
564
100
AcDbEntity
8
0-0
6
CONTINUOUS
62
7
100
AcDbCircle
10
812.028022547538
20
234.263455967291
30
0.0
40
1.000000000000
100
AcDbArc
50
90.000000000000
51
180.000000000000
0
TEXT
5
565
100
AcDbEntity
8
0-0
62
7
370
-3
100
AcDbText
10
745.215
20
228.987
30
0.0
40
3.618
1
E25A-R
41
0.375
50
0.000
100
AcDbText
0
LINE
5
566
100
AcDbEntity
8
0-0
6
CONTINUOUS
62
7
100
AcDbLine
10
607.623488207782
20
203.205797659085
30
0.0
11
607.092498802319
21
203.205797659085
31
0.0
0
LINE
5
567
100
AcDbEntity
8
0-0
6
CONTINUOUS
62
7
100
AcDbLine
10
607.089968065243
20
203.941458279126
30
0.0
11
607.610068711380
21
203.941458279126
31
0.0
0
POLYLINE
5
568
100
AcDbEntity
8
0-0
6
CONTINUOUS
62
  7
100
AcDb2dPolyline
66
1
10
0.0
20
0.0
30
0.0
70
0
0
VERTEX
5
569
100
AcDbEntity
8
0-0
6
CONTINUOUS
62
  7
100
AcDbVertex
100
AcDb2dVertex
10
605.786526028760
20
204.187214548894
30
0.0
0
VERTEX
5
56a
100
AcDbEntity
8
0-0
6
CONTINUOUS
62
  7
100
AcDbVertex
100
AcDb2dVertex
10
605.786526028760
20
204.551172485646
30
0.0
0
VERTEX
5
56b
100
AcDbEntity
8
0-0
6
CONTINUOUS
62
  7
100
AcDbVertex
100
AcDb2dVertex
10
604.356811237216
20
204.551172485646
30
0.0
0
VERTEX
5
56c
100
AcDbEntity
8
0-0
6
CONTINUOUS
62
  7
100
AcDbVertex
100
AcDb2dVertex
10
604.356811237216
20
202.509611243046
30
0.0
0
VERTEX
5
56d
100
AcDbEntity
8
0-0
6
CONTINUOUS
62
  7
100
AcDbVertex
100
AcDb2dVertex
10
605.786526028760
20
202.509611243046
30
0.0
0
VERTEX
5
56e
100
AcDbEntity
8
0-0
6
CONTINUOUS
62
  7
100
AcDbVertex
100
AcDb2dVertex
10
605.786526028760
20
202.873569179826
30
0.0
0
VERTEX
5
56f
100
AcDbEntity
8
0-0
6
CONTINUOUS
62
  7
100
AcDbVertex
100
AcDb2dVertex
10
604.864111322656
20
202.873569179826
30
0.0
0
VERTEX
5
570
100
AcDbEntity
8
0-0
6
CONTINUOUS
62
  7
100
AcDbVertex
100
AcDb2dVertex
10
604.864111322656
20
203.372119156975
30
0.0
0
VERTEX
5
571
100
AcDbEntity
8
0-0
6
CONTINUOUS
62
  7
100
AcDbVertex
100
AcDb2dVertex
10
605.698564997633
20
203.372119156975
30
0.0
0
VERTEX
5
572
100
AcDbEntity
8
0-0
6
CONTINUOUS
62
  7
100
AcDbVertex
100
AcDb2dVertex
10
605.698564997633
20
203.713770234956
30
0.0
0
VERTEX
5
573
100
AcDbEntity
8
0-0
6
CONTINUOUS
62
  7
100
AcDbVertex
100
AcDb2dVertex
10
604.864111322656
20
203.713770234956
30
0.0
0
VERTEX
5
574
100
AcDbEntity
8
0-0
6
CONTINUOUS
62
  7
100
AcDbVertex
100
AcDb2dVertex
10
604.864111322656
20
204.187214548894
30
0.0
0
VERTEX
5
575
100
AcDbEntity
8
0-0
6
CONTINUOUS
62
  7
100
AcDbVertex
100
AcDb2dVertex
10
605.786526028760
20
204.187214548894
30
0.0
0
SEQEND
5
576
100
AcDbEntity
8
0-0
0
POLYLINE
5
577
100
AcDbEntity
8
0-0
6
CONTINUOUS
62
  7
100
AcDb2dPolyline
66
1
10
0.0
20
0.0
30
0.0
70
0
0
VERTEX
5
578
100
AcDbEntity
8
0-0
6
CONTINUOUS
62
  7
100
AcDbVertex
100
AcDb2dVertex
10
603.043777683123
20
204.551172485646
30
0.0
0
VERTEX
5
579
100
AcDbEntity
8
0-0
6
CONTINUOUS
62
  7
100
AcDbVertex
100
AcDb2dVertex
10
602.534672154723
20
204.551172485646
30
0.0
0
VERTEX
5
57a
100
AcDbEntity
8
0-0
6
CONTINUOUS
62
  7
100
AcDbVertex
100
AcDb2dVertex
10
602.534672154723
20
202.509611243046
30
0.0
0
VERTEX
5
57b
100
AcDbEntity
8
0-0
6
CONTINUOUS
62
  7
100
AcDbVertex
100
AcDb2dVertex
10
603.964014931038
20
202.509611243046
30
0.0
0
VERTEX
5
57c
100
AcDbEntity
8
0-0
6
CONTINUOUS
62
  7
100
AcDbVertex
100
AcDb2dVertex
10
603.964014931038
20
202.873569179826
30
0.0
0
VERTEX
5
57d
100
AcDbEntity
8
0-0
6
CONTINUOUS
62
  7
100
AcDbVertex
100
AcDb2dVertex
10
603.043777683123
20
202.873569179826
30
0.0
0
VERTEX
5
57e
100
AcDbEntity
8
0-0
6
CONTINUOUS
62
  7
100
AcDbVertex
100
AcDb2dVertex
10
603.043777683123
20
204.551172485646
30
0.0
0
SEQEND
5
57f
100
AcDbEntity
8
0-0
0
ARC
5
580
100
AcDbEntity
8
0-0
6
CONTINUOUS
62
7
100
AcDbCircle
10
608.558519495467
20
203.530391864346
30
0.0
40
2.398986344497
100
AcDbArc
50
164.216002475893
51
195.783997524107
0
ARC
5
581
100
AcDbEntity
8
0-0
6
CONTINUOUS
62
7
100
AcDbCircle
10
612.795690093433
20
203.530391864341
30
0.0
40
6.092738949811
100
AcDbArc
50
176.789190081973
51
183.210809918027
0
ARC
5
582
100
AcDbEntity
8
0-0
6
CONTINUOUS
62
7
100
AcDbCircle
10
606.790609975918
20
203.065238192153
30
0.0
40
0.572178966339
100
AcDbArc
50
199.118120314094
51
253.770896322251
0
ARC
5
583
100
AcDbEntity
8
0-0
6
CONTINUOUS
62
7
100
AcDbCircle
10
606.902541180461
20
203.584735672748
30
0.0
40
1.102902967963
100
AcDbArc
50
255.730707223577
51
284.269292776423
0
ARC
5
584
100
AcDbEntity
8
0-0
6
CONTINUOUS
62
7
100
AcDbCircle
10
607.014472385003
20
203.065238192153
30
0.0
40
0.572178966339
100
AcDbArc
50
286.229103677749
51
340.881879685906
0
ARC
5
585
100
AcDbEntity
8
0-0
6
CONTINUOUS
62
7
100
AcDbCircle
10
605.246562865455
20
203.530391864346
30
0.0
40
2.398986344497
100
AcDbArc
50
344.216002475893
51
352.223758552802
0
ARC
5
586
100
AcDbEntity
8
0-0
6
CONTINUOUS
62
7
100
AcDbCircle
10
606.902541180461
20
202.997740719942
30
0.0
40
0.165862986421
100
AcDbArc
50
198.780934832589
51
341.219065167411
0
ARC
5
587
100
AcDbEntity
8
0-0
6
CONTINUOUS
62
7
100
AcDbCircle
10
606.166332587189
20
203.189630145232
30
0.0
40
0.926307317553
100
AcDbArc
50
344.644741742154
51
361.000075600875
0
ARC
5
588
100
AcDbEntity
8
0-0
6
CONTINUOUS
62
7
100
AcDbCircle
10
607.638749773732
20
203.189630145232
30
0.0
40
0.926307317553
100
AcDbArc
50
179.280775692595
51
195.355258257846
0
ARC
5
589
100
AcDbEntity
8
0-0
6
CONTINUOUS
62
7
100
AcDbCircle
10
606.902541180461
20
204.063043008749
30
0.0
40
0.165862986421
100
AcDbArc
50
18.780934832589
51
161.219065167411
0
ARC
5
58a
100
AcDbEntity
8
0-0
6
CONTINUOUS
62
7
100
AcDbCircle
10
607.638749773732
20
203.871153583459
30
0.0
40
0.926307317553
100
AcDbArc
50
164.644741742154
51
180.719224307405
0
ARC
5
58b
100
AcDbEntity
8
0-0
6
CONTINUOUS
62
7
100
AcDbCircle
10
606.166332587189
20
203.871153583459
30
0.0
40
0.926307317553
100
AcDbArc
50
4.352810002801
51
15.355258257846
0
ARC
5
58c
100
AcDbEntity
8
0-0
6
CONTINUOUS
62
7
100
AcDbCircle
10
607.014472385003
20
203.995545536538
30
0.0
40
0.572178966339
100
AcDbArc
50
19.118120314094
51
73.770896322251
0
ARC
5
58d
100
AcDbEntity
8
0-0
6
CONTINUOUS
62
7
100
AcDbCircle
10
605.246562865455
20
203.530391864346
30
0.0
40
2.398986344497
100
AcDbArc
50
9.866322719821
51
15.783997524107
0
ARC
5
58e
100
AcDbEntity
8
0-0
6
CONTINUOUS
62
7
100
AcDbCircle
10
606.902541180461
20
203.476048055943
30
0.0
40
1.102902967963
100
AcDbArc
50
75.730707223577
51
104.269292776423
0
ARC
5
58f
100
AcDbEntity
8
0-0
6
CONTINUOUS
62
7
100
AcDbCircle
10
606.790609975918
20
203.995545536538
30
0.0
40
0.572178966339
100
AcDbArc
50
106.229103677749
51
160.881879685906
0
ARC
5
590
100
AcDbEntity
8
0-0
6
CONTINUOUS
62
7
100
AcDbCircle
10
610.347811795496
20
203.530391864346
30
0.0
40
2.398986344497
100
AcDbArc
50
164.216002475893
51
195.783997524107
0
ARC
5
591
100
AcDbEntity
8
0-0
6
CONTINUOUS
62
7
100
AcDbCircle
10
614.584982393463
20
203.530391864341
30
0.0
40
6.092738949811
100
AcDbArc
50
176.789190081973
51
183.210809918027
0
ARC
5
592
100
AcDbEntity
8
0-0
6
CONTINUOUS
62
7
100
AcDbCircle
10
602.798684567517
20
203.530391864341
30
0.0
40
6.092738949811
100
AcDbArc
50
356.789190081973
51
363.210809918027
0
ARC
5
593
100
AcDbEntity
8
0-0
6
CONTINUOUS
62
7
100
AcDbCircle
10
608.691833480490
20
202.997740719942
30
0.0
40
0.165862986421
100
AcDbArc
50
198.780934832589
51
341.219065167411
0
ARC
5
594
100
AcDbEntity
8
0-0
6
CONTINUOUS
62
7
100
AcDbCircle
10
608.691833480490
20
203.584735672748
30
0.0
40
1.102902967963
100
AcDbArc
50
255.730707223577
51
284.269292776423
0
ARC
5
595
100
AcDbEntity
8
0-0
6
CONTINUOUS
62
7
100
AcDbCircle
10
608.803764685032
20
203.065238192153
30
0.0
40
0.572178966339
100
AcDbArc
50
286.229103677749
51
340.881879685906
0
ARC
5
596
100
AcDbEntity
8
0-0
6
CONTINUOUS
62
7
100
AcDbCircle
10
608.579902275948
20
203.065238192153
30
0.0
40
0.572178966339
100
AcDbArc
50
199.118120314094
51
253.770896322251
0
ARC
5
597
100
AcDbEntity
8
0-0
6
CONTINUOUS
62
7
100
AcDbCircle
10
607.035855165484
20
203.530391864346
30
0.0
40
2.398986344497
100
AcDbArc
50
344.216002475893
51
375.783997524107
0
ARC
5
598
100
AcDbEntity
8
0-0
6
CONTINUOUS
62
7
100
AcDbCircle
10
607.955624887219
20
203.189630145232
30
0.0
40
0.926307317553
100
AcDbArc
50
344.644741742154
51
360.719224307405
0
ARC
5
599
100
AcDbEntity
8
0-0
6
CONTINUOUS
62
7
100
AcDbCircle
10
609.428042073761
20
203.189630145232
30
0.0
40
0.926307317553
100
AcDbArc
50
179.280775692595
51
195.355258257846
0
ARC
5
59a
100
AcDbEntity
8
0-0
6
CONTINUOUS
62
7
100
AcDbCircle
10
609.428042073761
20
203.871153583459
30
0.0
40
0.926307317553
100
AcDbArc
50
164.644741742154
51
180.719224307405
0
ARC
5
59b
100
AcDbEntity
8
0-0
6
CONTINUOUS
62
7
100
AcDbCircle
10
608.691833480490
20
204.063043008749
30
0.0
40
0.165862986421
100
AcDbArc
50
18.780934832589
51
161.219065167411
0
ARC
5
59c
100
AcDbEntity
8
0-0
6
CONTINUOUS
62
7
100
AcDbCircle
10
607.955624887219
20
203.871153583459
30
0.0
40
0.926307317553
100
AcDbArc
50
359.280775692595
51
375.355258257846
0
ARC
5
59d
100
AcDbEntity
8
0-0
6
CONTINUOUS
62
7
100
AcDbCircle
10
608.691833480490
20
203.476048055943
30
0.0
40
1.102902967963
100
AcDbArc
50
75.730707223577
51
104.269292776423
0
ARC
5
59e
100
AcDbEntity
8
0-0
6
CONTINUOUS
62
7
100
AcDbCircle
10
608.579902275948
20
203.995545536538
30
0.0
40
0.572178966339
100
AcDbArc
50
106.229103677749
51
160.881879685906
0
ARC
5
59f
100
AcDbEntity
8
0-0
6
CONTINUOUS
62
7
100
AcDbCircle
10
608.803764685032
20
203.995545536538
30
0.0
40
0.572178966339
100
AcDbArc
50
19.118120314094
51
73.770896322251
0
LINE
5
5a0
100
AcDbEntity
8
0-0
6
CONTINUOUS
62
7
100
AcDbLine
10
625.000000000000
20
201.000000000000
30
0.0
11
625.000000000000
21
217.585786437627
31
0.0
0
LINE
5
5a1
100
AcDbEntity
8
0-0
6
CONTINUOUS
62
7
100
AcDbLine
10
624.707106781187
20
218.292893218814
30
0.0
11
608.029437251523
21
234.970562748477
31
0.0
0
LINE
5
5a2
100
AcDbEntity
8
0-0
6
CONTINUOUS
62
7
100
AcDbLine
10
606.615223689150
20
234.970562748477
30
0.0
11
600.292893218813
21
228.648232278141
31
0.0
0
LINE
5
5a3
100
AcDbEntity
8
0-0
6
CONTINUOUS
62
7
100
AcDbLine
10
600.000000000000
20
227.941125496955
30
0.0
11
600.000000000000
21
201.000000000000
31
0.0
0
LINE
5
5a4
100
AcDbEntity
8
0-0
6
CONTINUOUS
62
7
100
AcDbLine
10
601.000000000000
20
200.000000000000
30
0.0
11
624.000000000000
21
200.000000000000
31
0.0
0
LINE
5
5a5
100
AcDbEntity
8
0-0
6
CONTINUOUS
62
7
100
AcDbLine
10
610.000000000000
20
202.300000000000
30
0.0
11
610.000000000000
21
204.700000000000
31
0.0
0
LINE
5
5a6
100
AcDbEntity
8
0-0
6
CONTINUOUS
62
7
100
AcDbLine
10
609.700000000000
20
205.000000000000
30
0.0
11
602.300000000000
21
205.000000000000
31
0.0
0
LINE
5
5a7
100
AcDbEntity
8
0-0
6
CONTINUOUS
62
7
100
AcDbLine
10
602.000000000000
20
204.700000000000
30
0.0
11
602.000000000000
21
202.300000000000
31
0.0
0
LINE
5
5a8
100
AcDbEntity
8
0-0
6
CONTINUOUS
62
7
100
AcDbLine
10
602.300000000000
20
202.000000000000
30
0.0
11
609.700000000000
21
202.000000000000
31
0.0
0
LINE
5
5a9
100
AcDbEntity
8
0-0
6
CONTINUOUS
62
7
100
AcDbLine
10
612.002630000000
20
210.251700000000
30
0.0
11
612.002630000000
21
211.265760000000
31
0.0
0
LINE
5
5aa
100
AcDbEntity
8
0-0
6
CONTINUOUS
62
7
100
AcDbLine
10
612.997420000000
20
211.265760000000
30
0.0
11
612.997420000000
21
210.251700000000
31
0.0
0
LINE
5
5ab
100
AcDbEntity
8
0-0
6
CONTINUOUS
62
7
100
AcDbLine
10
613.734260000000
20
212.002600000000
30
0.0
11
614.748350000000
21
212.002600000000
31
0.0
0
LINE
5
5ac
100
AcDbEntity
8
0-0
6
CONTINUOUS
62
7
100
AcDbLine
10
614.748350000000
20
212.997350000000
30
0.0
11
613.734260000000
21
212.997350000000
31
0.0
0
LINE
5
5ad
100
AcDbEntity
8
0-0
6
CONTINUOUS
62
7
100
AcDbLine
10
612.997420000000
20
213.734190000000
30
0.0
11
612.997420000000
21
214.748300000000
31
0.0
0
LINE
5
5ae
100
AcDbEntity
8
0-0
6
CONTINUOUS
62
7
100
AcDbLine
10
612.002630000000
20
214.748300000000
30
0.0
11
612.002630000000
21
213.734190000000
31
0.0
0
LINE
5
5af
100
AcDbEntity
8
0-0
6
CONTINUOUS
62
7
100
AcDbLine
10
611.265790000000
20
212.997350000000
30
0.0
11
610.251750000000
21
212.997350000000
31
0.0
0
LINE
5
5b0
100
AcDbEntity
8
0-0
6
CONTINUOUS
62
7
100
AcDbLine
10
610.251750000000
20
212.002600000000
30
0.0
11
611.265790000000
21
212.002600000000
31
0.0
0
ARC
5
5b1
100
AcDbEntity
8
0-0
6
CONTINUOUS
62
7
100
AcDbCircle
10
601.000000000000
20
227.941125496955
30
0.0
40
1.000000000000
100
AcDbArc
50
135.000000000000
51
180.000000000000
0
ARC
5
5b2
100
AcDbEntity
8
0-0
6
CONTINUOUS
62
7
100
AcDbCircle
10
607.322330470337
20
234.263455967291
30
0.0
40
1.000000000000
100
AcDbArc
50
45.000000000000
51
135.000000000000
0
ARC
5
5b3
100
AcDbEntity
8
0-0
6
CONTINUOUS
62
7
100
AcDbCircle
10
624.000000000000
20
217.585786437627
30
0.0
40
1.000000000000
100
AcDbArc
50
0.000000000000
51
45.000000000000
0
ARC
5
5b4
100
AcDbEntity
8
0-0
6
CONTINUOUS
62
7
100
AcDbCircle
10
601.000000000000
20
201.000000000000
30
0.0
40
1.000000000000
100
AcDbArc
50
180.000000000000
51
270.000000000000
0
ARC
5
5b5
100
AcDbEntity
8
0-0
6
CONTINUOUS
62
7
100
AcDbCircle
10
624.000000000000
20
201.000000000000
30
0.0
40
1.000000000000
100
AcDbArc
50
270.000000000000
51
360.000000000000
0
ARC
5
5b6
100
AcDbEntity
8
0-0
6
CONTINUOUS
62
7
100
AcDbCircle
10
602.300000000000
20
202.300000000000
30
0.0
40
0.300000000000
100
AcDbArc
50
180.000000000000
51
270.000000000000
0
ARC
5
5b7
100
AcDbEntity
8
0-0
6
CONTINUOUS
62
7
100
AcDbCircle
10
602.300000000000
20
204.700000000000
30
0.0
40
0.300000000000
100
AcDbArc
50
90.000000000000
51
180.000000000000
0
ARC
5
5b8
100
AcDbEntity
8
0-0
6
CONTINUOUS
62
7
100
AcDbCircle
10
609.700000000000
20
204.700000000000
30
0.0
40
0.300000000000
100
AcDbArc
50
0.000000000000
51
90.000000000000
0
ARC
5
5b9
100
AcDbEntity
8
0-0
6
CONTINUOUS
62
7
100
AcDbCircle
10
609.700000000000
20
202.300000000000
30
0.0
40
0.300000000000
100
AcDbArc
50
270.000000000000
51
360.000000000000
0
CIRCLE
5
5ba
100
AcDbEntity
8
0-0
6
CONTINUOUS
62
7
100
AcDbCircle
10
612.500020000000
20
212.499990000000
30
0.0
40
3.550000000000
0
ARC
5
5bb
100
AcDbEntity
8
0-0
6
CONTINUOUS
62
7
100
AcDbCircle
10
613.734260000000
20
213.734190000000
30
0.0
40
0.736848000000
100
AcDbArc
50
180.000000000000
51
270.000000000000
0
ARC
5
5bc
100
AcDbEntity
8
0-0
6
CONTINUOUS
62
7
100
AcDbCircle
10
611.265790000000
20
213.734190000000
30
0.0
40
0.736848000000
100
AcDbArc
50
270.000000000000
51
360.000000000000
0
ARC
5
5bd
100
AcDbEntity
8
0-0
6
CONTINUOUS
62
7
100
AcDbCircle
10
611.265790000000
20
211.265760000000
30
0.0
40
0.736848000000
100
AcDbArc
50
0.000000000000
51
90.000000000000
0
ARC
5
5be
100
AcDbEntity
8
0-0
6
CONTINUOUS
62
7
100
AcDbCircle
10
613.734260000000
20
211.265760000000
30
0.0
40
0.736848000000
100
AcDbArc
50
90.000000000000
51
180.000000000000
0
ARC
5
5bf
100
AcDbEntity
8
0-0
6
CONTINUOUS
62
7
100
AcDbCircle
10
612.500000000000
20
212.500000000000
30
0.0
40
2.302650000000
100
AcDbArc
50
167.525720000000
51
192.474280000000
0
ARC
5
5c0
100
AcDbEntity
8
0-0
6
CONTINUOUS
62
7
100
AcDbCircle
10
612.500000000000
20
212.500000000000
30
0.0
40
2.302650000000
100
AcDbArc
50
77.525820000000
51
102.474180000000
0
ARC
5
5c1
100
AcDbEntity
8
0-0
6
CONTINUOUS
62
7
100
AcDbCircle
10
612.500000000000
20
212.500000000000
30
0.0
40
2.302650000000
100
AcDbArc
50
347.525730000000
51
372.474280000000
0
ARC
5
5c2
100
AcDbEntity
8
0-0
6
CONTINUOUS
62
7
100
AcDbCircle
10
612.500000000000
20
212.500000000000
30
0.0
40
2.302650000000
100
AcDbArc
50
257.525820000000
51
282.474190000000
0
TEXT
5
5c3
100
AcDbEntity
8
0-0
62
7
370
-3
100
AcDbText
10
618.691
20
230.850
30
0.0
40
3.618
1
E25A-L
41
0.376
50
0.000
100
AcDbText
0
LINE
5
5c4
100
AcDbEntity
8
0-0
6
CONTINUOUS
62
7
100
AcDbLine
10
647.000000000000
20
234.263455967290
30
0.0
11
647.000000000000
21
201.000000000000
31
0.0
0
POLYLINE
5
5c5
100
AcDbEntity
8
0-0
6
CONTINUOUS
62
  7
100
AcDb2dPolyline
66
1
10
0.0
20
0.0
30
0.0
70
0
0
VERTEX
5
5c6
100
AcDbEntity
8
0-0
6
CONTINUOUS
62
  7
100
AcDbVertex
100
AcDb2dVertex
10
648.000000000000
20
200.000000000000
30
0.0
0
VERTEX
5
5c7
100
AcDbEntity
8
0-0
6
CONTINUOUS
62
  7
100
AcDbVertex
100
AcDb2dVertex
10
650.000000000000
20
200.000000000000
30
0.0
0
VERTEX
5
5c8
100
AcDbEntity
8
0-0
6
CONTINUOUS
62
  7
100
AcDbVertex
100
AcDb2dVertex
10
650.000000000000
20
235.263455967290
30
0.0
0
VERTEX
5
5c9
100
AcDbEntity
8
0-0
6
CONTINUOUS
62
  7
100
AcDbVertex
100
AcDb2dVertex
10
648.000000000000
20
235.263455967290
30
0.0
0
SEQEND
5
5ca
100
AcDbEntity
8
0-0
0
LINE
5
5cb
100
AcDbEntity
8
0-0
6
CONTINUOUS
62
7
100
AcDbLine
10
650.000000000000
20
217.400000000000
30
0.0
11
651.700000000000
21
217.400000000000
31
0.0
0
LINE
5
5cc
100
AcDbEntity
8
0-0
6
CONTINUOUS
62
7
100
AcDbLine
10
652.000000000000
20
217.100000000000
30
0.0
11
652.000000000000
21
207.900000000000
31
0.0
0
LINE
5
5cd
100
AcDbEntity
8
0-0
6
CONTINUOUS
62
7
100
AcDbLine
10
651.700000000000
20
207.600000000000
30
0.0
11
650.000000000000
21
207.600000000000
31
0.0
0
LINE
5
5ce
100
AcDbEntity
8
0-0
6
CONTINUOUS
62
7
100
AcDbLine
10
652.000000000000
20
209.000000000000
30
0.0
11
655.578503934365
21
209.187541444356
31
0.0
0
LINE
5
5cf
100
AcDbEntity
8
0-0
6
CONTINUOUS
62
7
100
AcDbLine
10
657.000000000000
20
210.685485746488
30
0.0
11
657.000000000000
21
214.314514253513
31
0.0
0
LINE
5
5d0
100
AcDbEntity
8
0-0
6
CONTINUOUS
62
7
100
AcDbLine
10
655.578503934365
20
215.812458555644
30
0.0
11
652.000000000000
21
216.000000000000
31
0.0
0
ARC
5
5d1
100
AcDbEntity
8
0-0
6
CONTINUOUS
62
7
100
AcDbCircle
10
655.500000000000
20
210.685485746488
30
0.0
40
1.500000000000
100
AcDbArc
50
273.000000000000
51
360.000000000000
0
ARC
5
5d2
100
AcDbEntity
8
0-0
6
CONTINUOUS
62
7
100
AcDbCircle
10
655.500000000000
20
214.314514253513
30
0.0
40
1.500000000000
100
AcDbArc
50
0.000000000000
51
87.000000000000
0
ARC
5
5d3
100
AcDbEntity
8
0-0
6
CONTINUOUS
62
7
100
AcDbCircle
10
651.700000000000
20
207.900000000000
30
0.0
40
0.300000000000
100
AcDbArc
50
270.000000000000
51
360.000000000000
0
ARC
5
5d4
100
AcDbEntity
8
0-0
6
CONTINUOUS
62
7
100
AcDbCircle
10
651.700000000000
20
217.100000000000
30
0.0
40
0.300000000000
100
AcDbArc
50
0.000000000000
51
90.000000000000
0
ARC
5
5d5
100
AcDbEntity
8
0-0
6
CONTINUOUS
62
7
100
AcDbCircle
10
648.000000000000
20
201.000000000000
30
0.0
40
1.000000000000
100
AcDbArc
50
180.000000000000
51
270.000000000000
0
ARC
5
5d6
100
AcDbEntity
8
0-0
6
CONTINUOUS
62
7
100
AcDbCircle
10
648.000000000000
20
234.263455967290
30
0.0
40
1.000000000000
100
AcDbArc
50
90.000000000000
51
180.000000000000
0
POLYLINE
5
5d7
100
AcDbEntity
8
0-0
6
CONTINUOUS
62
  7
100
AcDb2dPolyline
66
1
10
0.0
20
0.0
30
0.0
70
0
0
VERTEX
5
5d8
100
AcDbEntity
8
0-0
6
CONTINUOUS
62
  7
100
AcDbVertex
100
AcDb2dVertex
10
538.961627351734
20
215.800000000000
30
0.0
0
VERTEX
5
5d9
100
AcDbEntity
8
0-0
6
CONTINUOUS
62
  7
100
AcDbVertex
100
AcDb2dVertex
10
540.961627351734
20
215.800000000000
30
0.0
0
VERTEX
5
5da
100
AcDbEntity
8
0-0
6
CONTINUOUS
62
  7
100
AcDbVertex
100
AcDb2dVertex
10
545.013967351734
20
215.587620000000
30
0.0
0
SEQEND
5
5db
100
AcDbEntity
8
0-0
0
LINE
5
5dc
100
AcDbEntity
8
0-0
6
CONTINUOUS
62
7
100
AcDbLine
10
545.961627351734
20
214.588990000000
30
0.0
11
545.961627351734
21
213.646720000000
31
0.0
0
LINE
5
5dd
100
AcDbEntity
8
0-0
6
CONTINUOUS
62
7
100
AcDbLine
10
545.677327351734
20
213.347130000000
30
0.0
11
541.530227351734
21
213.129790000000
31
0.0
0
LINE
5
5de
100
AcDbEntity
8
0-0
6
CONTINUOUS
62
7
100
AcDbLine
10
541.530227351734
20
211.870200000000
30
0.0
11
545.677327351734
21
211.652860000000
31
0.0
0
LINE
5
5df
100
AcDbEntity
8
0-0
6
CONTINUOUS
62
7
100
AcDbLine
10
545.961627351734
20
211.353270000000
30
0.0
11
545.961627351734
21
210.411000000000
31
0.0
0
POLYLINE
5
5e0
100
AcDbEntity
8
0-0
6
CONTINUOUS
62
  7
100
AcDb2dPolyline
66
1
10
0.0
20
0.0
30
0.0
70
0
0
VERTEX
5
5e1
100
AcDbEntity
8
0-0
6
CONTINUOUS
62
  7
100
AcDbVertex
100
AcDb2dVertex
10
545.013967351734
20
209.412370000000
30
0.0
0
VERTEX
5
5e2
100
AcDbEntity
8
0-0
6
CONTINUOUS
62
  7
100
AcDbVertex
100
AcDb2dVertex
10
540.961627351734
20
209.200000000000
30
0.0
0
VERTEX
5
5e3
100
AcDbEntity
8
0-0
6
CONTINUOUS
62
  7
100
AcDbVertex
100
AcDb2dVertex
10
540.961627351734
20
215.800000000000
30
0.0
0
SEQEND
5
5e4
100
AcDbEntity
8
0-0
0
LINE
5
5e5
100
AcDbEntity
8
0-0
6
CONTINUOUS
62
7
100
AcDbLine
10
540.961627351734
20
209.200000000000
30
0.0
11
538.961627351734
21
209.200000000000
31
0.0
0
POLYLINE
5
5e6
100
AcDbEntity
8
0-0
6
CONTINUOUS
62
  7
100
AcDb2dPolyline
66
1
10
0.0
20
0.0
30
0.0
70
0
0
VERTEX
5
5e7
100
AcDbEntity
8
0-0
6
CONTINUOUS
62
  7
100
AcDbVertex
100
AcDb2dVertex
10
538.961627351734
20
200.000000000000
30
0.0
0
VERTEX
5
5e8
100
AcDbEntity
8
0-0
6
CONTINUOUS
62
  7
100
AcDbVertex
100
AcDb2dVertex
10
538.961627351734
20
225.000000000000
30
0.0
0
VERTEX
5
5e9
100
AcDbEntity
8
0-0
6
CONTINUOUS
62
  7
100
AcDbVertex
100
AcDb2dVertex
10
536.961627351734
20
225.000000000000
30
0.0
0
SEQEND
5
5ea
100
AcDbEntity
8
0-0
0
LINE
5
5eb
100
AcDbEntity
8
0-0
6
CONTINUOUS
62
7
100
AcDbLine
10
535.961627351734
20
224.000000000000
30
0.0
11
535.961627351734
21
201.000000000000
31
0.0
0
LINE
5
5ec
100
AcDbEntity
8
0-0
6
CONTINUOUS
62
7
100
AcDbLine
10
536.961627351734
20
200.000000000000
30
0.0
11
538.961627351734
21
200.000000000000
31
0.0
0
ARC
5
5ed
100
AcDbEntity
8
0-0
6
CONTINUOUS
62
7
100
AcDbCircle
10
541.561627351734
20
212.469370000000
30
0.0
40
0.600000000000
100
AcDbArc
50
180.000000000000
51
267.000000000000
0
ARC
5
5ee
100
AcDbEntity
8
0-0
6
CONTINUOUS
62
7
100
AcDbCircle
10
541.561627351734
20
212.530620000000
30
0.0
40
0.600000000000
100
AcDbArc
50
93.000000000000
51
180.000000000000
0
ARC
5
5ef
100
AcDbEntity
8
0-0
6
CONTINUOUS
62
7
100
AcDbCircle
10
544.961627351734
20
210.411000000000
30
0.0
40
1.000000000000
100
AcDbArc
50
273.000000000000
51
360.000000000000
0
ARC
5
5f0
100
AcDbEntity
8
0-0
6
CONTINUOUS
62
7
100
AcDbCircle
10
544.961627351734
20
214.588990000000
30
0.0
40
1.000000000000
100
AcDbArc
50
0.000000000000
51
87.000000000000
0
ARC
5
5f1
100
AcDbEntity
8
0-0
6
CONTINUOUS
62
7
100
AcDbCircle
10
545.661627351734
20
211.353270000000
30
0.0
40
0.300000000000
100
AcDbArc
50
0.000000000000
51
87.000000000000
0
ARC
5
5f2
100
AcDbEntity
8
0-0
6
CONTINUOUS
62
7
100
AcDbCircle
10
545.661627351734
20
213.646720000000
30
0.0
40
0.300000000000
100
AcDbArc
50
273.000000000000
51
360.000000000000
0
ARC
5
5f3
100
AcDbEntity
8
0-0
6
CONTINUOUS
62
7
100
AcDbCircle
10
536.961627351734
20
201.000000000000
30
0.0
40
1.000000000000
100
AcDbArc
50
180.000000000000
51
270.000000000000
0
ARC
5
5f4
100
AcDbEntity
8
0-0
6
CONTINUOUS
62
7
100
AcDbCircle
10
536.961627351734
20
224.000000000000
30
0.0
40
1.000000000000
100
AcDbArc
50
90.000000000000
51
180.000000000000
0
LINE
5
5f5
100
AcDbEntity
8
0-0
6
CONTINUOUS
62
7
100
AcDbLine
10
495.300000000000
20
205.000000000000
30
0.0
11
502.700000000000
21
205.000000000000
31
0.0
0
LINE
5
5f6
100
AcDbEntity
8
0-0
6
CONTINUOUS
62
7
100
AcDbLine
10
503.000000000000
20
204.700000000000
30
0.0
11
503.000000000000
21
202.300000000000
31
0.0
0
LINE
5
5f7
100
AcDbEntity
8
0-0
6
CONTINUOUS
62
7
100
AcDbLine
10
502.700000000000
20
202.000000000000
30
0.0
11
495.300000000000
21
202.000000000000
31
0.0
0
LINE
5
5f8
100
AcDbEntity
8
0-0
6
CONTINUOUS
62
7
100
AcDbLine
10
495.000000000000
20
202.300000000000
30
0.0
11
495.000000000000
21
204.700000000000
31
0.0
0
POLYLINE
5
5f9
100
AcDbEntity
8
0-0
6
CONTINUOUS
62
  7
100
AcDb2dPolyline
66
1
10
0.0
20
0.0
30
0.0
70
0
0
VERTEX
5
5fa
100
AcDbEntity
8
0-0
6
CONTINUOUS
62
  7
100
AcDbVertex
100
AcDb2dVertex
10
495.534670000000
20
204.551170000000
30
0.0
0
VERTEX
5
5fb
100
AcDbEntity
8
0-0
6
CONTINUOUS
62
  7
100
AcDbVertex
100
AcDb2dVertex
10
496.043770000000
20
204.551170000000
30
0.0
0
VERTEX
5
5fc
100
AcDbEntity
8
0-0
6
CONTINUOUS
62
  7
100
AcDbVertex
100
AcDb2dVertex
10
496.043770000000
20
202.873560000000
30
0.0
0
VERTEX
5
5fd
100
AcDbEntity
8
0-0
6
CONTINUOUS
62
  7
100
AcDbVertex
100
AcDb2dVertex
10
496.964010000000
20
202.873560000000
30
0.0
0
VERTEX
5
5fe
100
AcDbEntity
8
0-0
6
CONTINUOUS
62
  7
100
AcDbVertex
100
AcDb2dVertex
10
496.964010000000
20
202.509610000000
30
0.0
0
VERTEX
5
5ff
100
AcDbEntity
8
0-0
6
CONTINUOUS
62
  7
100
AcDbVertex
100
AcDb2dVertex
10
495.534670000000
20
202.509610000000
30
0.0
0
VERTEX
5
600
100
AcDbEntity
8
0-0
6
CONTINUOUS
62
  7
100
AcDbVertex
100
AcDb2dVertex
10
495.534670000000
20
204.551170000000
30
0.0
0
SEQEND
5
601
100
AcDbEntity
8
0-0
0
POLYLINE
5
602
100
AcDbEntity
8
0-0
6
CONTINUOUS
62
  7
100
AcDb2dPolyline
66
1
10
0.0
20
0.0
30
0.0
70
0
0
VERTEX
5
603
100
AcDbEntity
8
0-0
6
CONTINUOUS
62
  7
100
AcDbVertex
100
AcDb2dVertex
10
497.356810000000
20
204.551170000000
30
0.0
0
VERTEX
5
604
100
AcDbEntity
8
0-0
6
CONTINUOUS
62
  7
100
AcDbVertex
100
AcDb2dVertex
10
498.786520000000
20
204.551170000000
30
0.0
0
VERTEX
5
605
100
AcDbEntity
8
0-0
6
CONTINUOUS
62
  7
100
AcDbVertex
100
AcDb2dVertex
10
498.786520000000
20
204.187210000000
30
0.0
0
VERTEX
5
606
100
AcDbEntity
8
0-0
6
CONTINUOUS
62
  7
100
AcDbVertex
100
AcDb2dVertex
10
497.864110000000
20
204.187210000000
30
0.0
0
VERTEX
5
607
100
AcDbEntity
8
0-0
6
CONTINUOUS
62
  7
100
AcDbVertex
100
AcDb2dVertex
10
497.864110000000
20
203.713770000000
30
0.0
0
VERTEX
5
608
100
AcDbEntity
8
0-0
6
CONTINUOUS
62
  7
100
AcDbVertex
100
AcDb2dVertex
10
498.698560000000
20
203.713770000000
30
0.0
0
VERTEX
5
609
100
AcDbEntity
8
0-0
6
CONTINUOUS
62
  7
100
AcDbVertex
100
AcDb2dVertex
10
498.698560000000
20
203.372110000000
30
0.0
0
VERTEX
5
60a
100
AcDbEntity
8
0-0
6
CONTINUOUS
62
  7
100
AcDbVertex
100
AcDb2dVertex
10
497.864110000000
20
203.372110000000
30
0.0
0
VERTEX
5
60b
100
AcDbEntity
8
0-0
6
CONTINUOUS
62
  7
100
AcDbVertex
100
AcDb2dVertex
10
497.864110000000
20
202.873560000000
30
0.0
0
VERTEX
5
60c
100
AcDbEntity
8
0-0
6
CONTINUOUS
62
  7
100
AcDbVertex
100
AcDb2dVertex
10
498.786520000000
20
202.873560000000
30
0.0
0
VERTEX
5
60d
100
AcDbEntity
8
0-0
6
CONTINUOUS
62
  7
100
AcDbVertex
100
AcDb2dVertex
10
498.786520000000
20
202.509610000000
30
0.0
0
VERTEX
5
60e
100
AcDbEntity
8
0-0
6
CONTINUOUS
62
  7
100
AcDbVertex
100
AcDb2dVertex
10
497.356810000000
20
202.509610000000
30
0.0
0
VERTEX
5
60f
100
AcDbEntity
8
0-0
6
CONTINUOUS
62
  7
100
AcDbVertex
100
AcDb2dVertex
10
497.356810000000
20
204.551170000000
30
0.0
0
SEQEND
5
610
100
AcDbEntity
8
0-0
0
LINE
5
611
100
AcDbEntity
8
0-0
6
CONTINUOUS
62
7
100
AcDbLine
10
500.089960000001
20
203.941450000000
30
0.0
11
500.610070000000
21
203.941450000000
31
0.0
0
LINE
5
612
100
AcDbEntity
8
0-0
6
CONTINUOUS
62
7
100
AcDbLine
10
500.623480000001
20
203.205790000000
30
0.0
11
500.092500000000
21
203.205790000000
31
0.0
0
ARC
5
613
100
AcDbEntity
8
0-0
6
CONTINUOUS
62
7
100
AcDbCircle
10
501.558520000000
20
203.530390000000
30
0.0
40
2.398986300000
100
AcDbArc
50
164.216000000000
51
195.783990000000
0
ARC
5
614
100
AcDbEntity
8
0-0
6
CONTINUOUS
62
7
100
AcDbCircle
10
505.795690000000
20
203.530390000000
30
0.0
40
6.092738900000
100
AcDbArc
50
176.789190000000
51
183.210800000000
0
ARC
5
615
100
AcDbEntity
8
0-0
6
CONTINUOUS
62
7
100
AcDbCircle
10
499.790610000000
20
203.065230000000
30
0.0
40
0.572178900000
100
AcDbArc
50
199.118120000000
51
253.770890000000
0
ARC
5
616
100
AcDbEntity
8
0-0
6
CONTINUOUS
62
7
100
AcDbCircle
10
499.902540000001
20
203.584730000000
30
0.0
40
1.102902900000
100
AcDbArc
50
255.730700000000
51
284.269290000000
0
ARC
5
617
100
AcDbEntity
8
0-0
6
CONTINUOUS
62
7
100
AcDbCircle
10
500.014470000000
20
203.065230000000
30
0.0
40
0.572178900000
100
AcDbArc
50
286.229100000000
51
340.881870000000
0
ARC
5
618
100
AcDbEntity
8
0-0
6
CONTINUOUS
62
7
100
AcDbCircle
10
498.246560000000
20
203.530390000000
30
0.0
40
2.398986300000
100
AcDbArc
50
344.216000000000
51
352.223750000000
0
ARC
5
619
100
AcDbEntity
8
0-0
6
CONTINUOUS
62
7
100
AcDbCircle
10
499.902540000001
20
202.997740000000
30
0.0
40
0.165862900000
100
AcDbArc
50
198.780930000000
51
341.219060000000
0
ARC
5
61a
100
AcDbEntity
8
0-0
6
CONTINUOUS
62
7
100
AcDbCircle
10
499.166330000000
20
203.189630000000
30
0.0
40
0.926307300000
100
AcDbArc
50
344.644740000000
51
361.000075600000
0
ARC
5
61b
100
AcDbEntity
8
0-0
6
CONTINUOUS
62
7
100
AcDbCircle
10
500.638750000001
20
203.189630000000
30
0.0
40
0.926307300000
100
AcDbArc
50
179.280770000000
51
195.355250000000
0
ARC
5
61c
100
AcDbEntity
8
0-0
6
CONTINUOUS
62
7
100
AcDbCircle
10
499.902540000001
20
204.063040000000
30
0.0
40
0.165862900000
100
AcDbArc
50
18.780934000000
51
161.219060000000
0
ARC
5
61d
100
AcDbEntity
8
0-0
6
CONTINUOUS
62
7
100
AcDbCircle
10
500.638750000001
20
203.871150000000
30
0.0
40
0.926307300000
100
AcDbArc
50
164.644740000000
51
180.719220000000
0
ARC
5
61e
100
AcDbEntity
8
0-0
6
CONTINUOUS
62
7
100
AcDbCircle
10
499.166330000000
20
203.871150000000
30
0.0
40
0.926307300000
100
AcDbArc
50
4.352810000000
51
15.355258000000
0
ARC
5
61f
100
AcDbEntity
8
0-0
6
CONTINUOUS
62
7
100
AcDbCircle
10
500.014470000000
20
203.995540000000
30
0.0
40
0.572178900000
100
AcDbArc
50
19.118120000000
51
73.770896000000
0
ARC
5
620
100
AcDbEntity
8
0-0
6
CONTINUOUS
62
7
100
AcDbCircle
10
498.246560000000
20
203.530390000000
30
0.0
40
2.398986300000
100
AcDbArc
50
9.866322700000
51
15.783997000000
0
ARC
5
621
100
AcDbEntity
8
0-0
6
CONTINUOUS
62
7
100
AcDbCircle
10
499.902540000001
20
203.476040000000
30
0.0
40
1.102902900000
100
AcDbArc
50
75.730707000000
51
104.269290000000
0
ARC
5
622
100
AcDbEntity
8
0-0
6
CONTINUOUS
62
7
100
AcDbCircle
10
499.790610000000
20
203.995540000000
30
0.0
40
0.572178900000
100
AcDbArc
50
106.229100000000
51
160.881870000000
0
ARC
5
623
100
AcDbEntity
8
0-0
6
CONTINUOUS
62
7
100
AcDbCircle
10
503.347810000001
20
203.530390000000
30
0.0
40
2.398986300000
100
AcDbArc
50
164.216000000000
51
195.783990000000
0
ARC
5
624
100
AcDbEntity
8
0-0
6
CONTINUOUS
62
7
100
AcDbCircle
10
507.584980000000
20
203.530390000000
30
0.0
40
6.092738900000
100
AcDbArc
50
176.789190000000
51
183.210800000000
0
ARC
5
625
100
AcDbEntity
8
0-0
6
CONTINUOUS
62
7
100
AcDbCircle
10
495.798680000000
20
203.530390000000
30
0.0
40
6.092738900000
100
AcDbArc
50
356.789190000000
51
363.210809900000
0
ARC
5
626
100
AcDbEntity
8
0-0
6
CONTINUOUS
62
7
100
AcDbCircle
10
501.691830000000
20
202.997740000000
30
0.0
40
0.165862900000
100
AcDbArc
50
198.780930000000
51
341.219060000000
0
ARC
5
627
100
AcDbEntity
8
0-0
6
CONTINUOUS
62
7
100
AcDbCircle
10
501.691830000000
20
203.584730000000
30
0.0
40
1.102902900000
100
AcDbArc
50
255.730700000000
51
284.269290000000
0
ARC
5
628
100
AcDbEntity
8
0-0
6
CONTINUOUS
62
7
100
AcDbCircle
10
501.803760000000
20
203.065230000000
30
0.0
40
0.572178900000
100
AcDbArc
50
286.229100000000
51
340.881870000000
0
ARC
5
629
100
AcDbEntity
8
0-0
6
CONTINUOUS
62
7
100
AcDbCircle
10
501.579900000000
20
203.065230000000
30
0.0
40
0.572178900000
100
AcDbArc
50
199.118120000000
51
253.770890000000
0
ARC
5
62a
100
AcDbEntity
8
0-0
6
CONTINUOUS
62
7
100
AcDbCircle
10
500.035850000001
20
203.530390000000
30
0.0
40
2.398986300000
100
AcDbArc
50
344.216000000000
51
375.783997000000
0
ARC
5
62b
100
AcDbEntity
8
0-0
6
CONTINUOUS
62
7
100
AcDbCircle
10
500.955620000000
20
203.189630000000
30
0.0
40
0.926307300000
100
AcDbArc
50
344.644740000000
51
360.719224300000
0
ARC
5
62c
100
AcDbEntity
8
0-0
6
CONTINUOUS
62
7
100
AcDbCircle
10
502.428040000000
20
203.189630000000
30
0.0
40
0.926307300000
100
AcDbArc
50
179.280770000000
51
195.355250000000
0
ARC
5
62d
100
AcDbEntity
8
0-0
6
CONTINUOUS
62
7
100
AcDbCircle
10
502.428040000000
20
203.871150000000
30
0.0
40
0.926307300000
100
AcDbArc
50
164.644740000000
51
180.719220000000
0
ARC
5
62e
100
AcDbEntity
8
0-0
6
CONTINUOUS
62
7
100
AcDbCircle
10
501.691830000000
20
204.063040000000
30
0.0
40
0.165862900000
100
AcDbArc
50
18.780934000000
51
161.219060000000
0
ARC
5
62f
100
AcDbEntity
8
0-0
6
CONTINUOUS
62
7
100
AcDbCircle
10
500.955620000000
20
203.871150000000
30
0.0
40
0.926307300000
100
AcDbArc
50
359.280770000000
51
375.355258000000
0
ARC
5
630
100
AcDbEntity
8
0-0
6
CONTINUOUS
62
7
100
AcDbCircle
10
501.691830000000
20
203.476040000000
30
0.0
40
1.102902900000
100
AcDbArc
50
75.730707000000
51
104.269290000000
0
ARC
5
631
100
AcDbEntity
8
0-0
6
CONTINUOUS
62
7
100
AcDbCircle
10
501.579900000000
20
203.995540000000
30
0.0
40
0.572178900000
100
AcDbArc
50
106.229100000000
51
160.881870000000
0
ARC
5
632
100
AcDbEntity
8
0-0
6
CONTINUOUS
62
7
100
AcDbCircle
10
501.803760000000
20
203.995540000000
30
0.0
40
0.572178900000
100
AcDbArc
50
19.118120000000
51
73.770896000000
0
ARC
5
633
100
AcDbEntity
8
0-0
6
CONTINUOUS
62
7
100
AcDbCircle
10
495.300000000000
20
202.300000000000
30
0.0
40
0.300000000000
100
AcDbArc
50
180.000000000000
51
270.000000000000
0
ARC
5
634
100
AcDbEntity
8
0-0
6
CONTINUOUS
62
7
100
AcDbCircle
10
495.300000000000
20
204.700000000000
30
0.0
40
0.300000000000
100
AcDbArc
50
90.000000000000
51
180.000000000000
0
ARC
5
635
100
AcDbEntity
8
0-0
6
CONTINUOUS
62
7
100
AcDbCircle
10
502.700000000000
20
204.700000000000
30
0.0
40
0.300000000000
100
AcDbArc
50
0.000000000000
51
90.000000000000
0
ARC
5
636
100
AcDbEntity
8
0-0
6
CONTINUOUS
62
7
100
AcDbCircle
10
502.700000000000
20
202.300000000000
30
0.0
40
0.300000000000
100
AcDbArc
50
270.000000000000
51
360.000000000000
0
LINE
5
637
100
AcDbEntity
8
0-0
6
CONTINUOUS
62
7
100
AcDbLine
10
505.000000000000
20
224.000000000000
30
0.0
11
505.000000000000
21
201.000000000000
31
0.0
0
LINE
5
638
100
AcDbEntity
8
0-0
6
CONTINUOUS
62
7
100
AcDbLine
10
504.000000000000
20
200.000000000000
30
0.0
11
451.000000000000
21
200.000000000000
31
0.0
0
LINE
5
639
100
AcDbEntity
8
0-0
6
CONTINUOUS
62
7
100
AcDbLine
10
450.000000000000
20
201.000000000000
30
0.0
11
450.000000000000
21
224.000000000000
31
0.0
0
LINE
5
63a
100
AcDbEntity
8
0-0
6
CONTINUOUS
62
7
100
AcDbLine
10
451.000000000000
20
225.000000000000
30
0.0
11
504.000000000000
21
225.000000000000
31
0.0
0
LINE
5
63b
100
AcDbEntity
8
0-0
6
CONTINUOUS
62
7
100
AcDbLine
10
492.997390000000
20
214.748310000000
30
0.0
11
492.997390000000
21
213.734200000000
31
0.0
0
LINE
5
63c
100
AcDbEntity
8
0-0
6
CONTINUOUS
62
7
100
AcDbLine
10
492.002590000000
20
213.734200000000
30
0.0
11
492.002590000000
21
214.748310000000
31
0.0
0
LINE
5
63d
100
AcDbEntity
8
0-0
6
CONTINUOUS
62
7
100
AcDbLine
10
491.265750000000
20
212.997360000000
30
0.0
11
490.251670000000
21
212.997360000000
31
0.0
0
LINE
5
63e
100
AcDbEntity
8
0-0
6
CONTINUOUS
62
7
100
AcDbLine
10
490.251670000000
20
212.002610000000
30
0.0
11
491.265750000000
21
212.002610000000
31
0.0
0
LINE
5
63f
100
AcDbEntity
8
0-0
6
CONTINUOUS
62
7
100
AcDbLine
10
492.002590000000
20
211.265770000000
30
0.0
11
492.002590000000
21
210.251710000000
31
0.0
0
LINE
5
640
100
AcDbEntity
8
0-0
6
CONTINUOUS
62
7
100
AcDbLine
10
492.997390000000
20
210.251710000000
30
0.0
11
492.997390000000
21
211.265770000000
31
0.0
0
LINE
5
641
100
AcDbEntity
8
0-0
6
CONTINUOUS
62
7
100
AcDbLine
10
493.734230000000
20
212.002610000000
30
0.0
11
494.748270000001
21
212.002610000000
31
0.0
0
LINE
5
642
100
AcDbEntity
8
0-0
6
CONTINUOUS
62
7
100
AcDbLine
10
494.748270000001
20
212.997360000000
30
0.0
11
493.734230000000
21
212.997360000000
31
0.0
0
LINE
5
643
100
AcDbEntity
8
0-0
6
CONTINUOUS
62
7
100
AcDbLine
10
464.748270000001
20
212.997360000000
30
0.0
11
463.734230000000
21
212.997360000000
31
0.0
0
LINE
5
644
100
AcDbEntity
8
0-0
6
CONTINUOUS
62
7
100
AcDbLine
10
463.734230000000
20
212.002610000000
30
0.0
11
464.748270000001
21
212.002610000000
31
0.0
0
LINE
5
645
100
AcDbEntity
8
0-0
6
CONTINUOUS
62
7
100
AcDbLine
10
462.997390000000
20
211.265770000000
30
0.0
11
462.997390000000
21
210.251710000000
31
0.0
0
LINE
5
646
100
AcDbEntity
8
0-0
6
CONTINUOUS
62
7
100
AcDbLine
10
462.002590000000
20
210.251710000000
30
0.0
11
462.002590000000
21
211.265770000000
31
0.0
0
LINE
5
647
100
AcDbEntity
8
0-0
6
CONTINUOUS
62
7
100
AcDbLine
10
461.265750000000
20
212.002610000000
30
0.0
11
460.251670000000
21
212.002610000000
31
0.0
0
LINE
5
648
100
AcDbEntity
8
0-0
6
CONTINUOUS
62
7
100
AcDbLine
10
460.251670000000
20
212.997360000000
30
0.0
11
461.265750000000
21
212.997360000000
31
0.0
0
LINE
5
649
100
AcDbEntity
8
0-0
6
CONTINUOUS
62
7
100
AcDbLine
10
462.002590000000
20
213.734200000000
30
0.0
11
462.002590000000
21
214.748310000000
31
0.0
0
LINE
5
64a
100
AcDbEntity
8
0-0
6
CONTINUOUS
62
7
100
AcDbLine
10
462.997390000000
20
214.748310000000
30
0.0
11
462.997390000000
21
213.734200000000
31
0.0
0
ARC
5
64b
100
AcDbEntity
8
0-0
6
CONTINUOUS
62
7
100
AcDbCircle
10
504.000000000000
20
224.000000000000
30
0.0
40
1.000000000000
100
AcDbArc
50
0.000000000000
51
90.000000000000
0
ARC
5
64c
100
AcDbEntity
8
0-0
6
CONTINUOUS
62
7
100
AcDbCircle
10
504.000000000000
20
201.000000000000
30
0.0
40
1.000000000000
100
AcDbArc
50
270.000000000000
51
360.000000000000
0
CIRCLE
5
64d
100
AcDbEntity
8
0-0
6
CONTINUOUS
62
7
100
AcDbCircle
10
492.500000000000
20
212.500000000000
30
0.0
40
3.550000000000
0
ARC
5
64e
100
AcDbEntity
8
0-0
6
CONTINUOUS
62
7
100
AcDbCircle
10
491.265750000000
20
213.734200000000
30
0.0
40
0.736848000000
100
AcDbArc
50
270.000000000000
51
360.000000000000
0
ARC
5
64f
100
AcDbEntity
8
0-0
6
CONTINUOUS
62
7
100
AcDbCircle
10
493.734230000000
20
213.734200000000
30
0.0
40
0.736848000000
100
AcDbArc
50
180.000000000000
51
270.000000000000
0
ARC
5
650
100
AcDbEntity
8
0-0
6
CONTINUOUS
62
7
100
AcDbCircle
10
493.734230000000
20
211.265770000000
30
0.0
40
0.736848000000
100
AcDbArc
50
90.000000000000
51
180.000000000000
0
ARC
5
651
100
AcDbEntity
8
0-0
6
CONTINUOUS
62
7
100
AcDbCircle
10
491.265750000000
20
211.265770000000
30
0.0
40
0.736848000000
100
AcDbArc
50
0.000000000000
51
90.000000000000
0
ARC
5
652
100
AcDbEntity
8
0-0
6
CONTINUOUS
62
7
100
AcDbCircle
10
492.500010000000
20
212.500010000000
30
0.0
40
2.302650000000
100
AcDbArc
50
347.525720000000
51
372.474273000000
0
ARC
5
653
100
AcDbEntity
8
0-0
6
CONTINUOUS
62
7
100
AcDbCircle
10
492.500010000000
20
212.500010000000
30
0.0
40
2.302650000000
100
AcDbArc
50
77.525817000000
51
102.474180000000
0
ARC
5
654
100
AcDbEntity
8
0-0
6
CONTINUOUS
62
7
100
AcDbCircle
10
492.500010000000
20
212.500010000000
30
0.0
40
2.302650000000
100
AcDbArc
50
167.525720000000
51
192.474270000000
0
ARC
5
655
100
AcDbEntity
8
0-0
6
CONTINUOUS
62
7
100
AcDbCircle
10
492.500010000000
20
212.500010000000
30
0.0
40
2.302650000000
100
AcDbArc
50
257.525810000000
51
282.474180000000
0
ARC
5
656
100
AcDbEntity
8
0-0
6
CONTINUOUS
62
7
100
AcDbCircle
10
451.000000000000
20
224.000000000000
30
0.0
40
1.000000000000
100
AcDbArc
50
90.000000000000
51
180.000000000000
0
ARC
5
657
100
AcDbEntity
8
0-0
6
CONTINUOUS
62
7
100
AcDbCircle
10
451.000000000000
20
201.000000000000
30
0.0
40
1.000000000000
100
AcDbArc
50
180.000000000000
51
270.000000000000
0
CIRCLE
5
658
100
AcDbEntity
8
0-0
6
CONTINUOUS
62
7
100
AcDbCircle
10
462.500000000000
20
212.500000000000
30
0.0
40
3.550000000000
0
ARC
5
659
100
AcDbEntity
8
0-0
6
CONTINUOUS
62
7
100
AcDbCircle
10
461.265750000000
20
213.734200000000
30
0.0
40
0.736848000000
100
AcDbArc
50
270.000000000000
51
360.000000000000
0
ARC
5
65a
100
AcDbEntity
8
0-0
6
CONTINUOUS
62
7
100
AcDbCircle
10
463.734230000000
20
213.734200000000
30
0.0
40
0.736848000000
100
AcDbArc
50
180.000000000000
51
270.000000000000
0
ARC
5
65b
100
AcDbEntity
8
0-0
6
CONTINUOUS
62
7
100
AcDbCircle
10
463.734230000000
20
211.265770000000
30
0.0
40
0.736848000000
100
AcDbArc
50
90.000000000000
51
180.000000000000
0
ARC
5
65c
100
AcDbEntity
8
0-0
6
CONTINUOUS
62
7
100
AcDbCircle
10
461.265750000000
20
211.265770000000
30
0.0
40
0.736848000000
100
AcDbArc
50
0.000000000000
51
90.000000000000
0
ARC
5
65d
100
AcDbEntity
8
0-0
6
CONTINUOUS
62
7
100
AcDbCircle
10
462.500010000000
20
212.500010000000
30
0.0
40
2.302650000000
100
AcDbArc
50
347.525720000000
51
372.474273000000
0
ARC
5
65e
100
AcDbEntity
8
0-0
6
CONTINUOUS
62
7
100
AcDbCircle
10
462.500010000000
20
212.500010000000
30
0.0
40
2.302650000000
100
AcDbArc
50
77.525817000000
51
102.474180000000
0
ARC
5
65f
100
AcDbEntity
8
0-0
6
CONTINUOUS
62
7
100
AcDbCircle
10
462.500010000000
20
212.500010000000
30
0.0
40
2.302650000000
100
AcDbArc
50
167.525720000000
51
192.474270000000
0
ARC
5
660
100
AcDbEntity
8
0-0
6
CONTINUOUS
62
7
100
AcDbCircle
10
462.500010000000
20
212.500010000000
30
0.0
40
2.302650000000
100
AcDbArc
50
257.525810000000
51
282.474180000000
0
LINE
5
661
100
AcDbEntity
8
0-0
6
CONTINUOUS
62
7
100
AcDbLine
10
330.300000000000
20
205.000000000000
30
0.0
11
337.700000000000
21
205.000000000000
31
0.0
0
LINE
5
662
100
AcDbEntity
8
0-0
6
CONTINUOUS
62
7
100
AcDbLine
10
338.000000000000
20
204.700000000000
30
0.0
11
338.000000000000
21
202.300000000000
31
0.0
0
LINE
5
663
100
AcDbEntity
8
0-0
6
CONTINUOUS
62
7
100
AcDbLine
10
337.700000000000
20
202.000000000000
30
0.0
11
330.300000000000
21
202.000000000000
31
0.0
0
LINE
5
664
100
AcDbEntity
8
0-0
6
CONTINUOUS
62
7
100
AcDbLine
10
330.000000000000
20
202.300000000000
30
0.0
11
330.000000000000
21
204.700000000000
31
0.0
0
POLYLINE
5
665
100
AcDbEntity
8
0-0
6
CONTINUOUS
62
  7
100
AcDb2dPolyline
66
1
10
0.0
20
0.0
30
0.0
70
0
0
VERTEX
5
666
100
AcDbEntity
8
0-0
6
CONTINUOUS
62
  7
100
AcDbVertex
100
AcDb2dVertex
10
330.534670000000
20
204.551170000000
30
0.0
0
VERTEX
5
667
100
AcDbEntity
8
0-0
6
CONTINUOUS
62
  7
100
AcDbVertex
100
AcDb2dVertex
10
330.534670000000
20
202.509610000000
30
0.0
0
VERTEX
5
668
100
AcDbEntity
8
0-0
6
CONTINUOUS
62
  7
100
AcDbVertex
100
AcDb2dVertex
10
331.964010000001
20
202.509610000000
30
0.0
0
VERTEX
5
669
100
AcDbEntity
8
0-0
6
CONTINUOUS
62
  7
100
AcDbVertex
100
AcDb2dVertex
10
331.964010000001
20
202.873560000000
30
0.0
0
VERTEX
5
66a
100
AcDbEntity
8
0-0
6
CONTINUOUS
62
  7
100
AcDbVertex
100
AcDb2dVertex
10
331.043770000000
20
202.873560000000
30
0.0
0
VERTEX
5
66b
100
AcDbEntity
8
0-0
6
CONTINUOUS
62
  7
100
AcDbVertex
100
AcDb2dVertex
10
331.043770000000
20
204.551170000000
30
0.0
0
VERTEX
5
66c
100
AcDbEntity
8
0-0
6
CONTINUOUS
62
  7
100
AcDbVertex
100
AcDb2dVertex
10
330.534670000000
20
204.551170000000
30
0.0
0
SEQEND
5
66d
100
AcDbEntity
8
0-0
0
POLYLINE
5
66e
100
AcDbEntity
8
0-0
6
CONTINUOUS
62
  7
100
AcDb2dPolyline
66
1
10
0.0
20
0.0
30
0.0
70
0
0
VERTEX
5
66f
100
AcDbEntity
8
0-0
6
CONTINUOUS
62
  7
100
AcDbVertex
100
AcDb2dVertex
10
332.356810000000
20
204.551170000000
30
0.0
0
VERTEX
5
670
100
AcDbEntity
8
0-0
6
CONTINUOUS
62
  7
100
AcDbVertex
100
AcDb2dVertex
10
332.356810000000
20
202.509610000000
30
0.0
0
VERTEX
5
671
100
AcDbEntity
8
0-0
6
CONTINUOUS
62
  7
100
AcDbVertex
100
AcDb2dVertex
10
333.786520000000
20
202.509610000000
30
0.0
0
VERTEX
5
672
100
AcDbEntity
8
0-0
6
CONTINUOUS
62
  7
100
AcDbVertex
100
AcDb2dVertex
10
333.786520000000
20
202.873560000000
30
0.0
0
VERTEX
5
673
100
AcDbEntity
8
0-0
6
CONTINUOUS
62
  7
100
AcDbVertex
100
AcDb2dVertex
10
332.864110000000
20
202.873560000000
30
0.0
0
VERTEX
5
674
100
AcDbEntity
8
0-0
6
CONTINUOUS
62
  7
100
AcDbVertex
100
AcDb2dVertex
10
332.864110000000
20
203.372110000000
30
0.0
0
VERTEX
5
675
100
AcDbEntity
8
0-0
6
CONTINUOUS
62
  7
100
AcDbVertex
100
AcDb2dVertex
10
333.698560000001
20
203.372110000000
30
0.0
0
VERTEX
5
676
100
AcDbEntity
8
0-0
6
CONTINUOUS
62
  7
100
AcDbVertex
100
AcDb2dVertex
10
333.698560000001
20
203.713770000000
30
0.0
0
VERTEX
5
677
100
AcDbEntity
8
0-0
6
CONTINUOUS
62
  7
100
AcDbVertex
100
AcDb2dVertex
10
332.864110000000
20
203.713770000000
30
0.0
0
VERTEX
5
678
100
AcDbEntity
8
0-0
6
CONTINUOUS
62
  7
100
AcDbVertex
100
AcDb2dVertex
10
332.864110000000
20
204.187210000000
30
0.0
0
VERTEX
5
679
100
AcDbEntity
8
0-0
6
CONTINUOUS
62
  7
100
AcDbVertex
100
AcDb2dVertex
10
333.786520000000
20
204.187210000000
30
0.0
0
VERTEX
5
67a
100
AcDbEntity
8
0-0
6
CONTINUOUS
62
  7
100
AcDbVertex
100
AcDb2dVertex
10
333.786520000000
20
204.551170000000
30
0.0
0
VERTEX
5
67b
100
AcDbEntity
8
0-0
6
CONTINUOUS
62
  7
100
AcDbVertex
100
AcDb2dVertex
10
332.356810000000
20
204.551170000000
30
0.0
0
SEQEND
5
67c
100
AcDbEntity
8
0-0
0
LINE
5
67d
100
AcDbEntity
8
0-0
6
CONTINUOUS
62
7
100
AcDbLine
10
335.089960000000
20
203.941450000000
30
0.0
11
335.610070000001
21
203.941450000000
31
0.0
0
LINE
5
67e
100
AcDbEntity
8
0-0
6
CONTINUOUS
62
7
100
AcDbLine
10
335.623480000000
20
203.205790000000
30
0.0
11
335.092500000001
21
203.205790000000
31
0.0
0
ARC
5
67f
100
AcDbEntity
8
0-0
6
CONTINUOUS
62
7
100
AcDbCircle
10
336.558520000000
20
203.530390000000
30
0.0
40
2.398986300000
100
AcDbArc
50
164.216000000000
51
195.783990000000
0
ARC
5
680
100
AcDbEntity
8
0-0
6
CONTINUOUS
62
7
100
AcDbCircle
10
340.795690000000
20
203.530390000000
30
0.0
40
6.092738900000
100
AcDbArc
50
176.789190000000
51
183.210800000000
0
ARC
5
681
100
AcDbEntity
8
0-0
6
CONTINUOUS
62
7
100
AcDbCircle
10
334.790610000000
20
203.065230000000
30
0.0
40
0.572178900000
100
AcDbArc
50
199.118120000000
51
253.770890000000
0
ARC
5
682
100
AcDbEntity
8
0-0
6
CONTINUOUS
62
7
100
AcDbCircle
10
334.902540000000
20
203.584730000000
30
0.0
40
1.102902900000
100
AcDbArc
50
255.730700000000
51
284.269290000000
0
ARC
5
683
100
AcDbEntity
8
0-0
6
CONTINUOUS
62
7
100
AcDbCircle
10
335.014470000000
20
203.065230000000
30
0.0
40
0.572178900000
100
AcDbArc
50
286.229100000000
51
340.881870000000
0
ARC
5
684
100
AcDbEntity
8
0-0
6
CONTINUOUS
62
7
100
AcDbCircle
10
333.246560000001
20
203.530390000000
30
0.0
40
2.398986300000
100
AcDbArc
50
344.216000000000
51
352.223750000000
0
ARC
5
685
100
AcDbEntity
8
0-0
6
CONTINUOUS
62
7
100
AcDbCircle
10
334.902540000000
20
202.997740000000
30
0.0
40
0.165862900000
100
AcDbArc
50
198.780930000000
51
341.219060000000
0
ARC
5
686
100
AcDbEntity
8
0-0
6
CONTINUOUS
62
7
100
AcDbCircle
10
334.166330000000
20
203.189630000000
30
0.0
40
0.926307300000
100
AcDbArc
50
344.644740000000
51
361.000075600000
0
ARC
5
687
100
AcDbEntity
8
0-0
6
CONTINUOUS
62
7
100
AcDbCircle
10
335.638750000000
20
203.189630000000
30
0.0
40
0.926307300000
100
AcDbArc
50
179.280770000000
51
195.355250000000
0
ARC
5
688
100
AcDbEntity
8
0-0
6
CONTINUOUS
62
7
100
AcDbCircle
10
334.902540000000
20
204.063040000000
30
0.0
40
0.165862900000
100
AcDbArc
50
18.780934000000
51
161.219060000000
0
ARC
5
689
100
AcDbEntity
8
0-0
6
CONTINUOUS
62
7
100
AcDbCircle
10
335.638750000000
20
203.871150000000
30
0.0
40
0.926307300000
100
AcDbArc
50
164.644740000000
51
180.719220000000
0
ARC
5
68a
100
AcDbEntity
8
0-0
6
CONTINUOUS
62
7
100
AcDbCircle
10
334.166330000000
20
203.871150000000
30
0.0
40
0.926307300000
100
AcDbArc
50
4.352810000000
51
15.355258000000
0
ARC
5
68b
100
AcDbEntity
8
0-0
6
CONTINUOUS
62
7
100
AcDbCircle
10
335.014470000000
20
203.995540000000
30
0.0
40
0.572178900000
100
AcDbArc
50
19.118120000000
51
73.770896000000
0
ARC
5
68c
100
AcDbEntity
8
0-0
6
CONTINUOUS
62
7
100
AcDbCircle
10
333.246560000001
20
203.530390000000
30
0.0
40
2.398986300000
100
AcDbArc
50
9.866322700000
51
15.783997000000
0
ARC
5
68d
100
AcDbEntity
8
0-0
6
CONTINUOUS
62
7
100
AcDbCircle
10
334.902540000000
20
203.476040000000
30
0.0
40
1.102902900000
100
AcDbArc
50
75.730707000000
51
104.269290000000
0
ARC
5
68e
100
AcDbEntity
8
0-0
6
CONTINUOUS
62
7
100
AcDbCircle
10
334.790610000000
20
203.995540000000
30
0.0
40
0.572178900000
100
AcDbArc
50
106.229100000000
51
160.881870000000
0
ARC
5
68f
100
AcDbEntity
8
0-0
6
CONTINUOUS
62
7
100
AcDbCircle
10
338.347810000000
20
203.530390000000
30
0.0
40
2.398986300000
100
AcDbArc
50
164.216000000000
51
195.783990000000
0
ARC
5
690
100
AcDbEntity
8
0-0
6
CONTINUOUS
62
7
100
AcDbCircle
10
342.584980000001
20
203.530390000000
30
0.0
40
6.092738900000
100
AcDbArc
50
176.789190000000
51
183.210800000000
0
ARC
5
691
100
AcDbEntity
8
0-0
6
CONTINUOUS
62
7
100
AcDbCircle
10
330.798680000000
20
203.530390000000
30
0.0
40
6.092738900000
100
AcDbArc
50
356.789190000000
51
363.210809900000
0
ARC
5
692
100
AcDbEntity
8
0-0
6
CONTINUOUS
62
7
100
AcDbCircle
10
336.691830000000
20
202.997740000000
30
0.0
40
0.165862900000
100
AcDbArc
50
198.780930000000
51
341.219060000000
0
ARC
5
693
100
AcDbEntity
8
0-0
6
CONTINUOUS
62
7
100
AcDbCircle
10
336.691830000000
20
203.584730000000
30
0.0
40
1.102902900000
100
AcDbArc
50
255.730700000000
51
284.269290000000
0
ARC
5
694
100
AcDbEntity
8
0-0
6
CONTINUOUS
62
7
100
AcDbCircle
10
336.803760000001
20
203.065230000000
30
0.0
40
0.572178900000
100
AcDbArc
50
286.229100000000
51
340.881870000000
0
ARC
5
695
100
AcDbEntity
8
0-0
6
CONTINUOUS
62
7
100
AcDbCircle
10
336.579900000001
20
203.065230000000
30
0.0
40
0.572178900000
100
AcDbArc
50
199.118120000000
51
253.770890000000
0
ARC
5
696
100
AcDbEntity
8
0-0
6
CONTINUOUS
62
7
100
AcDbCircle
10
335.035850000000
20
203.530390000000
30
0.0
40
2.398986300000
100
AcDbArc
50
344.216000000000
51
375.783997000000
0
ARC
5
697
100
AcDbEntity
8
0-0
6
CONTINUOUS
62
7
100
AcDbCircle
10
335.955620000000
20
203.189630000000
30
0.0
40
0.926307300000
100
AcDbArc
50
344.644740000000
51
360.719224300000
0
ARC
5
698
100
AcDbEntity
8
0-0
6
CONTINUOUS
62
7
100
AcDbCircle
10
337.428040000000
20
203.189630000000
30
0.0
40
0.926307300000
100
AcDbArc
50
179.280770000000
51
195.355250000000
0
ARC
5
699
100
AcDbEntity
8
0-0
6
CONTINUOUS
62
7
100
AcDbCircle
10
337.428040000000
20
203.871150000000
30
0.0
40
0.926307300000
100
AcDbArc
50
164.644740000000
51
180.719220000000
0
ARC
5
69a
100
AcDbEntity
8
0-0
6
CONTINUOUS
62
7
100
AcDbCircle
10
336.691830000000
20
204.063040000000
30
0.0
40
0.165862900000
100
AcDbArc
50
18.780934000000
51
161.219060000000
0
ARC
5
69b
100
AcDbEntity
8
0-0
6
CONTINUOUS
62
7
100
AcDbCircle
10
335.955620000000
20
203.871150000000
30
0.0
40
0.926307300000
100
AcDbArc
50
359.280770000000
51
375.355258000000
0
ARC
5
69c
100
AcDbEntity
8
0-0
6
CONTINUOUS
62
7
100
AcDbCircle
10
336.691830000000
20
203.476040000000
30
0.0
40
1.102902900000
100
AcDbArc
50
75.730707000000
51
104.269290000000
0
ARC
5
69d
100
AcDbEntity
8
0-0
6
CONTINUOUS
62
7
100
AcDbCircle
10
336.579900000001
20
203.995540000000
30
0.0
40
0.572178900000
100
AcDbArc
50
106.229100000000
51
160.881870000000
0
ARC
5
69e
100
AcDbEntity
8
0-0
6
CONTINUOUS
62
7
100
AcDbCircle
10
336.803760000001
20
203.995540000000
30
0.0
40
0.572178900000
100
AcDbArc
50
19.118120000000
51
73.770896000000
0
ARC
5
69f
100
AcDbEntity
8
0-0
6
CONTINUOUS
62
7
100
AcDbCircle
10
330.300000000000
20
202.300000000000
30
0.0
40
0.300000000000
100
AcDbArc
50
180.000000000000
51
270.000000000000
0
ARC
5
6a0
100
AcDbEntity
8
0-0
6
CONTINUOUS
62
7
100
AcDbCircle
10
330.300000000000
20
204.700000000000
30
0.0
40
0.300000000000
100
AcDbArc
50
90.000000000000
51
180.000000000000
0
ARC
5
6a1
100
AcDbEntity
8
0-0
6
CONTINUOUS
62
7
100
AcDbCircle
10
337.700000000000
20
204.700000000000
30
0.0
40
0.300000000000
100
AcDbArc
50
0.000000000000
51
90.000000000000
0
ARC
5
6a2
100
AcDbEntity
8
0-0
6
CONTINUOUS
62
7
100
AcDbCircle
10
337.700000000000
20
202.300000000000
30
0.0
40
0.300000000000
100
AcDbArc
50
270.000000000000
51
360.000000000000
0
LINE
5
6a3
100
AcDbEntity
8
0-0
6
CONTINUOUS
62
7
100
AcDbLine
10
301.000000000000
20
225.000000000000
30
0.0
11
339.000000000000
21
225.000000000000
31
0.0
0
LINE
5
6a4
100
AcDbEntity
8
0-0
6
CONTINUOUS
62
7
100
AcDbLine
10
340.000000000000
20
224.000000000000
30
0.0
11
340.000000000000
21
201.000000000000
31
0.0
0
LINE
5
6a5
100
AcDbEntity
8
0-0
6
CONTINUOUS
62
7
100
AcDbLine
10
339.000000000000
20
200.000000000000
30
0.0
11
301.000000000000
21
200.000000000000
31
0.0
0
LINE
5
6a6
100
AcDbEntity
8
0-0
6
CONTINUOUS
62
7
100
AcDbLine
10
300.000000000000
20
201.000000000000
30
0.0
11
300.000000000000
21
224.000000000000
31
0.0
0
LINE
5
6a7
100
AcDbEntity
8
0-0
6
CONTINUOUS
62
7
100
AcDbLine
10
312.002590000000
20
214.748310000000
30
0.0
11
312.002590000000
21
213.734200000000
31
0.0
0
LINE
5
6a8
100
AcDbEntity
8
0-0
6
CONTINUOUS
62
7
100
AcDbLine
10
312.997390000000
20
213.734200000000
30
0.0
11
312.997390000000
21
214.748310000000
31
0.0
0
LINE
5
6a9
100
AcDbEntity
8
0-0
6
CONTINUOUS
62
7
100
AcDbLine
10
313.734230000000
20
212.997360000000
30
0.0
11
314.748270000000
21
212.997360000000
31
0.0
0
LINE
5
6aa
100
AcDbEntity
8
0-0
6
CONTINUOUS
62
7
100
AcDbLine
10
314.748270000000
20
212.002610000000
30
0.0
11
313.734230000000
21
212.002610000000
31
0.0
0
LINE
5
6ab
100
AcDbEntity
8
0-0
6
CONTINUOUS
62
7
100
AcDbLine
10
312.997390000000
20
211.265770000000
30
0.0
11
312.997390000000
21
210.251710000000
31
0.0
0
LINE
5
6ac
100
AcDbEntity
8
0-0
6
CONTINUOUS
62
7
100
AcDbLine
10
312.002590000000
20
210.251710000000
30
0.0
11
312.002590000000
21
211.265770000000
31
0.0
0
LINE
5
6ad
100
AcDbEntity
8
0-0
6
CONTINUOUS
62
7
100
AcDbLine
10
311.265750000000
20
212.002610000000
30
0.0
11
310.251670000001
21
212.002610000000
31
0.0
0
LINE
5
6ae
100
AcDbEntity
8
0-0
6
CONTINUOUS
62
7
100
AcDbLine
10
310.251670000001
20
212.997360000000
30
0.0
11
311.265750000000
21
212.997360000000
31
0.0
0
LINE
5
6af
100
AcDbEntity
8
0-0
6
CONTINUOUS
62
7
100
AcDbLine
10
325.251670000001
20
212.997360000000
30
0.0
11
326.265750000000
21
212.997360000000
31
0.0
0
LINE
5
6b0
100
AcDbEntity
8
0-0
6
CONTINUOUS
62
7
100
AcDbLine
10
326.265750000000
20
212.002610000000
30
0.0
11
325.251670000001
21
212.002610000000
31
0.0
0
LINE
5
6b1
100
AcDbEntity
8
0-0
6
CONTINUOUS
62
7
100
AcDbLine
10
327.002590000000
20
211.265770000000
30
0.0
11
327.002590000000
21
210.251710000000
31
0.0
0
LINE
5
6b2
100
AcDbEntity
8
0-0
6
CONTINUOUS
62
7
100
AcDbLine
10
327.997390000000
20
210.251710000000
30
0.0
11
327.997390000000
21
211.265770000000
31
0.0
0
LINE
5
6b3
100
AcDbEntity
8
0-0
6
CONTINUOUS
62
7
100
AcDbLine
10
328.734230000000
20
212.002610000000
30
0.0
11
329.748270000000
21
212.002610000000
31
0.0
0
LINE
5
6b4
100
AcDbEntity
8
0-0
6
CONTINUOUS
62
7
100
AcDbLine
10
329.748270000000
20
212.997360000000
30
0.0
11
328.734230000000
21
212.997360000000
31
0.0
0
LINE
5
6b5
100
AcDbEntity
8
0-0
6
CONTINUOUS
62
7
100
AcDbLine
10
327.997390000000
20
213.734200000000
30
0.0
11
327.997390000000
21
214.748310000000
31
0.0
0
LINE
5
6b6
100
AcDbEntity
8
0-0
6
CONTINUOUS
62
7
100
AcDbLine
10
327.002590000000
20
214.748310000000
30
0.0
11
327.002590000000
21
213.734200000000
31
0.0
0
ARC
5
6b7
100
AcDbEntity
8
0-0
6
CONTINUOUS
62
7
100
AcDbCircle
10
301.000000000000
20
224.000000000000
30
0.0
40
1.000000000000
100
AcDbArc
50
90.000000000000
51
180.000000000000
0
ARC
5
6b8
100
AcDbEntity
8
0-0
6
CONTINUOUS
62
7
100
AcDbCircle
10
301.000000000000
20
201.000000000000
30
0.0
40
1.000000000000
100
AcDbArc
50
180.000000000000
51
270.000000000000
0
ARC
5
6b9
100
AcDbEntity
8
0-0
6
CONTINUOUS
62
7
100
AcDbCircle
10
339.000000000000
20
224.000000000000
30
0.0
40
1.000000000000
100
AcDbArc
50
0.000000000000
51
90.000000000000
0
ARC
5
6ba
100
AcDbEntity
8
0-0
6
CONTINUOUS
62
7
100
AcDbCircle
10
339.000000000000
20
201.000000000000
30
0.0
40
1.000000000000
100
AcDbArc
50
270.000000000000
51
360.000000000000
0
CIRCLE
5
6bb
100
AcDbEntity
8
0-0
6
CONTINUOUS
62
7
100
AcDbCircle
10
312.500000000000
20
212.500000000000
30
0.0
40
3.550000000000
0
ARC
5
6bc
100
AcDbEntity
8
0-0
6
CONTINUOUS
62
7
100
AcDbCircle
10
311.265750000000
20
213.734200000000
30
0.0
40
0.736848000000
100
AcDbArc
50
270.000000000000
51
360.000000000000
0
ARC
5
6bd
100
AcDbEntity
8
0-0
6
CONTINUOUS
62
7
100
AcDbCircle
10
313.734230000000
20
213.734200000000
30
0.0
40
0.736848000000
100
AcDbArc
50
180.000000000000
51
270.000000000000
0
ARC
5
6be
100
AcDbEntity
8
0-0
6
CONTINUOUS
62
7
100
AcDbCircle
10
313.734230000000
20
211.265770000000
30
0.0
40
0.736848000000
100
AcDbArc
50
90.000000000000
51
180.000000000000
0
ARC
5
6bf
100
AcDbEntity
8
0-0
6
CONTINUOUS
62
7
100
AcDbCircle
10
311.265750000000
20
211.265770000000
30
0.0
40
0.736848000000
100
AcDbArc
50
0.000000000000
51
90.000000000000
0
ARC
5
6c0
100
AcDbEntity
8
0-0
6
CONTINUOUS
62
7
100
AcDbCircle
10
312.500010000000
20
212.500010000000
30
0.0
40
2.302650000000
100
AcDbArc
50
347.525720000000
51
372.474273000000
0
ARC
5
6c1
100
AcDbEntity
8
0-0
6
CONTINUOUS
62
7
100
AcDbCircle
10
312.500010000000
20
212.500010000000
30
0.0
40
2.302650000000
100
AcDbArc
50
77.525817000000
51
102.474180000000
0
ARC
5
6c2
100
AcDbEntity
8
0-0
6
CONTINUOUS
62
7
100
AcDbCircle
10
312.500010000000
20
212.500010000000
30
0.0
40
2.302650000000
100
AcDbArc
50
167.525720000000
51
192.474270000000
0
ARC
5
6c3
100
AcDbEntity
8
0-0
6
CONTINUOUS
62
7
100
AcDbCircle
10
312.500010000000
20
212.500010000000
30
0.0
40
2.302650000000
100
AcDbArc
50
257.525810000000
51
282.474180000000
0
CIRCLE
5
6c4
100
AcDbEntity
8
0-0
6
CONTINUOUS
62
7
100
AcDbCircle
10
327.500000000000
20
212.500000000000
30
0.0
40
3.550000000000
0
ARC
5
6c5
100
AcDbEntity
8
0-0
6
CONTINUOUS
62
7
100
AcDbCircle
10
326.265750000000
20
213.734200000000
30
0.0
40
0.736848000000
100
AcDbArc
50
270.000000000000
51
360.000000000000
0
ARC
5
6c6
100
AcDbEntity
8
0-0
6
CONTINUOUS
62
7
100
AcDbCircle
10
328.734230000000
20
213.734200000000
30
0.0
40
0.736848000000
100
AcDbArc
50
180.000000000000
51
270.000000000000
0
ARC
5
6c7
100
AcDbEntity
8
0-0
6
CONTINUOUS
62
7
100
AcDbCircle
10
328.734230000000
20
211.265770000000
30
0.0
40
0.736848000000
100
AcDbArc
50
90.000000000000
51
180.000000000000
0
ARC
5
6c8
100
AcDbEntity
8
0-0
6
CONTINUOUS
62
7
100
AcDbCircle
10
326.265750000000
20
211.265770000000
30
0.0
40
0.736848000000
100
AcDbArc
50
0.000000000000
51
90.000000000000
0
ARC
5
6c9
100
AcDbEntity
8
0-0
6
CONTINUOUS
62
7
100
AcDbCircle
10
327.500010000000
20
212.500010000000
30
0.0
40
2.302650000000
100
AcDbArc
50
347.525720000000
51
372.474273000000
0
ARC
5
6ca
100
AcDbEntity
8
0-0
6
CONTINUOUS
62
7
100
AcDbCircle
10
327.500010000000
20
212.500010000000
30
0.0
40
2.302650000000
100
AcDbArc
50
77.525817000000
51
102.474180000000
0
ARC
5
6cb
100
AcDbEntity
8
0-0
6
CONTINUOUS
62
7
100
AcDbCircle
10
327.500010000000
20
212.500010000000
30
0.0
40
2.302650000000
100
AcDbArc
50
167.525720000000
51
192.474270000000
0
ARC
5
6cc
100
AcDbEntity
8
0-0
6
CONTINUOUS
62
7
100
AcDbCircle
10
327.500010000000
20
212.500010000000
30
0.0
40
2.302650000000
100
AcDbArc
50
257.525810000000
51
282.474180000000
0
POLYLINE
5
6cd
100
AcDbEntity
8
0-0
6
CONTINUOUS
62
  7
100
AcDb2dPolyline
66
1
10
0.0
20
0.0
30
0.0
70
0
0
VERTEX
5
6ce
100
AcDbEntity
8
0-0
6
CONTINUOUS
62
  7
100
AcDbVertex
100
AcDb2dVertex
10
373.961627351734
20
215.800000000000
30
0.0
0
VERTEX
5
6cf
100
AcDbEntity
8
0-0
6
CONTINUOUS
62
  7
100
AcDbVertex
100
AcDb2dVertex
10
375.961627351734
20
215.800000000000
30
0.0
0
VERTEX
5
6d0
100
AcDbEntity
8
0-0
6
CONTINUOUS
62
  7
100
AcDbVertex
100
AcDb2dVertex
10
380.013967351734
20
215.587620000000
30
0.0
0
SEQEND
5
6d1
100
AcDbEntity
8
0-0
0
LINE
5
6d2
100
AcDbEntity
8
0-0
6
CONTINUOUS
62
7
100
AcDbLine
10
380.961627351734
20
214.588990000000
30
0.0
11
380.961627351734
21
213.646720000000
31
0.0
0
LINE
5
6d3
100
AcDbEntity
8
0-0
6
CONTINUOUS
62
7
100
AcDbLine
10
380.677327351734
20
213.347130000000
30
0.0
11
376.530227351734
21
213.129790000000
31
0.0
0
LINE
5
6d4
100
AcDbEntity
8
0-0
6
CONTINUOUS
62
7
100
AcDbLine
10
376.530227351734
20
211.870200000000
30
0.0
11
380.677327351734
21
211.652860000000
31
0.0
0
LINE
5
6d5
100
AcDbEntity
8
0-0
6
CONTINUOUS
62
7
100
AcDbLine
10
380.961627351734
20
211.353270000000
30
0.0
11
380.961627351734
21
210.411000000000
31
0.0
0
POLYLINE
5
6d6
100
AcDbEntity
8
0-0
6
CONTINUOUS
62
  7
100
AcDb2dPolyline
66
1
10
0.0
20
0.0
30
0.0
70
0
0
VERTEX
5
6d7
100
AcDbEntity
8
0-0
6
CONTINUOUS
62
  7
100
AcDbVertex
100
AcDb2dVertex
10
380.013967351734
20
209.412370000000
30
0.0
0
VERTEX
5
6d8
100
AcDbEntity
8
0-0
6
CONTINUOUS
62
  7
100
AcDbVertex
100
AcDb2dVertex
10
375.961627351734
20
209.200000000000
30
0.0
0
VERTEX
5
6d9
100
AcDbEntity
8
0-0
6
CONTINUOUS
62
  7
100
AcDbVertex
100
AcDb2dVertex
10
375.961627351734
20
215.800000000000
30
0.0
0
SEQEND
5
6da
100
AcDbEntity
8
0-0
0
LINE
5
6db
100
AcDbEntity
8
0-0
6
CONTINUOUS
62
7
100
AcDbLine
10
375.961627351734
20
209.200000000000
30
0.0
11
373.961627351734
21
209.200000000000
31
0.0
0
POLYLINE
5
6dc
100
AcDbEntity
8
0-0
6
CONTINUOUS
62
  7
100
AcDb2dPolyline
66
1
10
0.0
20
0.0
30
0.0
70
0
0
VERTEX
5
6dd
100
AcDbEntity
8
0-0
6
CONTINUOUS
62
  7
100
AcDbVertex
100
AcDb2dVertex
10
373.961627351734
20
200.000000000000
30
0.0
0
VERTEX
5
6de
100
AcDbEntity
8
0-0
6
CONTINUOUS
62
  7
100
AcDbVertex
100
AcDb2dVertex
10
373.961627351734
20
225.000000000000
30
0.0
0
VERTEX
5
6df
100
AcDbEntity
8
0-0
6
CONTINUOUS
62
  7
100
AcDbVertex
100
AcDb2dVertex
10
371.961627351734
20
225.000000000000
30
0.0
0
SEQEND
5
6e0
100
AcDbEntity
8
0-0
0
LINE
5
6e1
100
AcDbEntity
8
0-0
6
CONTINUOUS
62
7
100
AcDbLine
10
370.961627351734
20
224.000000000000
30
0.0
11
370.961627351734
21
201.000000000000
31
0.0
0
LINE
5
6e2
100
AcDbEntity
8
0-0
6
CONTINUOUS
62
7
100
AcDbLine
10
371.961627351734
20
200.000000000000
30
0.0
11
373.961627351734
21
200.000000000000
31
0.0
0
ARC
5
6e3
100
AcDbEntity
8
0-0
6
CONTINUOUS
62
7
100
AcDbCircle
10
376.561627351734
20
212.469370000000
30
0.0
40
0.600000000000
100
AcDbArc
50
180.000000000000
51
267.000000000000
0
ARC
5
6e4
100
AcDbEntity
8
0-0
6
CONTINUOUS
62
7
100
AcDbCircle
10
376.561627351734
20
212.530620000000
30
0.0
40
0.600000000000
100
AcDbArc
50
93.000000000000
51
180.000000000000
0
ARC
5
6e5
100
AcDbEntity
8
0-0
6
CONTINUOUS
62
7
100
AcDbCircle
10
379.961627351734
20
210.411000000000
30
0.0
40
1.000000000000
100
AcDbArc
50
273.000000000000
51
360.000000000000
0
ARC
5
6e6
100
AcDbEntity
8
0-0
6
CONTINUOUS
62
7
100
AcDbCircle
10
379.961627351734
20
214.588990000000
30
0.0
40
1.000000000000
100
AcDbArc
50
0.000000000000
51
87.000000000000
0
ARC
5
6e7
100
AcDbEntity
8
0-0
6
CONTINUOUS
62
7
100
AcDbCircle
10
380.661627351734
20
211.353270000000
30
0.0
40
0.300000000000
100
AcDbArc
50
0.000000000000
51
87.000000000000
0
ARC
5
6e8
100
AcDbEntity
8
0-0
6
CONTINUOUS
62
7
100
AcDbCircle
10
380.661627351734
20
213.646720000000
30
0.0
40
0.300000000000
100
AcDbArc
50
273.000000000000
51
360.000000000000
0
ARC
5
6e9
100
AcDbEntity
8
0-0
6
CONTINUOUS
62
7
100
AcDbCircle
10
371.961627351734
20
201.000000000000
30
0.0
40
1.000000000000
100
AcDbArc
50
180.000000000000
51
270.000000000000
0
ARC
5
6ea
100
AcDbEntity
8
0-0
6
CONTINUOUS
62
7
100
AcDbCircle
10
371.961627351734
20
224.000000000000
30
0.0
40
1.000000000000
100
AcDbArc
50
90.000000000000
51
180.000000000000
0
LINE
5
6eb
100
AcDbEntity
8
0-0
6
CONTINUOUS
62
7
100
AcDbLine
10
174.000000000000
20
200.000000000000
30
0.0
11
151.000000000000
21
200.000000000000
31
0.0
0
ARC
5
6ec
100
AcDbEntity
8
0-0
6
CONTINUOUS
62
7
100
AcDbCircle
10
210.951008829299
20
212.469370000000
30
0.0
40
0.600000000000
100
AcDbArc
50
180.000000000000
51
267.000000000000
0
ARC
5
6ed
100
AcDbEntity
8
0-0
6
CONTINUOUS
62
7
100
AcDbCircle
10
210.951008829299
20
212.530620000000
30
0.0
40
0.600000000000
100
AcDbArc
50
93.000000000000
51
180.000000000000
0
ARC
5
6ee
100
AcDbEntity
8
0-0
6
CONTINUOUS
62
7
100
AcDbCircle
10
215.051008829299
20
211.353270000000
30
0.0
40
0.300000000000
100
AcDbArc
50
0.000000000000
51
87.000000000000
0
ARC
5
6ef
100
AcDbEntity
8
0-0
6
CONTINUOUS
62
7
100
AcDbCircle
10
215.051008829299
20
213.646720000000
30
0.0
40
0.300000000000
100
AcDbArc
50
273.000000000000
51
360.000000000000
0
ARC
5
6f0
100
AcDbEntity
8
0-0
6
CONTINUOUS
62
7
100
AcDbCircle
10
214.351008829299
20
210.411000000000
30
0.0
40
1.000000000000
100
AcDbArc
50
273.000000000000
51
360.000000000000
0
ARC
5
6f1
100
AcDbEntity
8
0-0
6
CONTINUOUS
62
7
100
AcDbCircle
10
214.351008829299
20
214.588990000000
30
0.0
40
1.000000000000
100
AcDbArc
50
0.000000000000
51
87.000000000000
0
ARC
5
6f2
100
AcDbEntity
8
0-0
6
CONTINUOUS
62
7
100
AcDbCircle
10
206.351008829299
20
201.000000000000
30
0.0
40
1.000000000000
100
AcDbArc
50
180.000000000000
51
270.000000000000
0
ARC
5
6f3
100
AcDbEntity
8
0-0
6
CONTINUOUS
62
7
100
AcDbCircle
10
206.351008829299
20
224.000000000000
30
0.0
40
1.000000000000
100
AcDbArc
50
90.000000000000
51
180.000000000000
0
LINE
5
6f4
100
AcDbEntity
8
0-0
6
CONTINUOUS
62
7
100
AcDbLine
10
206.351008829299
20
200.000000000000
30
0.0
11
208.351008829299
21
200.000000000000
31
0.0
0
LINE
5
6f5
100
AcDbEntity
8
0-0
6
CONTINUOUS
62
7
100
AcDbLine
10
205.351008829299
20
224.000000000000
30
0.0
11
205.351008829299
21
201.000000000000
31
0.0
0
LINE
5
6f6
100
AcDbEntity
8
0-0
6
CONTINUOUS
62
7
100
AcDbLine
10
208.351008829299
20
225.000000000000
30
0.0
11
206.351008829299
21
225.000000000000
31
0.0
0
LINE
5
6f7
100
AcDbEntity
8
0-0
6
CONTINUOUS
62
7
100
AcDbLine
10
208.351008829299
20
200.000000000000
30
0.0
11
208.351008829299
21
225.000000000000
31
0.0
0
LINE
5
6f8
100
AcDbEntity
8
0-0
6
CONTINUOUS
62
7
100
AcDbLine
10
214.403338829299
20
209.412370000000
30
0.0
11
210.351008829299
21
209.200000000000
31
0.0
0
LINE
5
6f9
100
AcDbEntity
8
0-0
6
CONTINUOUS
62
7
100
AcDbLine
10
215.351008829299
20
211.353270000000
30
0.0
11
215.351008829299
21
210.411000000000
31
0.0
0
LINE
5
6fa
100
AcDbEntity
8
0-0
6
CONTINUOUS
62
7
100
AcDbLine
10
210.919598829300
20
211.870200000000
30
0.0
11
215.066708829299
21
211.652860000000
31
0.0
0
LINE
5
6fb
100
AcDbEntity
8
0-0
6
CONTINUOUS
62
7
100
AcDbLine
10
215.066708829299
20
213.347140000000
30
0.0
11
210.919598829300
21
213.129790000000
31
0.0
0
LINE
5
6fc
100
AcDbEntity
8
0-0
6
CONTINUOUS
62
7
100
AcDbLine
10
215.351008829299
20
214.588990000000
30
0.0
11
215.351008829299
21
213.646720000000
31
0.0
0
LINE
5
6fd
100
AcDbEntity
8
0-0
6
CONTINUOUS
62
7
100
AcDbLine
10
210.351008829299
20
215.800000000000
30
0.0
11
214.403338829299
21
215.587620000000
31
0.0
0
LINE
5
6fe
100
AcDbEntity
8
0-0
6
CONTINUOUS
62
7
100
AcDbLine
10
210.351008829299
20
215.800000000000
30
0.0
11
208.351008829299
21
215.800000000000
31
0.0
0
LINE
5
6ff
100
AcDbEntity
8
0-0
6
CONTINUOUS
62
7
100
AcDbLine
10
210.351008829299
20
209.200000000000
30
0.0
11
210.351008829299
21
215.800000000000
31
0.0
0
LINE
5
700
100
AcDbEntity
8
0-0
6
CONTINUOUS
62
7
100
AcDbLine
10
208.351008829299
20
209.200000000000
30
0.0
11
210.351008829299
21
209.200000000000
31
0.0
0
ARC
5
701
100
AcDbEntity
8
0-0
6
CONTINUOUS
62
7
100
AcDbCircle
10
162.500020000000
20
212.500010000000
30
0.0
40
2.302650000000
100
AcDbArc
50
257.525810000000
51
282.474180000000
0
ARC
5
702
100
AcDbEntity
8
0-0
6
CONTINUOUS
62
7
100
AcDbCircle
10
162.500020000000
20
212.500010000000
30
0.0
40
2.302650000000
100
AcDbArc
50
167.525720000000
51
192.474270000000
0
ARC
5
703
100
AcDbEntity
8
0-0
6
CONTINUOUS
62
7
100
AcDbCircle
10
162.500020000000
20
212.500010000000
30
0.0
40
2.302650000000
100
AcDbArc
50
77.525817000000
51
102.474180000000
0
ARC
5
704
100
AcDbEntity
8
0-0
6
CONTINUOUS
62
7
100
AcDbCircle
10
162.500020000000
20
212.500010000000
30
0.0
40
2.302650000000
100
AcDbArc
50
347.525720000000
51
372.474273000000
0
ARC
5
705
100
AcDbEntity
8
0-0
6
CONTINUOUS
62
7
100
AcDbCircle
10
161.265760000000
20
211.265770000000
30
0.0
40
0.736848000000
100
AcDbArc
50
0.000000000000
51
90.000000000000
0
ARC
5
706
100
AcDbEntity
8
0-0
6
CONTINUOUS
62
7
100
AcDbCircle
10
163.734240000000
20
211.265770000000
30
0.0
40
0.736848000000
100
AcDbArc
50
90.000000000000
51
180.000000000000
0
ARC
5
707
100
AcDbEntity
8
0-0
6
CONTINUOUS
62
7
100
AcDbCircle
10
163.734240000000
20
213.734200000000
30
0.0
40
0.736848000000
100
AcDbArc
50
180.000000000000
51
270.000000000000
0
ARC
5
708
100
AcDbEntity
8
0-0
6
CONTINUOUS
62
7
100
AcDbCircle
10
161.265760000000
20
213.734200000000
30
0.0
40
0.736848000000
100
AcDbArc
50
270.000000000000
51
360.000000000000
0
CIRCLE
5
709
100
AcDbEntity
8
0-0
6
CONTINUOUS
62
7
100
AcDbCircle
10
162.500000000000
20
212.500000000000
30
0.0
40
3.550000000000
0
ARC
5
70a
100
AcDbEntity
8
0-0
6
CONTINUOUS
62
7
100
AcDbCircle
10
151.000000000000
20
201.000000000000
30
0.0
40
1.000000000000
100
AcDbArc
50
180.000000000000
51
270.000000000000
0
ARC
5
70b
100
AcDbEntity
8
0-0
6
CONTINUOUS
62
7
100
AcDbCircle
10
174.000000000000
20
201.000000000000
30
0.0
40
1.000000000000
100
AcDbArc
50
270.000000000000
51
360.000000000000
0
ARC
5
70c
100
AcDbEntity
8
0-0
6
CONTINUOUS
62
7
100
AcDbCircle
10
174.000000000000
20
224.000000000000
30
0.0
40
1.000000000000
100
AcDbArc
50
0.000000000000
51
90.000000000000
0
ARC
5
70d
100
AcDbEntity
8
0-0
6
CONTINUOUS
62
7
100
AcDbCircle
10
151.000000000000
20
224.000000000000
30
0.0
40
1.000000000000
100
AcDbArc
50
90.000000000000
51
180.000000000000
0
LINE
5
70e
100
AcDbEntity
8
0-0
6
CONTINUOUS
62
7
100
AcDbLine
10
162.002600000000
20
210.251710000000
30
0.0
11
162.002600000000
21
211.265770000000
31
0.0
0
LINE
5
70f
100
AcDbEntity
8
0-0
6
CONTINUOUS
62
7
100
AcDbLine
10
162.997400000000
20
211.265770000000
30
0.0
11
162.997400000000
21
210.251710000000
31
0.0
0
LINE
5
710
100
AcDbEntity
8
0-0
6
CONTINUOUS
62
7
100
AcDbLine
10
164.748280000000
20
212.002610000000
30
0.0
11
163.734240000000
21
212.002610000000
31
0.0
0
LINE
5
711
100
AcDbEntity
8
0-0
6
CONTINUOUS
62
7
100
AcDbLine
10
163.734240000000
20
212.997360000000
30
0.0
11
164.748280000000
21
212.997360000000
31
0.0
0
LINE
5
712
100
AcDbEntity
8
0-0
6
CONTINUOUS
62
7
100
AcDbLine
10
162.997400000000
20
214.748310000000
30
0.0
11
162.997400000000
21
213.734200000000
31
0.0
0
LINE
5
713
100
AcDbEntity
8
0-0
6
CONTINUOUS
62
7
100
AcDbLine
10
162.002600000000
20
213.734200000000
30
0.0
11
162.002600000000
21
214.748310000000
31
0.0
0
LINE
5
714
100
AcDbEntity
8
0-0
6
CONTINUOUS
62
7
100
AcDbLine
10
161.265760000000
20
212.997360000000
30
0.0
11
160.251680000000
21
212.997360000000
31
0.0
0
LINE
5
715
100
AcDbEntity
8
0-0
6
CONTINUOUS
62
7
100
AcDbLine
10
160.251680000000
20
212.002610000000
30
0.0
11
161.265760000000
21
212.002610000000
31
0.0
0
LINE
5
716
100
AcDbEntity
8
0-0
6
CONTINUOUS
62
7
100
AcDbLine
10
175.000000000000
20
224.000000000000
30
0.0
11
175.000000000000
21
201.000000000000
31
0.0
0
LINE
5
717
100
AcDbEntity
8
0-0
6
CONTINUOUS
62
7
100
AcDbLine
10
151.000000000000
20
225.000000000000
30
0.0
11
174.000000000000
21
225.000000000000
31
0.0
0
LINE
5
718
100
AcDbEntity
8
0-0
6
CONTINUOUS
62
7
100
AcDbLine
10
150.000000000000
20
201.000000000000
30
0.0
11
150.000000000000
21
224.000000000000
31
0.0
0
ARC
5
719
100
AcDbEntity
8
0-0
6
CONTINUOUS
62
7
100
AcDbCircle
10
172.700000000000
20
202.300000000000
30
0.0
40
0.300000000000
100
AcDbArc
50
270.000000000000
51
360.000000000000
0
ARC
5
71a
100
AcDbEntity
8
0-0
6
CONTINUOUS
62
7
100
AcDbCircle
10
172.700000000000
20
204.700000000000
30
0.0
40
0.300000000000
100
AcDbArc
50
0.000000000000
51
90.000000000000
0
ARC
5
71b
100
AcDbEntity
8
0-0
6
CONTINUOUS
62
7
100
AcDbCircle
10
165.300000000000
20
202.300000000000
30
0.0
40
0.300000000000
100
AcDbArc
50
180.000000000000
51
270.000000000000
0
ARC
5
71c
100
AcDbEntity
8
0-0
6
CONTINUOUS
62
7
100
AcDbCircle
10
171.803770000000
20
203.995540000000
30
0.0
40
0.572178900000
100
AcDbArc
50
19.118120000000
51
73.770896000000
0
ARC
5
71d
100
AcDbEntity
8
0-0
6
CONTINUOUS
62
7
100
AcDbCircle
10
171.579910000000
20
203.995540000000
30
0.0
40
0.572178900000
100
AcDbArc
50
106.229100000000
51
160.881870000000
0
ARC
5
71e
100
AcDbEntity
8
0-0
6
CONTINUOUS
62
7
100
AcDbCircle
10
171.691840000000
20
203.476040000000
30
0.0
40
1.102902900000
100
AcDbArc
50
75.730707000000
51
104.269290000000
0
ARC
5
71f
100
AcDbEntity
8
0-0
6
CONTINUOUS
62
7
100
AcDbCircle
10
170.955630000000
20
203.871150000000
30
0.0
40
0.926307300000
100
AcDbArc
50
359.280770000000
51
375.355258000000
0
ARC
5
720
100
AcDbEntity
8
0-0
6
CONTINUOUS
62
7
100
AcDbCircle
10
171.691840000000
20
204.063040000000
30
0.0
40
0.165862900000
100
AcDbArc
50
18.780934000000
51
161.219060000000
0
ARC
5
721
100
AcDbEntity
8
0-0
6
CONTINUOUS
62
7
100
AcDbCircle
10
172.428050000000
20
203.871150000000
30
0.0
40
0.926307300000
100
AcDbArc
50
164.644740000000
51
180.719220000000
0
ARC
5
722
100
AcDbEntity
8
0-0
6
CONTINUOUS
62
7
100
AcDbCircle
10
172.428050000000
20
203.189630000000
30
0.0
40
0.926307300000
100
AcDbArc
50
179.280770000000
51
195.355250000000
0
ARC
5
723
100
AcDbEntity
8
0-0
6
CONTINUOUS
62
7
100
AcDbCircle
10
170.955630000000
20
203.189630000000
30
0.0
40
0.926307300000
100
AcDbArc
50
344.644740000000
51
360.719224300000
0
ARC
5
724
100
AcDbEntity
8
0-0
6
CONTINUOUS
62
7
100
AcDbCircle
10
170.035860000000
20
203.530390000000
30
0.0
40
2.398986300000
100
AcDbArc
50
344.216000000000
51
375.783997000000
0
ARC
5
725
100
AcDbEntity
8
0-0
6
CONTINUOUS
62
7
100
AcDbCircle
10
171.579910000000
20
203.065230000000
30
0.0
40
0.572178900000
100
AcDbArc
50
199.118120000000
51
253.770890000000
0
ARC
5
726
100
AcDbEntity
8
0-0
6
CONTINUOUS
62
7
100
AcDbCircle
10
171.803770000000
20
203.065230000000
30
0.0
40
0.572178900000
100
AcDbArc
50
286.229100000000
51
340.881870000000
0
ARC
5
727
100
AcDbEntity
8
0-0
6
CONTINUOUS
62
7
100
AcDbCircle
10
171.691840000000
20
203.584730000000
30
0.0
40
1.102902900000
100
AcDbArc
50
255.730700000000
51
284.269290000000
0
ARC
5
728
100
AcDbEntity
8
0-0
6
CONTINUOUS
62
7
100
AcDbCircle
10
171.691840000000
20
202.997740000000
30
0.0
40
0.165862900000
100
AcDbArc
50
198.780930000000
51
341.219060000000
0
ARC
5
729
100
AcDbEntity
8
0-0
6
CONTINUOUS
62
7
100
AcDbCircle
10
165.798690000000
20
203.530390000000
30
0.0
40
6.092738900000
100
AcDbArc
50
356.789190000000
51
363.210809900000
0
ARC
5
72a
100
AcDbEntity
8
0-0
6
CONTINUOUS
62
7
100
AcDbCircle
10
177.584990000000
20
203.530390000000
30
0.0
40
6.092738900000
100
AcDbArc
50
176.789190000000
51
183.210800000000
0
ARC
5
72b
100
AcDbEntity
8
0-0
6
CONTINUOUS
62
7
100
AcDbCircle
10
173.347820000000
20
203.530390000000
30
0.0
40
2.398986300000
100
AcDbArc
50
164.216000000000
51
195.783990000000
0
ARC
5
72c
100
AcDbEntity
8
0-0
6
CONTINUOUS
62
7
100
AcDbCircle
10
169.790610000000
20
203.995540000000
30
0.0
40
0.572178900000
100
AcDbArc
50
106.229100000000
51
160.881870000000
0
ARC
5
72d
100
AcDbEntity
8
0-0
6
CONTINUOUS
62
7
100
AcDbCircle
10
169.902550000000
20
203.476040000000
30
0.0
40
1.102902900000
100
AcDbArc
50
75.730707000000
51
104.269290000000
0
ARC
5
72e
100
AcDbEntity
8
0-0
6
CONTINUOUS
62
7
100
AcDbCircle
10
168.246570000000
20
203.530390000000
30
0.0
40
2.398986300000
100
AcDbArc
50
9.866322700000
51
15.783997000000
0
ARC
5
72f
100
AcDbEntity
8
0-0
6
CONTINUOUS
62
7
100
AcDbCircle
10
170.014480000000
20
203.995540000000
30
0.0
40
0.572178900000
100
AcDbArc
50
19.118120000000
51
73.770896000000
0
ARC
5
730
100
AcDbEntity
8
0-0
6
CONTINUOUS
62
7
100
AcDbCircle
10
169.166340000000
20
203.871150000000
30
0.0
40
0.926307300000
100
AcDbArc
50
4.352810000000
51
15.355258000000
0
ARC
5
731
100
AcDbEntity
8
0-0
6
CONTINUOUS
62
7
100
AcDbCircle
10
170.638750000000
20
203.871150000000
30
0.0
40
0.926307300000
100
AcDbArc
50
164.644740000000
51
180.719220000000
0
ARC
5
732
100
AcDbEntity
8
0-0
6
CONTINUOUS
62
7
100
AcDbCircle
10
169.902550000000
20
204.063040000000
30
0.0
40
0.165862900000
100
AcDbArc
50
18.780934000000
51
161.219060000000
0
ARC
5
733
100
AcDbEntity
8
0-0
6
CONTINUOUS
62
7
100
AcDbCircle
10
170.638750000000
20
203.189630000000
30
0.0
40
0.926307300000
100
AcDbArc
50
179.280770000000
51
195.355250000000
0
ARC
5
734
100
AcDbEntity
8
0-0
6
CONTINUOUS
62
7
100
AcDbCircle
10
169.166340000000
20
203.189630000000
30
0.0
40
0.926307300000
100
AcDbArc
50
344.644740000000
51
361.000075600000
0
ARC
5
735
100
AcDbEntity
8
0-0
6
CONTINUOUS
62
7
100
AcDbCircle
10
169.902550000000
20
202.997740000000
30
0.0
40
0.165862900000
100
AcDbArc
50
198.780930000000
51
341.219060000000
0
ARC
5
736
100
AcDbEntity
8
0-0
6
CONTINUOUS
62
7
100
AcDbCircle
10
168.246570000000
20
203.530390000000
30
0.0
40
2.398986300000
100
AcDbArc
50
344.216000000000
51
352.223750000000
0
ARC
5
737
100
AcDbEntity
8
0-0
6
CONTINUOUS
62
7
100
AcDbCircle
10
170.014480000000
20
203.065230000000
30
0.0
40
0.572178900000
100
AcDbArc
50
286.229100000000
51
340.881870000000
0
ARC
5
738
100
AcDbEntity
8
0-0
6
CONTINUOUS
62
7
100
AcDbCircle
10
169.902550000000
20
203.584730000000
30
0.0
40
1.102902900000
100
AcDbArc
50
255.730700000000
51
284.269290000000
0
ARC
5
739
100
AcDbEntity
8
0-0
6
CONTINUOUS
62
7
100
AcDbCircle
10
169.790610000000
20
203.065230000000
30
0.0
40
0.572178900000
100
AcDbArc
50
199.118120000000
51
253.770890000000
0
ARC
5
73a
100
AcDbEntity
8
0-0
6
CONTINUOUS
62
7
100
AcDbCircle
10
175.795690000000
20
203.530390000000
30
0.0
40
6.092738900000
100
AcDbArc
50
176.789190000000
51
183.210800000000
0
ARC
5
73b
100
AcDbEntity
8
0-0
6
CONTINUOUS
62
7
100
AcDbCircle
10
171.558520000000
20
203.530390000000
30
0.0
40
2.398986300000
100
AcDbArc
50
164.216000000000
51
195.783990000000
0
ARC
5
73c
100
AcDbEntity
8
0-0
6
CONTINUOUS
62
7
100
AcDbCircle
10
165.300000000000
20
204.700000000000
30
0.0
40
0.300000000000
100
AcDbArc
50
90.000000000000
51
180.000000000000
0
LINE
5
73d
100
AcDbEntity
8
0-0
6
CONTINUOUS
62
7
100
AcDbLine
10
170.623490000000
20
203.205790000000
30
0.0
11
170.092500000000
21
203.205790000000
31
0.0
0
LINE
5
73e
100
AcDbEntity
8
0-0
6
CONTINUOUS
62
7
100
AcDbLine
10
170.089970000000
20
203.941450000000
30
0.0
11
170.610070000000
21
203.941450000000
31
0.0
0
LINE
5
73f
100
AcDbEntity
8
0-0
6
CONTINUOUS
62
7
100
AcDbLine
10
168.786530000000
20
204.551170000000
30
0.0
11
167.356820000000
21
204.551170000000
31
0.0
0
LINE
5
740
100
AcDbEntity
8
0-0
6
CONTINUOUS
62
7
100
AcDbLine
10
168.786530000000
20
204.187210000000
30
0.0
11
168.786530000000
21
204.551170000000
31
0.0
0
LINE
5
741
100
AcDbEntity
8
0-0
6
CONTINUOUS
62
7
100
AcDbLine
10
167.864120000000
20
204.187210000000
30
0.0
11
168.786530000000
21
204.187210000000
31
0.0
0
LINE
5
742
100
AcDbEntity
8
0-0
6
CONTINUOUS
62
7
100
AcDbLine
10
167.864120000000
20
203.713770000000
30
0.0
11
167.864120000000
21
204.187210000000
31
0.0
0
LINE
5
743
100
AcDbEntity
8
0-0
6
CONTINUOUS
62
7
100
AcDbLine
10
168.698570000000
20
203.713770000000
30
0.0
11
167.864120000000
21
203.713770000000
31
0.0
0
LINE
5
744
100
AcDbEntity
8
0-0
6
CONTINUOUS
62
7
100
AcDbLine
10
168.698570000000
20
203.372110000000
30
0.0
11
168.698570000000
21
203.713770000000
31
0.0
0
LINE
5
745
100
AcDbEntity
8
0-0
6
CONTINUOUS
62
7
100
AcDbLine
10
167.864120000000
20
203.372110000000
30
0.0
11
168.698570000000
21
203.372110000000
31
0.0
0
LINE
5
746
100
AcDbEntity
8
0-0
6
CONTINUOUS
62
7
100
AcDbLine
10
167.864120000000
20
202.873560000000
30
0.0
11
167.864120000000
21
203.372110000000
31
0.0
0
LINE
5
747
100
AcDbEntity
8
0-0
6
CONTINUOUS
62
7
100
AcDbLine
10
168.786530000000
20
202.873560000000
30
0.0
11
167.864120000000
21
202.873560000000
31
0.0
0
LINE
5
748
100
AcDbEntity
8
0-0
6
CONTINUOUS
62
7
100
AcDbLine
10
168.786530000000
20
202.509610000000
30
0.0
11
168.786530000000
21
202.873560000000
31
0.0
0
LINE
5
749
100
AcDbEntity
8
0-0
6
CONTINUOUS
62
7
100
AcDbLine
10
167.356820000000
20
202.509610000000
30
0.0
11
168.786530000000
21
202.509610000000
31
0.0
0
LINE
5
74a
100
AcDbEntity
8
0-0
6
CONTINUOUS
62
7
100
AcDbLine
10
167.356820000000
20
204.551170000000
30
0.0
11
167.356820000000
21
202.509610000000
31
0.0
0
LINE
5
74b
100
AcDbEntity
8
0-0
6
CONTINUOUS
62
7
100
AcDbLine
10
166.043780000000
20
204.551170000000
30
0.0
11
165.534680000000
21
204.551170000000
31
0.0
0
LINE
5
74c
100
AcDbEntity
8
0-0
6
CONTINUOUS
62
7
100
AcDbLine
10
166.043780000000
20
202.873560000000
30
0.0
11
166.043780000000
21
204.551170000000
31
0.0
0
LINE
5
74d
100
AcDbEntity
8
0-0
6
CONTINUOUS
62
7
100
AcDbLine
10
166.964020000000
20
202.873560000000
30
0.0
11
166.043780000000
21
202.873560000000
31
0.0
0
LINE
5
74e
100
AcDbEntity
8
0-0
6
CONTINUOUS
62
7
100
AcDbLine
10
166.964020000000
20
202.509610000000
30
0.0
11
166.964020000000
21
202.873560000000
31
0.0
0
LINE
5
74f
100
AcDbEntity
8
0-0
6
CONTINUOUS
62
7
100
AcDbLine
10
165.534680000000
20
202.509610000000
30
0.0
11
166.964020000000
21
202.509610000000
31
0.0
0
LINE
5
750
100
AcDbEntity
8
0-0
6
CONTINUOUS
62
7
100
AcDbLine
10
165.534680000000
20
204.551170000000
30
0.0
11
165.534680000000
21
202.509610000000
31
0.0
0
LINE
5
751
100
AcDbEntity
8
0-0
6
CONTINUOUS
62
7
100
AcDbLine
10
172.700000000000
20
205.000000000000
30
0.0
11
165.300000000000
21
205.000000000000
31
0.0
0
LINE
5
752
100
AcDbEntity
8
0-0
6
CONTINUOUS
62
7
100
AcDbLine
10
173.000000000000
20
202.300000000000
30
0.0
11
173.000000000000
21
204.700000000000
31
0.0
0
LINE
5
753
100
AcDbEntity
8
0-0
6
CONTINUOUS
62
7
100
AcDbLine
10
165.300000000000
20
202.000000000000
30
0.0
11
172.700000000000
21
202.000000000000
31
0.0
0
LINE
5
754
100
AcDbEntity
8
0-0
6
CONTINUOUS
62
7
100
AcDbLine
10
165.000000000000
20
204.700000000000
30
0.0
11
165.000000000000
21
202.300000000000
31
0.0
0
LINE
5
755
100
AcDbEntity
8
0-0
6
CONTINUOUS
62
7
100
AcDbLine
10
24.000000000000
20
200.000000000000
30
0.0
11
1.000000000000
21
200.000000000000
31
0.0
0
LINE
5
756
100
AcDbEntity
8
0-0
6
CONTINUOUS
62
7
100
AcDbLine
10
1.000000000000
20
220.000000000000
30
0.0
11
24.000000000000
21
220.000000000000
31
0.0
0
LINE
5
757
100
AcDbEntity
8
0-0
6
CONTINUOUS
62
7
100
AcDbLine
10
0.000000000000
20
219.000000000000
30
0.0
11
0.000000000000
21
201.000000000000
31
0.0
0
LINE
5
758
100
AcDbEntity
8
0-0
6
CONTINUOUS
62
7
100
AcDbLine
10
23.000000000000
20
204.700000000000
30
0.0
11
23.000000000000
21
202.300000000000
31
0.0
0
LINE
5
759
100
AcDbEntity
8
0-0
6
CONTINUOUS
62
7
100
AcDbLine
10
15.000000000000
20
202.300000000000
30
0.0
11
15.000000000000
21
204.700000000000
31
0.0
0
LINE
5
75a
100
AcDbEntity
8
0-0
6
CONTINUOUS
62
7
100
AcDbLine
10
15.300000000000
20
205.000000000000
30
0.0
11
22.700000000000
21
205.000000000000
31
0.0
0
LINE
5
75b
100
AcDbEntity
8
0-0
6
CONTINUOUS
62
7
100
AcDbLine
10
25.000000000000
20
219.000000000000
30
0.0
11
25.000000000000
21
201.000000000000
31
0.0
0
LINE
5
75c
100
AcDbEntity
8
0-0
6
CONTINUOUS
62
7
100
AcDbLine
10
15.300000000000
20
202.000000000000
30
0.0
11
22.700000000000
21
202.000000000000
31
0.0
0
ARC
5
75d
100
AcDbEntity
8
0-0
6
CONTINUOUS
62
7
100
AcDbCircle
10
15.300000000000
20
204.700000000000
30
0.0
40
0.300000000000
100
AcDbArc
50
90.000000000000
51
180.000000000000
0
ARC
5
75e
100
AcDbEntity
8
0-0
6
CONTINUOUS
62
7
100
AcDbCircle
10
24.000000000000
20
201.000000000000
30
0.0
40
1.000000000000
100
AcDbArc
50
270.000000000000
51
360.000000000000
0
ARC
5
75f
100
AcDbEntity
8
0-0
6
CONTINUOUS
62
7
100
AcDbCircle
10
1.000000000000
20
201.000000000000
30
0.0
40
1.000000000000
100
AcDbArc
50
180.000000000000
51
270.000000000000
0
CIRCLE
5
760
100
AcDbEntity
8
0-0
6
CONTINUOUS
62
7
100
AcDbCircle
10
12.500000000000
20
212.500000000000
30
0.0
40
3.550000000000
0
ARC
5
761
100
AcDbEntity
8
0-0
6
CONTINUOUS
62
7
100
AcDbCircle
10
15.300000000000
20
202.300000000000
30
0.0
40
0.300000000000
100
AcDbArc
50
180.000000000000
51
270.000000000000
0
ARC
5
762
100
AcDbEntity
8
0-0
6
CONTINUOUS
62
7
100
AcDbCircle
10
22.700000000000
20
204.700000000000
30
0.0
40
0.300000000000
100
AcDbArc
50
0.000000000000
51
90.000000000000
0
ARC
5
763
100
AcDbEntity
8
0-0
6
CONTINUOUS
62
7
100
AcDbCircle
10
22.700000000000
20
202.300000000000
30
0.0
40
0.300000000000
100
AcDbArc
50
270.000000000000
51
360.000000000000
0
ARC
5
764
100
AcDbEntity
8
0-0
6
CONTINUOUS
62
7
100
AcDbCircle
10
1.000000000000
20
219.000000000000
30
0.0
40
1.000000000000
100
AcDbArc
50
90.000000000000
51
180.000000000000
0
ARC
5
765
100
AcDbEntity
8
0-0
6
CONTINUOUS
62
7
100
AcDbCircle
10
24.000000000000
20
219.000000000000
30
0.0
40
1.000000000000
100
AcDbArc
50
0.000000000000
51
90.000000000000
0
POLYLINE
5
766
100
AcDbEntity
8
0-0
6
CONTINUOUS
62
  7
100
AcDb2dPolyline
66
1
10
0.0
20
0.0
30
0.0
70
0
0
VERTEX
5
767
100
AcDbEntity
8
0-0
6
CONTINUOUS
62
  7
100
AcDbVertex
100
AcDb2dVertex
10
57.466578287821
20
220.000000000000
30
0.0
0
VERTEX
5
768
100
AcDbEntity
8
0-0
6
CONTINUOUS
62
  7
100
AcDbVertex
100
AcDb2dVertex
10
57.466578287821
20
200.000000000000
30
0.0
0
VERTEX
5
769
100
AcDbEntity
8
0-0
6
CONTINUOUS
62
  7
100
AcDbVertex
100
AcDb2dVertex
10
55.466578287821
20
200.000000000000
30
0.0
0
SEQEND
5
76a
100
AcDbEntity
8
0-0
0
LINE
5
76b
100
AcDbEntity
8
0-0
6
CONTINUOUS
62
7
100
AcDbLine
10
55.466578287821
20
220.000000000000
30
0.0
11
57.466578287821
21
220.000000000000
31
0.0
0
LINE
5
76c
100
AcDbEntity
8
0-0
6
CONTINUOUS
62
7
100
AcDbLine
10
54.466578287821
20
219.000000000000
30
0.0
11
54.466578287821
21
201.000000000000
31
0.0
0
LINE
5
76d
100
AcDbEntity
8
0-0
6
CONTINUOUS
62
7
100
AcDbLine
10
59.466578287821
20
211.900000000000
30
0.0
11
64.182279074694
21
211.652860593997
31
0.0
0
LINE
5
76e
100
AcDbEntity
8
0-0
6
CONTINUOUS
62
7
100
AcDbLine
10
64.466578287821
20
213.646728266429
30
0.0
11
64.466578287821
21
214.588996536870
31
0.0
0
POLYLINE
5
76f
100
AcDbEntity
8
0-0
6
CONTINUOUS
62
  7
100
AcDb2dPolyline
66
1
10
0.0
20
0.0
30
0.0
70
0
0
VERTEX
5
770
100
AcDbEntity
8
0-0
6
CONTINUOUS
62
  7
100
AcDbVertex
100
AcDb2dVertex
10
63.518914244064
20
215.587626071625
30
0.0
0
VERTEX
5
771
100
AcDbEntity
8
0-0
6
CONTINUOUS
62
  7
100
AcDbVertex
100
AcDb2dVertex
10
59.466578287821
20
215.800000000000
30
0.0
0
VERTEX
5
772
100
AcDbEntity
8
0-0
6
CONTINUOUS
62
  7
100
AcDbVertex
100
AcDb2dVertex
10
57.466578287821
20
215.800000000000
30
0.0
0
SEQEND
5
773
100
AcDbEntity
8
0-0
0
POLYLINE
5
774
100
AcDbEntity
8
0-0
6
CONTINUOUS
62
  7
100
AcDb2dPolyline
66
1
10
0.0
20
0.0
30
0.0
70
0
0
VERTEX
5
775
100
AcDbEntity
8
0-0
6
CONTINUOUS
62
  7
100
AcDbVertex
100
AcDb2dVertex
10
59.466578287821
20
215.800000000000
30
0.0
0
VERTEX
5
776
100
AcDbEntity
8
0-0
6
CONTINUOUS
62
  7
100
AcDbVertex
100
AcDb2dVertex
10
59.466578287821
20
209.200000000000
30
0.0
0
VERTEX
5
777
100
AcDbEntity
8
0-0
6
CONTINUOUS
62
  7
100
AcDbVertex
100
AcDb2dVertex
10
63.518914244064
20
209.412373928375
30
0.0
0
SEQEND
5
778
100
AcDbEntity
8
0-0
0
LINE
5
779
100
AcDbEntity
8
0-0
6
CONTINUOUS
62
7
100
AcDbLine
10
64.466578287821
20
210.411003463130
30
0.0
11
64.466578287821
21
211.353271733570
31
0.0
0
LINE
5
77a
100
AcDbEntity
8
0-0
6
CONTINUOUS
62
7
100
AcDbLine
10
59.466578287821
20
213.100000000000
30
0.0
11
64.182279074694
21
213.347139406003
31
0.0
0
LINE
5
77b
100
AcDbEntity
8
0-0
6
CONTINUOUS
62
7
100
AcDbLine
10
59.466578287821
20
209.200000000000
30
0.0
11
57.466578287821
21
209.200000000000
31
0.0
0
ARC
5
77c
100
AcDbEntity
8
0-0
6
CONTINUOUS
62
7
100
AcDbCircle
10
55.466578287821
20
201.000000000000
30
0.0
40
1.000000000000
100
AcDbArc
50
180.000000000000
51
270.000000000000
0
ARC
5
77d
100
AcDbEntity
8
0-0
6
CONTINUOUS
62
7
100
AcDbCircle
10
63.466578287821
20
214.588996536870
30
0.0
40
1.000000000000
100
AcDbArc
50
0.000000000000
51
87.000000000005
0
ARC
5
77e
100
AcDbEntity
8
0-0
6
CONTINUOUS
62
7
100
AcDbCircle
10
63.466578287821
20
210.411003463130
30
0.0
40
1.000000000000
100
AcDbArc
50
273.000000000002
51
360.000000000000
0
ARC
5
77f
100
AcDbEntity
8
0-0
6
CONTINUOUS
62
7
100
AcDbCircle
10
64.166578287821
20
213.646728266429
30
0.0
40
0.300000000000
100
AcDbArc
50
272.999999999997
51
360.000000000000
0
ARC
5
780
100
AcDbEntity
8
0-0
6
CONTINUOUS
62
7
100
AcDbCircle
10
64.166578287821
20
211.353271733570
30
0.0
40
0.300000000000
100
AcDbArc
50
0.000000000000
51
86.999999999998
0
ARC
5
781
100
AcDbEntity
8
0-0
6
CONTINUOUS
62
7
100
AcDbCircle
10
55.466578287821
20
219.000000000000
30
0.0
40
1.000000000000
100
AcDbArc
50
90.000000000000
51
180.000000000000
0
ARC
5
782
100
AcDbEntity
8
0-0
6
CONTINUOUS
62
7
100
AcDbCircle
10
12.500000000000
20
212.500000000000
30
0.0
40
2.302650000000
100
AcDbArc
50
257.525810000000
51
282.474180000000
0
ARC
5
783
100
AcDbEntity
8
0-0
6
CONTINUOUS
62
7
100
AcDbCircle
10
12.500000000000
20
212.500000000000
30
0.0
40
2.302650000000
100
AcDbArc
50
167.525720000000
51
192.474270000000
0
ARC
5
784
100
AcDbEntity
8
0-0
6
CONTINUOUS
62
7
100
AcDbCircle
10
12.500000000000
20
212.500000000000
30
0.0
40
2.302650000000
100
AcDbArc
50
77.525817000000
51
102.474180000000
0
ARC
5
785
100
AcDbEntity
8
0-0
6
CONTINUOUS
62
7
100
AcDbCircle
10
12.500000000000
20
212.500000000000
30
0.0
40
2.302650000000
100
AcDbArc
50
347.525720000000
51
372.474273000000
0
ARC
5
786
100
AcDbEntity
8
0-0
6
CONTINUOUS
62
7
100
AcDbCircle
10
11.265740000000
20
211.265760000000
30
0.0
40
0.736848000000
100
AcDbArc
50
0.000000000000
51
90.000000000000
0
ARC
5
787
100
AcDbEntity
8
0-0
6
CONTINUOUS
62
7
100
AcDbCircle
10
13.734220000000
20
211.265760000000
30
0.0
40
0.736848000000
100
AcDbArc
50
90.000000000000
51
180.000000000000
0
ARC
5
788
100
AcDbEntity
8
0-0
6
CONTINUOUS
62
7
100
AcDbCircle
10
13.734220000000
20
213.734190000000
30
0.0
40
0.736848000000
100
AcDbArc
50
180.000000000000
51
270.000000000000
0
ARC
5
789
100
AcDbEntity
8
0-0
6
CONTINUOUS
62
7
100
AcDbCircle
10
11.265740000000
20
213.734190000000
30
0.0
40
0.736848000000
100
AcDbArc
50
270.000000000000
51
360.000000000000
0
LINE
5
78a
100
AcDbEntity
8
0-0
6
CONTINUOUS
62
7
100
AcDbLine
10
12.002580000000
20
210.251700000000
30
0.0
11
12.002580000000
21
211.265760000000
31
0.0
0
LINE
5
78b
100
AcDbEntity
8
0-0
6
CONTINUOUS
62
7
100
AcDbLine
10
12.997380000000
20
211.265760000000
30
0.0
11
12.997380000000
21
210.251700000000
31
0.0
0
LINE
5
78c
100
AcDbEntity
8
0-0
6
CONTINUOUS
62
7
100
AcDbLine
10
14.748260000000
20
212.002600000000
30
0.0
11
13.734220000000
21
212.002600000000
31
0.0
0
LINE
5
78d
100
AcDbEntity
8
0-0
6
CONTINUOUS
62
7
100
AcDbLine
10
13.734220000000
20
212.997350000000
30
0.0
11
14.748260000000
21
212.997350000000
31
0.0
0
LINE
5
78e
100
AcDbEntity
8
0-0
6
CONTINUOUS
62
7
100
AcDbLine
10
12.997380000000
20
214.748300000000
30
0.0
11
12.997380000000
21
213.734190000000
31
0.0
0
LINE
5
78f
100
AcDbEntity
8
0-0
6
CONTINUOUS
62
7
100
AcDbLine
10
12.002580000000
20
213.734190000000
30
0.0
11
12.002580000000
21
214.748300000000
31
0.0
0
LINE
5
790
100
AcDbEntity
8
0-0
6
CONTINUOUS
62
7
100
AcDbLine
10
11.265740000000
20
212.997350000000
30
0.0
11
10.251660000000
21
212.997350000000
31
0.0
0
LINE
5
791
100
AcDbEntity
8
0-0
6
CONTINUOUS
62
7
100
AcDbLine
10
10.251660000000
20
212.002600000000
30
0.0
11
11.265740000000
21
212.002600000000
31
0.0
0
POLYLINE
5
792
100
AcDbEntity
8
0-0
6
CONTINUOUS
62
  7
100
AcDb2dPolyline
66
1
10
0.0
20
0.0
30
0.0
70
0
0
VERTEX
5
793
100
AcDbEntity
8
0-0
6
CONTINUOUS
62
  7
100
AcDbVertex
100
AcDb2dVertex
10
17.356811237216
20
202.509611243045
30
0.0
0
VERTEX
5
794
100
AcDbEntity
8
0-0
6
CONTINUOUS
62
  7
100
AcDbVertex
100
AcDb2dVertex
10
17.356811237216
20
204.551172485645
30
0.0
0
VERTEX
5
795
100
AcDbEntity
8
0-0
6
CONTINUOUS
62
  7
100
AcDbVertex
100
AcDb2dVertex
10
18.786526028760
20
204.551172485645
30
0.0
0
VERTEX
5
796
100
AcDbEntity
8
0-0
6
CONTINUOUS
62
  7
100
AcDbVertex
100
AcDb2dVertex
10
18.786526028760
20
204.187214548894
30
0.0
0
VERTEX
5
797
100
AcDbEntity
8
0-0
6
CONTINUOUS
62
  7
100
AcDbVertex
100
AcDb2dVertex
10
17.864111322656
20
204.187214548894
30
0.0
0
VERTEX
5
798
100
AcDbEntity
8
0-0
6
CONTINUOUS
62
  7
100
AcDbVertex
100
AcDb2dVertex
10
17.864111322656
20
203.713770234955
30
0.0
0
VERTEX
5
799
100
AcDbEntity
8
0-0
6
CONTINUOUS
62
  7
100
AcDbVertex
100
AcDb2dVertex
10
18.698564997633
20
203.713770234955
30
0.0
0
VERTEX
5
79a
100
AcDbEntity
8
0-0
6
CONTINUOUS
62
  7
100
AcDbVertex
100
AcDb2dVertex
10
18.698564997633
20
203.372119156975
30
0.0
0
VERTEX
5
79b
100
AcDbEntity
8
0-0
6
CONTINUOUS
62
  7
100
AcDbVertex
100
AcDb2dVertex
10
17.864111322656
20
203.372119156975
30
0.0
0
VERTEX
5
79c
100
AcDbEntity
8
0-0
6
CONTINUOUS
62
  7
100
AcDbVertex
100
AcDb2dVertex
10
17.864111322656
20
202.873569179825
30
0.0
0
VERTEX
5
79d
100
AcDbEntity
8
0-0
6
CONTINUOUS
62
  7
100
AcDbVertex
100
AcDb2dVertex
10
18.786526028760
20
202.873569179825
30
0.0
0
VERTEX
5
79e
100
AcDbEntity
8
0-0
6
CONTINUOUS
62
  7
100
AcDbVertex
100
AcDb2dVertex
10
18.786526028760
20
202.509611243045
30
0.0
0
VERTEX
5
79f
100
AcDbEntity
8
0-0
6
CONTINUOUS
62
  7
100
AcDbVertex
100
AcDb2dVertex
10
17.356811237216
20
202.509611243045
30
0.0
0
SEQEND
5
7a0
100
AcDbEntity
8
0-0
0
POLYLINE
5
7a1
100
AcDbEntity
8
0-0
6
CONTINUOUS
62
  7
100
AcDb2dPolyline
66
1
10
0.0
20
0.0
30
0.0
70
0
0
VERTEX
5
7a2
100
AcDbEntity
8
0-0
6
CONTINUOUS
62
  7
100
AcDbVertex
100
AcDb2dVertex
10
16.964014931038
20
202.509611243045
30
0.0
0
VERTEX
5
7a3
100
AcDbEntity
8
0-0
6
CONTINUOUS
62
  7
100
AcDbVertex
100
AcDb2dVertex
10
15.534672154723
20
202.509611243045
30
0.0
0
VERTEX
5
7a4
100
AcDbEntity
8
0-0
6
CONTINUOUS
62
  7
100
AcDbVertex
100
AcDb2dVertex
10
15.534672154723
20
204.551172485645
30
0.0
0
VERTEX
5
7a5
100
AcDbEntity
8
0-0
6
CONTINUOUS
62
  7
100
AcDbVertex
100
AcDb2dVertex
10
16.043777683123
20
204.551172485645
30
0.0
0
VERTEX
5
7a6
100
AcDbEntity
8
0-0
6
CONTINUOUS
62
  7
100
AcDbVertex
100
AcDb2dVertex
10
16.043777683123
20
202.873569179825
30
0.0
0
VERTEX
5
7a7
100
AcDbEntity
8
0-0
6
CONTINUOUS
62
  7
100
AcDbVertex
100
AcDb2dVertex
10
16.964014931038
20
202.873569179825
30
0.0
0
VERTEX
5
7a8
100
AcDbEntity
8
0-0
6
CONTINUOUS
62
  7
100
AcDbVertex
100
AcDb2dVertex
10
16.964014931038
20
202.509611243045
30
0.0
0
SEQEND
5
7a9
100
AcDbEntity
8
0-0
0
LINE
5
7aa
100
AcDbEntity
8
0-0
6
CONTINUOUS
62
7
100
AcDbLine
10
20.610068711380
20
203.941458279125
30
0.0
11
20.089968065243
21
203.941458279125
31
0.0
0
LINE
5
7ab
100
AcDbEntity
8
0-0
6
CONTINUOUS
62
7
100
AcDbLine
10
20.092498802319
20
203.205797659085
30
0.0
11
20.623488207782
21
203.205797659085
31
0.0
0
ARC
5
7ac
100
AcDbEntity
8
0-0
6
CONTINUOUS
62
7
100
AcDbCircle
10
21.558519495466
20
203.530391864345
30
0.0
40
2.398986344497
100
AcDbArc
50
164.216002475893
51
195.783997524107
0
ARC
5
7ad
100
AcDbEntity
8
0-0
6
CONTINUOUS
62
7
100
AcDbCircle
10
25.795690093433
20
203.530391864341
30
0.0
40
6.092738949811
100
AcDbArc
50
176.789190081973
51
183.210809918027
0
ARC
5
7ae
100
AcDbEntity
8
0-0
6
CONTINUOUS
62
7
100
AcDbCircle
10
19.790609975918
20
203.065238192152
30
0.0
40
0.572178966339
100
AcDbArc
50
199.118120314094
51
253.770896322251
0
ARC
5
7af
100
AcDbEntity
8
0-0
6
CONTINUOUS
62
7
100
AcDbCircle
10
19.902541180461
20
203.584735672748
30
0.0
40
1.102902967963
100
AcDbArc
50
255.730707223577
51
284.269292776423
0
ARC
5
7b0
100
AcDbEntity
8
0-0
6
CONTINUOUS
62
7
100
AcDbCircle
10
20.014472385003
20
203.065238192152
30
0.0
40
0.572178966339
100
AcDbArc
50
286.229103677749
51
340.881879685906
0
ARC
5
7b1
100
AcDbEntity
8
0-0
6
CONTINUOUS
62
7
100
AcDbCircle
10
18.246562865455
20
203.530391864345
30
0.0
40
2.398986344497
100
AcDbArc
50
344.216002475893
51
352.223758552802
0
ARC
5
7b2
100
AcDbEntity
8
0-0
6
CONTINUOUS
62
7
100
AcDbCircle
10
19.902541180461
20
202.997740719942
30
0.0
40
0.165862986421
100
AcDbArc
50
198.780934832589
51
341.219065167411
0
ARC
5
7b3
100
AcDbEntity
8
0-0
6
CONTINUOUS
62
7
100
AcDbCircle
10
19.166332587189
20
203.189630145232
30
0.0
40
0.926307317553
100
AcDbArc
50
344.644741742154
51
361.000075600875
0
ARC
5
7b4
100
AcDbEntity
8
0-0
6
CONTINUOUS
62
7
100
AcDbCircle
10
20.638749773732
20
203.189630145232
30
0.0
40
0.926307317553
100
AcDbArc
50
179.280775692595
51
195.355258257846
0
ARC
5
7b5
100
AcDbEntity
8
0-0
6
CONTINUOUS
62
7
100
AcDbCircle
10
19.902541180461
20
204.063043008749
30
0.0
40
0.165862986421
100
AcDbArc
50
18.780934832589
51
161.219065167411
0
ARC
5
7b6
100
AcDbEntity
8
0-0
6
CONTINUOUS
62
7
100
AcDbCircle
10
20.638749773732
20
203.871153583459
30
0.0
40
0.926307317553
100
AcDbArc
50
164.644741742154
51
180.719224307405
0
ARC
5
7b7
100
AcDbEntity
8
0-0
6
CONTINUOUS
62
7
100
AcDbCircle
10
19.166332587189
20
203.871153583459
30
0.0
40
0.926307317553
100
AcDbArc
50
4.352810002801
51
15.355258257846
0
ARC
5
7b8
100
AcDbEntity
8
0-0
6
CONTINUOUS
62
7
100
AcDbCircle
10
20.014472385003
20
203.995545536538
30
0.0
40
0.572178966339
100
AcDbArc
50
19.118120314094
51
73.770896322251
0
ARC
5
7b9
100
AcDbEntity
8
0-0
6
CONTINUOUS
62
7
100
AcDbCircle
10
18.246562865455
20
203.530391864345
30
0.0
40
2.398986344497
100
AcDbArc
50
9.866322719821
51
15.783997524107
0
ARC
5
7ba
100
AcDbEntity
8
0-0
6
CONTINUOUS
62
7
100
AcDbCircle
10
19.902541180461
20
203.476048055943
30
0.0
40
1.102902967963
100
AcDbArc
50
75.730707223577
51
104.269292776423
0
ARC
5
7bb
100
AcDbEntity
8
0-0
6
CONTINUOUS
62
7
100
AcDbCircle
10
19.790609975918
20
203.995545536538
30
0.0
40
0.572178966339
100
AcDbArc
50
106.229103677749
51
160.881879685906
0
ARC
5
7bc
100
AcDbEntity
8
0-0
6
CONTINUOUS
62
7
100
AcDbCircle
10
23.347811795496
20
203.530391864345
30
0.0
40
2.398986344497
100
AcDbArc
50
164.216002475893
51
195.783997524107
0
ARC
5
7bd
100
AcDbEntity
8
0-0
6
CONTINUOUS
62
7
100
AcDbCircle
10
27.584982393463
20
203.530391864341
30
0.0
40
6.092738949811
100
AcDbArc
50
176.789190081973
51
183.210809918027
0
ARC
5
7be
100
AcDbEntity
8
0-0
6
CONTINUOUS
62
7
100
AcDbCircle
10
15.798684567517
20
203.530391864341
30
0.0
40
6.092738949811
100
AcDbArc
50
356.789190081973
51
363.210809918027
0
ARC
5
7bf
100
AcDbEntity
8
0-0
6
CONTINUOUS
62
7
100
AcDbCircle
10
21.691833480490
20
202.997740719942
30
0.0
40
0.165862986421
100
AcDbArc
50
198.780934832589
51
341.219065167411
0
ARC
5
7c0
100
AcDbEntity
8
0-0
6
CONTINUOUS
62
7
100
AcDbCircle
10
21.691833480490
20
203.584735672748
30
0.0
40
1.102902967963
100
AcDbArc
50
255.730707223577
51
284.269292776423
0
ARC
5
7c1
100
AcDbEntity
8
0-0
6
CONTINUOUS
62
7
100
AcDbCircle
10
21.803764685032
20
203.065238192152
30
0.0
40
0.572178966339
100
AcDbArc
50
286.229103677749
51
340.881879685906
0
ARC
5
7c2
100
AcDbEntity
8
0-0
6
CONTINUOUS
62
7
100
AcDbCircle
10
21.579902275948
20
203.065238192152
30
0.0
40
0.572178966339
100
AcDbArc
50
199.118120314094
51
253.770896322251
0
ARC
5
7c3
100
AcDbEntity
8
0-0
6
CONTINUOUS
62
7
100
AcDbCircle
10
20.035855165484
20
203.530391864345
30
0.0
40
2.398986344497
100
AcDbArc
50
344.216002475893
51
375.783997524107
0
ARC
5
7c4
100
AcDbEntity
8
0-0
6
CONTINUOUS
62
7
100
AcDbCircle
10
20.955624887219
20
203.189630145232
30
0.0
40
0.926307317553
100
AcDbArc
50
344.644741742154
51
360.719224307405
0
ARC
5
7c5
100
AcDbEntity
8
0-0
6
CONTINUOUS
62
7
100
AcDbCircle
10
22.428042073761
20
203.189630145232
30
0.0
40
0.926307317553
100
AcDbArc
50
179.280775692595
51
195.355258257846
0
ARC
5
7c6
100
AcDbEntity
8
0-0
6
CONTINUOUS
62
7
100
AcDbCircle
10
22.428042073761
20
203.871153583459
30
0.0
40
0.926307317553
100
AcDbArc
50
164.644741742154
51
180.719224307405
0
ARC
5
7c7
100
AcDbEntity
8
0-0
6
CONTINUOUS
62
7
100
AcDbCircle
10
21.691833480490
20
204.063043008749
30
0.0
40
0.165862986421
100
AcDbArc
50
18.780934832589
51
161.219065167411
0
ARC
5
7c8
100
AcDbEntity
8
0-0
6
CONTINUOUS
62
7
100
AcDbCircle
10
20.955624887219
20
203.871153583459
30
0.0
40
0.926307317553
100
AcDbArc
50
359.280775692595
51
375.355258257846
0
ARC
5
7c9
100
AcDbEntity
8
0-0
6
CONTINUOUS
62
7
100
AcDbCircle
10
21.691833480490
20
203.476048055943
30
0.0
40
1.102902967963
100
AcDbArc
50
75.730707223577
51
104.269292776423
0
ARC
5
7ca
100
AcDbEntity
8
0-0
6
CONTINUOUS
62
7
100
AcDbCircle
10
21.579902275948
20
203.995545536538
30
0.0
40
0.572178966339
100
AcDbArc
50
106.229103677749
51
160.881879685906
0
ARC
5
7cb
100
AcDbEntity
8
0-0
6
CONTINUOUS
62
7
100
AcDbCircle
10
21.803764685032
20
203.995545536538
30
0.0
40
0.572178966339
100
AcDbArc
50
19.118120314094
51
73.770896322251
0
LINE
5
7cc
100
AcDbEntity
8
0-0
6
CONTINUOUS
62
7
100
AcDbLine
10
619.000000000000
20
350.000000000000
30
0.0
11
601.000000000000
21
350.000000000000
31
0.0
0
LINE
5
7cd
100
AcDbEntity
8
0-0
6
CONTINUOUS
62
7
100
AcDbLine
10
601.000000000000
20
370.000000000000
30
0.0
11
619.000000000000
21
370.000000000000
31
0.0
0
LINE
5
7ce
100
AcDbEntity
8
0-0
6
CONTINUOUS
62
7
100
AcDbLine
10
600.000000000000
20
351.000000000000
30
0.0
11
600.000000000000
21
369.000000000000
31
0.0
0
LINE
5
7cf
100
AcDbEntity
8
0-0
6
CONTINUOUS
62
7
100
AcDbLine
10
620.000000000000
20
369.000000000000
30
0.0
11
620.000000000000
21
351.000000000000
31
0.0
0
LINE
5
7d0
100
AcDbEntity
8
0-0
6
CONTINUOUS
62
7
100
AcDbLine
10
610.300000000000
20
352.000000000000
30
0.0
11
617.700000000000
21
352.000000000000
31
0.0
0
LINE
5
7d1
100
AcDbEntity
8
0-0
6
CONTINUOUS
62
7
100
AcDbLine
10
617.700000000000
20
355.000000000000
30
0.0
11
610.300000000000
21
355.000000000000
31
0.0
0
LINE
5
7d2
100
AcDbEntity
8
0-0
6
CONTINUOUS
62
7
100
AcDbLine
10
618.000000000000
20
352.300000000000
30
0.0
11
618.000000000000
21
354.700000000000
31
0.0
0
ARC
5
7d3
100
AcDbEntity
8
0-0
6
CONTINUOUS
62
7
100
AcDbCircle
10
617.700000000000
20
354.700000000000
30
0.0
40
0.300000000000
100
AcDbArc
50
0.000000000000
51
90.000000000000
0
ARC
5
7d4
100
AcDbEntity
8
0-0
6
CONTINUOUS
62
7
100
AcDbCircle
10
617.700000000000
20
352.300000000000
30
0.0
40
0.300000000000
100
AcDbArc
50
270.000000000000
51
360.000000000000
0
ARC
5
7d5
100
AcDbEntity
8
0-0
6
CONTINUOUS
62
7
100
AcDbCircle
10
619.000000000000
20
369.000000000000
30
0.0
40
1.000000000000
100
AcDbArc
50
0.000000000000
51
90.000000000000
0
ARC
5
7d6
100
AcDbEntity
8
0-0
6
CONTINUOUS
62
7
100
AcDbCircle
10
601.000000000000
20
351.000000000000
30
0.0
40
1.000000000000
100
AcDbArc
50
180.000000000000
51
270.000000000000
0
ARC
5
7d7
100
AcDbEntity
8
0-0
6
CONTINUOUS
62
7
100
AcDbCircle
10
601.000000000000
20
369.000000000000
30
0.0
40
1.000000000000
100
AcDbArc
50
90.000000000000
51
180.000000000000
0
CIRCLE
5
7d8
100
AcDbEntity
8
0-0
6
CONTINUOUS
62
7
100
AcDbCircle
10
607.500000000000
20
362.500000000000
30
0.0
40
3.550000000000
0
ARC
5
7d9
100
AcDbEntity
8
0-0
6
CONTINUOUS
62
7
100
AcDbCircle
10
619.000000000000
20
351.000000000000
30
0.0
40
1.000000000000
100
AcDbArc
50
270.000000000000
51
360.000000000000
0
LINE
5
7da
100
AcDbEntity
8
0-0
6
CONTINUOUS
62
7
100
AcDbLine
10
601.000000000000
20
332.922814939848
30
0.0
11
619.000000000000
21
332.922814939848
31
0.0
0
POLYLINE
5
7db
100
AcDbEntity
8
0-0
6
CONTINUOUS
62
  7
100
AcDb2dPolyline
66
1
10
0.0
20
0.0
30
0.0
70
0
0
VERTEX
5
7dc
100
AcDbEntity
8
0-0
6
CONTINUOUS
62
  7
100
AcDbVertex
100
AcDb2dVertex
10
620.000000000000
20
331.922814939848
30
0.0
0
VERTEX
5
7dd
100
AcDbEntity
8
0-0
6
CONTINUOUS
62
  7
100
AcDbVertex
100
AcDb2dVertex
10
620.000000000000
20
329.922814939848
30
0.0
0
VERTEX
5
7de
100
AcDbEntity
8
0-0
6
CONTINUOUS
62
  7
100
AcDbVertex
100
AcDb2dVertex
10
600.000000000000
20
329.922814939848
30
0.0
0
VERTEX
5
7df
100
AcDbEntity
8
0-0
6
CONTINUOUS
62
  7
100
AcDbVertex
100
AcDb2dVertex
10
600.000000000000
20
331.922814939848
30
0.0
0
SEQEND
5
7e0
100
AcDbEntity
8
0-0
0
POLYLINE
5
7e1
100
AcDbEntity
8
0-0
6
CONTINUOUS
62
  7
100
AcDb2dPolyline
66
1
10
0.0
20
0.0
30
0.0
70
0
0
VERTEX
5
7e2
100
AcDbEntity
8
0-0
6
CONTINUOUS
62
  7
100
AcDbVertex
100
AcDb2dVertex
10
618.101700340223
20
328.422814939766
30
0.0
0
VERTEX
5
7e3
100
AcDbEntity
8
0-0
6
CONTINUOUS
62
  7
100
AcDbVertex
100
AcDb2dVertex
10
615.150000000000
20
328.422814939766
30
0.0
0
VERTEX
5
7e4
100
AcDbEntity
8
0-0
6
CONTINUOUS
62
  7
100
AcDbVertex
100
AcDb2dVertex
10
614.650000000000
20
328.922814939766
30
0.0
0
VERTEX
5
7e5
100
AcDbEntity
8
0-0
6
CONTINUOUS
62
  7
100
AcDbVertex
100
AcDb2dVertex
10
614.650000000000
20
329.922814939848
30
0.0
0
SEQEND
5
7e6
100
AcDbEntity
8
0-0
0
LINE
5
7e7
100
AcDbEntity
8
0-0
6
CONTINUOUS
62
7
100
AcDbLine
10
614.650000000000
20
328.922814939766
30
0.0
11
618.101700340219
21
328.922814939766
31
0.0
0
LINE
5
7e8
100
AcDbEntity
8
0-0
6
CONTINUOUS
62
7
100
AcDbLine
10
618.101700340221
20
328.422814939766
30
0.0
11
618.101700340221
21
329.922814939766
31
0.0
0
LINE
5
7e9
100
AcDbEntity
8
0-0
6
CONTINUOUS
62
7
100
AcDbLine
10
610.800000000000
20
327.922814939848
30
0.0
11
604.200000000000
21
327.922814939848
31
0.0
0
LINE
5
7ea
100
AcDbEntity
8
0-0
6
CONTINUOUS
62
7
100
AcDbLine
10
604.200000000027
20
327.922814939848
30
0.0
11
604.200000000027
21
329.922814939848
31
0.0
0
LINE
5
7eb
100
AcDbEntity
8
0-0
6
CONTINUOUS
62
7
100
AcDbLine
10
604.199999999999
20
327.922814939848
30
0.0
11
604.447139406003
21
323.207114152965
31
0.0
0
LINE
5
7ec
100
AcDbEntity
8
0-0
6
CONTINUOUS
62
7
100
AcDbLine
10
610.799999999996
20
327.922814939848
30
0.0
11
610.799999999996
21
329.922814939848
31
0.0
0
LINE
5
7ed
100
AcDbEntity
8
0-0
6
CONTINUOUS
62
7
100
AcDbLine
10
610.800000000000
20
327.922814939838
30
0.0
11
610.552860593997
21
323.207114152965
31
0.0
0
LINE
5
7ee
100
AcDbEntity
8
0-0
6
CONTINUOUS
62
7
100
AcDbLine
10
610.253271733570
20
322.922814939838
30
0.0
11
609.488862765832
21
322.922814939838
31
0.0
0
LINE
5
7ef
100
AcDbEntity
8
0-0
6
CONTINUOUS
62
7
100
AcDbLine
10
609.353444353716
20
323.185158081213
30
0.0
11
609.952869620100
21
327.922814939838
31
0.0
0
LINE
5
7f0
100
AcDbEntity
8
0-0
6
CONTINUOUS
62
7
100
AcDbLine
10
605.047130379900
20
327.922814939838
30
0.0
11
605.646555646284
21
323.185158081213
31
0.0
0
LINE
5
7f1
100
AcDbEntity
8
0-0
6
CONTINUOUS
62
7
100
AcDbLine
10
605.510956491519
20
322.922814939838
30
0.0
11
604.746728266430
21
322.922814939838
31
0.0
0
LINE
5
7f2
100
AcDbEntity
8
0-0
6
CONTINUOUS
62
7
100
AcDbLine
10
605.944182864459
20
322.922814939838
30
0.0
11
609.055817135541
21
322.922814939838
31
0.0
0
ARC
5
7f3
100
AcDbEntity
8
0-0
6
CONTINUOUS
62
7
100
AcDbCircle
10
619.000000000000
20
331.922814939848
30
0.0
40
1.000000000000
100
AcDbArc
50
0.000000000000
51
90.000000000000
0
ARC
5
7f4
100
AcDbEntity
8
0-0
6
CONTINUOUS
62
7
100
AcDbCircle
10
601.000000000000
20
331.922814939848
30
0.0
40
1.000000000000
100
AcDbArc
50
89.999999999997
51
180.000000000000
0
ARC
5
7f5
100
AcDbEntity
8
0-0
6
CONTINUOUS
62
7
100
AcDbCircle
10
605.944182864459
20
323.222814939838
30
0.0
40
0.300000000000
100
AcDbArc
50
187.210951400070
51
270.000000000000
0
ARC
5
7f6
100
AcDbEntity
8
0-0
6
CONTINUOUS
62
7
100
AcDbCircle
10
609.055817135541
20
323.222814939838
30
0.0
40
0.300000000000
100
AcDbArc
50
270.000000000000
51
352.789048599932
0
ARC
5
7f7
100
AcDbEntity
8
0-0
6
CONTINUOUS
62
7
100
AcDbCircle
10
604.746728266430
20
323.222814939838
30
0.0
40
0.300000000000
100
AcDbArc
50
183.000000000000
51
270.000000000000
0
ARC
5
7f8
100
AcDbEntity
8
0-0
6
CONTINUOUS
62
7
100
AcDbCircle
10
610.253271733570
20
323.222814939838
30
0.0
40
0.300000000000
100
AcDbArc
50
270.000000000000
51
357.000000000000
0
POLYLINE
5
7f9
100
AcDbEntity
8
0-0
6
CONTINUOUS
62
  7
100
AcDb2dPolyline
66
1
10
0.0
20
0.0
30
0.0
70
0
0
VERTEX
5
7fa
100
AcDbEntity
8
0-0
6
CONTINUOUS
62
  7
100
AcDbVertex
100
AcDb2dVertex
10
645.097510840613
20
350.000000000000
30
0.0
0
VERTEX
5
7fb
100
AcDbEntity
8
0-0
6
CONTINUOUS
62
  7
100
AcDbVertex
100
AcDb2dVertex
10
645.097510840613
20
370.000000000000
30
0.0
0
VERTEX
5
7fc
100
AcDbEntity
8
0-0
6
CONTINUOUS
62
  7
100
AcDbVertex
100
AcDb2dVertex
10
643.097510840613
20
370.000000000000
30
0.0
0
SEQEND
5
7fd
100
AcDbEntity
8
0-0
0
LINE
5
7fe
100
AcDbEntity
8
0-0
6
CONTINUOUS
62
7
100
AcDbLine
10
642.097510840613
20
369.000000000000
30
0.0
11
642.097510840613
21
351.000000000000
31
0.0
0
LINE
5
7ff
100
AcDbEntity
8
0-0
6
CONTINUOUS
62
7
100
AcDbLine
10
643.097510840613
20
350.000000000000
30
0.0
11
645.097510840613
21
350.000000000000
31
0.0
0
LINE
5
800
100
AcDbEntity
8
0-0
6
CONTINUOUS
62
7
100
AcDbLine
10
647.097510840613
20
365.800000000001
30
0.0
11
651.813211627496
21
365.552860593997
31
0.0
0
LINE
5
801
100
AcDbEntity
8
0-0
6
CONTINUOUS
62
7
100
AcDbLine
10
652.097510840623
20
365.253271733570
30
0.0
11
652.097510840623
21
364.489043508481
31
0.0
0
LINE
5
802
100
AcDbEntity
8
0-0
6
CONTINUOUS
62
7
100
AcDbLine
10
651.835167699247
20
364.353444353716
30
0.0
11
647.097510840623
21
364.952869620100
31
0.0
0
LINE
5
803
100
AcDbEntity
8
0-0
6
CONTINUOUS
62
7
100
AcDbLine
10
647.097510840613
20
365.799999999973
30
0.0
11
645.097510840613
21
365.799999999973
31
0.0
0
LINE
5
804
100
AcDbEntity
8
0-0
6
CONTINUOUS
62
7
100
AcDbLine
10
647.097510840613
20
365.800000000000
30
0.0
11
647.097510840613
21
359.200000000000
31
0.0
0
LINE
5
805
100
AcDbEntity
8
0-0
6
CONTINUOUS
62
7
100
AcDbLine
10
647.097510840613
20
359.200000000004
30
0.0
11
645.097510840613
21
359.200000000004
31
0.0
0
LINE
5
806
100
AcDbEntity
8
0-0
6
CONTINUOUS
62
7
100
AcDbLine
10
651.813211627496
20
359.447139406003
30
0.0
11
647.097510840623
21
359.200000000000
31
0.0
0
LINE
5
807
100
AcDbEntity
8
0-0
6
CONTINUOUS
62
7
100
AcDbLine
10
647.097510840623
20
360.047130379900
30
0.0
11
651.835167699247
21
360.646555646284
31
0.0
0
LINE
5
808
100
AcDbEntity
8
0-0
6
CONTINUOUS
62
7
100
AcDbLine
10
652.097510840623
20
360.511137234168
30
0.0
11
652.097510840623
21
359.746728266430
31
0.0
0
LINE
5
809
100
AcDbEntity
8
0-0
6
CONTINUOUS
62
7
100
AcDbLine
10
652.097510840623
20
360.944182864459
30
0.0
11
652.097510840623
21
364.055817135541
31
0.0
0
POLYLINE
5
80a
100
AcDbEntity
8
0-0
6
CONTINUOUS
62
  7
100
AcDb2dPolyline
66
1
10
0.0
20
0.0
30
0.0
70
0
0
VERTEX
5
80b
100
AcDbEntity
8
0-0
6
CONTINUOUS
62
  7
100
AcDbVertex
100
AcDb2dVertex
10
645.097510840613
20
355.350000000000
30
0.0
0
VERTEX
5
80c
100
AcDbEntity
8
0-0
6
CONTINUOUS
62
  7
100
AcDbVertex
100
AcDb2dVertex
10
646.097510840695
20
355.350000000000
30
0.0
0
VERTEX
5
80d
100
AcDbEntity
8
0-0
6
CONTINUOUS
62
  7
100
AcDbVertex
100
AcDb2dVertex
10
646.597510840695
20
354.850000000000
30
0.0
0
VERTEX
5
80e
100
AcDbEntity
8
0-0
6
CONTINUOUS
62
  7
100
AcDbVertex
100
AcDb2dVertex
10
646.597510840695
20
351.898299659777
30
0.0
0
SEQEND
5
80f
100
AcDbEntity
8
0-0
0
LINE
5
810
100
AcDbEntity
8
0-0
6
CONTINUOUS
62
7
100
AcDbLine
10
646.597510840695
20
351.898299659779
30
0.0
11
645.097510840695
21
351.898299659779
31
0.0
0
LINE
5
811
100
AcDbEntity
8
0-0
6
CONTINUOUS
62
7
100
AcDbLine
10
645.097510840695
20
352.399999999979
30
0.0
11
646.597510840695
21
352.399999999979
31
0.0
0
POLYLINE
5
812
100
AcDbEntity
8
0-0
6
CONTINUOUS
62
  7
100
AcDb2dPolyline
66
1
10
0.0
20
0.0
30
0.0
70
0
0
VERTEX
5
813
100
AcDbEntity
8
0-0
6
CONTINUOUS
62
  7
100
AcDbVertex
100
AcDb2dVertex
10
646.597510840695
20
354.106099404412
30
0.0
0
VERTEX
5
814
100
AcDbEntity
8
0-0
6
CONTINUOUS
62
  7
100
AcDbVertex
100
AcDb2dVertex
10
646.097510840695
20
354.857142243316
30
0.0
0
VERTEX
5
815
100
AcDbEntity
8
0-0
6
CONTINUOUS
62
  7
100
AcDbVertex
100
AcDb2dVertex
10
646.097510840695
20
355.350000000000
30
0.0
0
SEQEND
5
816
100
AcDbEntity
8
0-0
0
LINE
5
817
100
AcDbEntity
8
0-0
6
CONTINUOUS
62
7
100
AcDbLine
10
646.097510840695
20
354.857142243316
30
0.0
11
645.097510840613
21
354.857142243316
31
0.0
0
ARC
5
818
100
AcDbEntity
8
0-0
6
CONTINUOUS
62
7
100
AcDbCircle
10
643.097510840613
20
351.000000000000
30
0.0
40
1.000000000000
100
AcDbArc
50
180.000000000000
51
270.000000000000
0
ARC
5
819
100
AcDbEntity
8
0-0
6
CONTINUOUS
62
7
100
AcDbCircle
10
643.097510840613
20
369.000000000000
30
0.0
40
1.000000000000
100
AcDbArc
50
90.000000000000
51
180.000000000003
0
ARC
5
81a
100
AcDbEntity
8
0-0
6
CONTINUOUS
62
7
100
AcDbCircle
10
651.797510840623
20
364.055817135541
30
0.0
40
0.300000000000
100
AcDbArc
50
0.000000000000
51
82.789048599930
0
ARC
5
81b
100
AcDbEntity
8
0-0
6
CONTINUOUS
62
7
100
AcDbCircle
10
651.797510840623
20
360.944182864459
30
0.0
40
0.300000000000
100
AcDbArc
50
277.210951400068
51
360.000000000000
0
ARC
5
81c
100
AcDbEntity
8
0-0
6
CONTINUOUS
62
7
100
AcDbCircle
10
651.797510840623
20
365.253271733570
30
0.0
40
0.300000000000
100
AcDbArc
50
0.000000000000
51
87.000000000000
0
ARC
5
81d
100
AcDbEntity
8
0-0
6
CONTINUOUS
62
7
100
AcDbCircle
10
651.797510840623
20
359.746728266430
30
0.0
40
0.300000000000
100
AcDbArc
50
273.000000000000
51
360.000000000000
0
ARC
5
81e
100
AcDbEntity
8
0-0
6
CONTINUOUS
62
7
100
AcDbCircle
10
607.500000000000
20
362.500000000000
30
0.0
40
2.302650000000
100
AcDbArc
50
257.525810000000
51
282.474180000000
0
ARC
5
81f
100
AcDbEntity
8
0-0
6
CONTINUOUS
62
7
100
AcDbCircle
10
607.500000000000
20
362.500000000000
30
0.0
40
2.302650000000
100
AcDbArc
50
167.525720000000
51
192.474270000000
0
ARC
5
820
100
AcDbEntity
8
0-0
6
CONTINUOUS
62
7
100
AcDbCircle
10
607.500000000000
20
362.500000000000
30
0.0
40
2.302650000000
100
AcDbArc
50
77.525817000000
51
102.474180000000
0
ARC
5
821
100
AcDbEntity
8
0-0
6
CONTINUOUS
62
7
100
AcDbCircle
10
607.500000000000
20
362.500000000000
30
0.0
40
2.302650000000
100
AcDbArc
50
347.525720000000
51
372.474273000000
0
ARC
5
822
100
AcDbEntity
8
0-0
6
CONTINUOUS
62
7
100
AcDbCircle
10
606.265740000000
20
361.265760000000
30
0.0
40
0.736848000000
100
AcDbArc
50
0.000000000000
51
90.000000000000
0
ARC
5
823
100
AcDbEntity
8
0-0
6
CONTINUOUS
62
7
100
AcDbCircle
10
608.734220000000
20
361.265760000000
30
0.0
40
0.736848000000
100
AcDbArc
50
90.000000000000
51
180.000000000000
0
ARC
5
824
100
AcDbEntity
8
0-0
6
CONTINUOUS
62
7
100
AcDbCircle
10
608.734220000000
20
363.734190000000
30
0.0
40
0.736848000000
100
AcDbArc
50
180.000000000000
51
270.000000000000
0
ARC
5
825
100
AcDbEntity
8
0-0
6
CONTINUOUS
62
7
100
AcDbCircle
10
606.265740000000
20
363.734190000000
30
0.0
40
0.736848000000
100
AcDbArc
50
270.000000000000
51
360.000000000000
0
LINE
5
826
100
AcDbEntity
8
0-0
6
CONTINUOUS
62
7
100
AcDbLine
10
607.002580000000
20
360.251700000000
30
0.0
11
607.002580000000
21
361.265760000000
31
0.0
0
LINE
5
827
100
AcDbEntity
8
0-0
6
CONTINUOUS
62
7
100
AcDbLine
10
607.997380000000
20
361.265760000000
30
0.0
11
607.997380000000
21
360.251700000000
31
0.0
0
LINE
5
828
100
AcDbEntity
8
0-0
6
CONTINUOUS
62
7
100
AcDbLine
10
609.748260000000
20
362.002600000000
30
0.0
11
608.734220000000
21
362.002600000000
31
0.0
0
LINE
5
829
100
AcDbEntity
8
0-0
6
CONTINUOUS
62
7
100
AcDbLine
10
608.734220000000
20
362.997350000000
30
0.0
11
609.748260000000
21
362.997350000000
31
0.0
0
LINE
5
82a
100
AcDbEntity
8
0-0
6
CONTINUOUS
62
7
100
AcDbLine
10
607.997380000000
20
364.748300000000
30
0.0
11
607.997380000000
21
363.734190000000
31
0.0
0
LINE
5
82b
100
AcDbEntity
8
0-0
6
CONTINUOUS
62
7
100
AcDbLine
10
607.002580000000
20
363.734190000000
30
0.0
11
607.002580000000
21
364.748300000000
31
0.0
0
LINE
5
82c
100
AcDbEntity
8
0-0
6
CONTINUOUS
62
7
100
AcDbLine
10
606.265740000000
20
362.997350000000
30
0.0
11
605.251660000000
21
362.997350000000
31
0.0
0
LINE
5
82d
100
AcDbEntity
8
0-0
6
CONTINUOUS
62
7
100
AcDbLine
10
605.251660000000
20
362.002600000000
30
0.0
11
606.265740000000
21
362.002600000000
31
0.0
0
LINE
5
82e
100
AcDbEntity
8
0-0
6
CONTINUOUS
62
7
100
AcDbLine
10
610.000000000000
20
354.700000000000
30
0.0
11
610.000000000000
21
352.300000000000
31
0.0
0
ARC
5
82f
100
AcDbEntity
8
0-0
6
CONTINUOUS
62
7
100
AcDbCircle
10
610.300000000000
20
352.300000000000
30
0.0
40
0.300000000000
100
AcDbArc
50
180.000000000000
51
270.000000000000
0
ARC
5
830
100
AcDbEntity
8
0-0
6
CONTINUOUS
62
7
100
AcDbCircle
10
610.300000000000
20
354.700000000000
30
0.0
40
0.300000000000
100
AcDbArc
50
90.000000000000
51
180.000000000000
0
POLYLINE
5
831
100
AcDbEntity
8
0-0
6
CONTINUOUS
62
  7
100
AcDb2dPolyline
66
1
10
0.0
20
0.0
30
0.0
70
0
0
VERTEX
5
832
100
AcDbEntity
8
0-0
6
CONTINUOUS
62
  7
100
AcDbVertex
100
AcDb2dVertex
10
611.043777683123
20
352.873569179825
30
0.0
0
VERTEX
5
833
100
AcDbEntity
8
0-0
6
CONTINUOUS
62
  7
100
AcDbVertex
100
AcDb2dVertex
10
611.043777683123
20
354.551172485645
30
0.0
0
VERTEX
5
834
100
AcDbEntity
8
0-0
6
CONTINUOUS
62
  7
100
AcDbVertex
100
AcDb2dVertex
10
610.534672154723
20
354.551172485645
30
0.0
0
VERTEX
5
835
100
AcDbEntity
8
0-0
6
CONTINUOUS
62
  7
100
AcDbVertex
100
AcDb2dVertex
10
610.534672154723
20
352.509611243045
30
0.0
0
VERTEX
5
836
100
AcDbEntity
8
0-0
6
CONTINUOUS
62
  7
100
AcDbVertex
100
AcDb2dVertex
10
611.964014931038
20
352.509611243045
30
0.0
0
VERTEX
5
837
100
AcDbEntity
8
0-0
6
CONTINUOUS
62
  7
100
AcDbVertex
100
AcDb2dVertex
10
611.964014931038
20
352.873569179825
30
0.0
0
VERTEX
5
838
100
AcDbEntity
8
0-0
6
CONTINUOUS
62
  7
100
AcDbVertex
100
AcDb2dVertex
10
611.043777683123
20
352.873569179825
30
0.0
0
SEQEND
5
839
100
AcDbEntity
8
0-0
0
LINE
5
83a
100
AcDbEntity
8
0-0
6
CONTINUOUS
62
7
100
AcDbLine
10
615.610068711380
20
353.941458279125
30
0.0
11
615.089968065243
21
353.941458279125
31
0.0
0
LINE
5
83b
100
AcDbEntity
8
0-0
6
CONTINUOUS
62
7
100
AcDbLine
10
615.092498802319
20
353.205797659085
30
0.0
11
615.623488207781
21
353.205797659085
31
0.0
0
POLYLINE
5
83c
100
AcDbEntity
8
0-0
6
CONTINUOUS
62
  7
100
AcDb2dPolyline
66
1
10
0.0
20
0.0
30
0.0
70
0
0
VERTEX
5
83d
100
AcDbEntity
8
0-0
6
CONTINUOUS
62
  7
100
AcDbVertex
100
AcDb2dVertex
10
613.698564997633
20
353.372119156975
30
0.0
0
VERTEX
5
83e
100
AcDbEntity
8
0-0
6
CONTINUOUS
62
  7
100
AcDbVertex
100
AcDb2dVertex
10
613.698564997633
20
353.713770234955
30
0.0
0
VERTEX
5
83f
100
AcDbEntity
8
0-0
6
CONTINUOUS
62
  7
100
AcDbVertex
100
AcDb2dVertex
10
612.864111322656
20
353.713770234955
30
0.0
0
VERTEX
5
840
100
AcDbEntity
8
0-0
6
CONTINUOUS
62
  7
100
AcDbVertex
100
AcDb2dVertex
10
612.864111322656
20
354.187214548894
30
0.0
0
VERTEX
5
841
100
AcDbEntity
8
0-0
6
CONTINUOUS
62
  7
100
AcDbVertex
100
AcDb2dVertex
10
613.786526028760
20
354.187214548894
30
0.0
0
VERTEX
5
842
100
AcDbEntity
8
0-0
6
CONTINUOUS
62
  7
100
AcDbVertex
100
AcDb2dVertex
10
613.786526028760
20
354.551172485645
30
0.0
0
VERTEX
5
843
100
AcDbEntity
8
0-0
6
CONTINUOUS
62
  7
100
AcDbVertex
100
AcDb2dVertex
10
612.356811237216
20
354.551172485645
30
0.0
0
VERTEX
5
844
100
AcDbEntity
8
0-0
6
CONTINUOUS
62
  7
100
AcDbVertex
100
AcDb2dVertex
10
612.356811237216
20
352.509611243045
30
0.0
0
VERTEX
5
845
100
AcDbEntity
8
0-0
6
CONTINUOUS
62
  7
100
AcDbVertex
100
AcDb2dVertex
10
613.786526028760
20
352.509611243045
30
0.0
0
VERTEX
5
846
100
AcDbEntity
8
0-0
6
CONTINUOUS
62
  7
100
AcDbVertex
100
AcDb2dVertex
10
613.786526028760
20
352.873569179825
30
0.0
0
VERTEX
5
847
100
AcDbEntity
8
0-0
6
CONTINUOUS
62
  7
100
AcDbVertex
100
AcDb2dVertex
10
612.864111322656
20
352.873569179825
30
0.0
0
VERTEX
5
848
100
AcDbEntity
8
0-0
6
CONTINUOUS
62
  7
100
AcDbVertex
100
AcDb2dVertex
10
612.864111322656
20
353.372119156975
30
0.0
0
VERTEX
5
849
100
AcDbEntity
8
0-0
6
CONTINUOUS
62
  7
100
AcDbVertex
100
AcDb2dVertex
10
613.698564997633
20
353.372119156975
30
0.0
0
SEQEND
5
84a
100
AcDbEntity
8
0-0
0
ARC
5
84b
100
AcDbEntity
8
0-0
6
CONTINUOUS
62
7
100
AcDbCircle
10
616.558519495467
20
353.530391864345
30
0.0
40
2.398986344497
100
AcDbArc
50
164.216002475893
51
195.783997524107
0
ARC
5
84c
100
AcDbEntity
8
0-0
6
CONTINUOUS
62
7
100
AcDbCircle
10
620.795690093433
20
353.530391864341
30
0.0
40
6.092738949811
100
AcDbArc
50
176.789190081973
51
183.210809918027
0
ARC
5
84d
100
AcDbEntity
8
0-0
6
CONTINUOUS
62
7
100
AcDbCircle
10
614.790609975918
20
353.065238192152
30
0.0
40
0.572178966339
100
AcDbArc
50
199.118120314094
51
253.770896322251
0
ARC
5
84e
100
AcDbEntity
8
0-0
6
CONTINUOUS
62
7
100
AcDbCircle
10
614.902541180461
20
353.584735672748
30
0.0
40
1.102902967963
100
AcDbArc
50
255.730707223577
51
284.269292776423
0
ARC
5
84f
100
AcDbEntity
8
0-0
6
CONTINUOUS
62
7
100
AcDbCircle
10
615.014472385002
20
353.065238192152
30
0.0
40
0.572178966339
100
AcDbArc
50
286.229103677749
51
340.881879685906
0
ARC
5
850
100
AcDbEntity
8
0-0
6
CONTINUOUS
62
7
100
AcDbCircle
10
613.246562865454
20
353.530391864345
30
0.0
40
2.398986344497
100
AcDbArc
50
344.216002475893
51
352.223758552802
0
ARC
5
851
100
AcDbEntity
8
0-0
6
CONTINUOUS
62
7
100
AcDbCircle
10
614.902541180461
20
352.997740719942
30
0.0
40
0.165862986421
100
AcDbArc
50
198.780934832589
51
341.219065167411
0
ARC
5
852
100
AcDbEntity
8
0-0
6
CONTINUOUS
62
7
100
AcDbCircle
10
614.166332587189
20
353.189630145232
30
0.0
40
0.926307317553
100
AcDbArc
50
344.644741742154
51
361.000075600875
0
ARC
5
853
100
AcDbEntity
8
0-0
6
CONTINUOUS
62
7
100
AcDbCircle
10
615.638749773732
20
353.189630145232
30
0.0
40
0.926307317553
100
AcDbArc
50
179.280775692595
51
195.355258257846
0
ARC
5
854
100
AcDbEntity
8
0-0
6
CONTINUOUS
62
7
100
AcDbCircle
10
614.902541180461
20
354.063043008749
30
0.0
40
0.165862986421
100
AcDbArc
50
18.780934832589
51
161.219065167411
0
ARC
5
855
100
AcDbEntity
8
0-0
6
CONTINUOUS
62
7
100
AcDbCircle
10
615.638749773732
20
353.871153583459
30
0.0
40
0.926307317553
100
AcDbArc
50
164.644741742154
51
180.719224307405
0
ARC
5
856
100
AcDbEntity
8
0-0
6
CONTINUOUS
62
7
100
AcDbCircle
10
614.166332587189
20
353.871153583459
30
0.0
40
0.926307317553
100
AcDbArc
50
4.352810002801
51
15.355258257846
0
ARC
5
857
100
AcDbEntity
8
0-0
6
CONTINUOUS
62
7
100
AcDbCircle
10
615.014472385002
20
353.995545536538
30
0.0
40
0.572178966339
100
AcDbArc
50
19.118120314094
51
73.770896322251
0
ARC
5
858
100
AcDbEntity
8
0-0
6
CONTINUOUS
62
7
100
AcDbCircle
10
613.246562865454
20
353.530391864345
30
0.0
40
2.398986344497
100
AcDbArc
50
9.866322719821
51
15.783997524107
0
ARC
5
859
100
AcDbEntity
8
0-0
6
CONTINUOUS
62
7
100
AcDbCircle
10
614.902541180461
20
353.476048055943
30
0.0
40
1.102902967963
100
AcDbArc
50
75.730707223577
51
104.269292776423
0
ARC
5
85a
100
AcDbEntity
8
0-0
6
CONTINUOUS
62
7
100
AcDbCircle
10
614.790609975918
20
353.995545536538
30
0.0
40
0.572178966339
100
AcDbArc
50
106.229103677749
51
160.881879685906
0
ARC
5
85b
100
AcDbEntity
8
0-0
6
CONTINUOUS
62
7
100
AcDbCircle
10
618.347811795496
20
353.530391864345
30
0.0
40
2.398986344497
100
AcDbArc
50
164.216002475893
51
195.783997524107
0
ARC
5
85c
100
AcDbEntity
8
0-0
6
CONTINUOUS
62
7
100
AcDbCircle
10
622.584982393463
20
353.530391864341
30
0.0
40
6.092738949811
100
AcDbArc
50
176.789190081973
51
183.210809918027
0
ARC
5
85d
100
AcDbEntity
8
0-0
6
CONTINUOUS
62
7
100
AcDbCircle
10
610.798684567517
20
353.530391864341
30
0.0
40
6.092738949811
100
AcDbArc
50
356.789190081973
51
363.210809918027
0
ARC
5
85e
100
AcDbEntity
8
0-0
6
CONTINUOUS
62
7
100
AcDbCircle
10
616.691833480490
20
352.997740719942
30
0.0
40
0.165862986421
100
AcDbArc
50
198.780934832589
51
341.219065167411
0
ARC
5
85f
100
AcDbEntity
8
0-0
6
CONTINUOUS
62
7
100
AcDbCircle
10
616.691833480490
20
353.584735672748
30
0.0
40
1.102902967963
100
AcDbArc
50
255.730707223577
51
284.269292776423
0
ARC
5
860
100
AcDbEntity
8
0-0
6
CONTINUOUS
62
7
100
AcDbCircle
10
616.803764685032
20
353.065238192152
30
0.0
40
0.572178966339
100
AcDbArc
50
286.229103677749
51
340.881879685906
0
ARC
5
861
100
AcDbEntity
8
0-0
6
CONTINUOUS
62
7
100
AcDbCircle
10
616.579902275948
20
353.065238192152
30
0.0
40
0.572178966339
100
AcDbArc
50
199.118120314094
51
253.770896322251
0
ARC
5
862
100
AcDbEntity
8
0-0
6
CONTINUOUS
62
7
100
AcDbCircle
10
615.035855165484
20
353.530391864345
30
0.0
40
2.398986344497
100
AcDbArc
50
344.216002475893
51
375.783997524107
0
ARC
5
863
100
AcDbEntity
8
0-0
6
CONTINUOUS
62
7
100
AcDbCircle
10
615.955624887218
20
353.189630145232
30
0.0
40
0.926307317553
100
AcDbArc
50
344.644741742154
51
360.719224307405
0
ARC
5
864
100
AcDbEntity
8
0-0
6
CONTINUOUS
62
7
100
AcDbCircle
10
617.428042073761
20
353.189630145232
30
0.0
40
0.926307317553
100
AcDbArc
50
179.280775692595
51
195.355258257846
0
ARC
5
865
100
AcDbEntity
8
0-0
6
CONTINUOUS
62
7
100
AcDbCircle
10
617.428042073761
20
353.871153583459
30
0.0
40
0.926307317553
100
AcDbArc
50
164.644741742154
51
180.719224307405
0
ARC
5
866
100
AcDbEntity
8
0-0
6
CONTINUOUS
62
7
100
AcDbCircle
10
616.691833480490
20
354.063043008749
30
0.0
40
0.165862986421
100
AcDbArc
50
18.780934832589
51
161.219065167411
0
ARC
5
867
100
AcDbEntity
8
0-0
6
CONTINUOUS
62
7
100
AcDbCircle
10
615.955624887218
20
353.871153583459
30
0.0
40
0.926307317553
100
AcDbArc
50
359.280775692595
51
375.355258257846
0
ARC
5
868
100
AcDbEntity
8
0-0
6
CONTINUOUS
62
7
100
AcDbCircle
10
616.691833480490
20
353.476048055943
30
0.0
40
1.102902967963
100
AcDbArc
50
75.730707223577
51
104.269292776423
0
ARC
5
869
100
AcDbEntity
8
0-0
6
CONTINUOUS
62
7
100
AcDbCircle
10
616.579902275948
20
353.995545536538
30
0.0
40
0.572178966339
100
AcDbArc
50
106.229103677749
51
160.881879685906
0
ARC
5
86a
100
AcDbEntity
8
0-0
6
CONTINUOUS
62
7
100
AcDbCircle
10
616.803764685032
20
353.995545536538
30
0.0
40
0.572178966339
100
AcDbArc
50
19.118120314094
51
73.770896322251
0
TEXT
5
86b
100
AcDbEntity
8
0-0
62
7
370
-3
100
AcDbText
10
598.998
20
342.016
30
0.0
40
3.618
1
EP20
41
0.385
50
0.000
100
AcDbText
0
POLYLINE
5
86c
100
AcDbEntity
8
0-0
6
CONTINUOUS
62
  7
100
AcDb2dPolyline
66
1
10
0.0
20
0.0
30
0.0
70
0
0
VERTEX
5
86d
100
AcDbEntity
8
0-0
6
CONTINUOUS
62
  7
100
AcDbVertex
100
AcDb2dVertex
10
481.443770000000
20
354.151170000000
30
0.0
0
VERTEX
5
86e
100
AcDbEntity
8
0-0
6
CONTINUOUS
62
  7
100
AcDbVertex
100
AcDb2dVertex
10
480.934670000000
20
354.151170000000
30
0.0
0
VERTEX
5
86f
100
AcDbEntity
8
0-0
6
CONTINUOUS
62
  7
100
AcDbVertex
100
AcDb2dVertex
10
480.934670000000
20
352.109610000000
30
0.0
0
VERTEX
5
870
100
AcDbEntity
8
0-0
6
CONTINUOUS
62
  7
100
AcDbVertex
100
AcDb2dVertex
10
482.364010000000
20
352.109610000000
30
0.0
0
VERTEX
5
871
100
AcDbEntity
8
0-0
6
CONTINUOUS
62
  7
100
AcDbVertex
100
AcDb2dVertex
10
482.364010000000
20
352.473560000000
30
0.0
0
VERTEX
5
872
100
AcDbEntity
8
0-0
6
CONTINUOUS
62
  7
100
AcDbVertex
100
AcDb2dVertex
10
481.443770000000
20
352.473560000000
30
0.0
0
VERTEX
5
873
100
AcDbEntity
8
0-0
6
CONTINUOUS
62
  7
100
AcDbVertex
100
AcDb2dVertex
10
481.443770000000
20
354.151170000000
30
0.0
0
SEQEND
5
874
100
AcDbEntity
8
0-0
0
LINE
5
875
100
AcDbEntity
8
0-0
6
CONTINUOUS
62
7
100
AcDbLine
10
480.700000000000
20
354.600000000000
30
0.0
11
488.100000000000
21
354.600000000000
31
0.0
0
LINE
5
876
100
AcDbEntity
8
0-0
6
CONTINUOUS
62
7
100
AcDbLine
10
488.400000000000
20
354.300000000000
30
0.0
11
488.400000000000
21
351.900000000000
31
0.0
0
LINE
5
877
100
AcDbEntity
8
0-0
6
CONTINUOUS
62
7
100
AcDbLine
10
488.100000000000
20
351.600000000000
30
0.0
11
480.700000000000
21
351.600000000000
31
0.0
0
LINE
5
878
100
AcDbEntity
8
0-0
6
CONTINUOUS
62
7
100
AcDbLine
10
480.400000000000
20
351.900000000000
30
0.0
11
480.400000000000
21
354.300000000000
31
0.0
0
POLYLINE
5
879
100
AcDbEntity
8
0-0
6
CONTINUOUS
62
  7
100
AcDb2dPolyline
66
1
10
0.0
20
0.0
30
0.0
70
0
0
VERTEX
5
87a
100
AcDbEntity
8
0-0
6
CONTINUOUS
62
  7
100
AcDbVertex
100
AcDb2dVertex
10
482.756810000000
20
354.151170000000
30
0.0
0
VERTEX
5
87b
100
AcDbEntity
8
0-0
6
CONTINUOUS
62
  7
100
AcDbVertex
100
AcDb2dVertex
10
484.186520000000
20
354.151170000000
30
0.0
0
VERTEX
5
87c
100
AcDbEntity
8
0-0
6
CONTINUOUS
62
  7
100
AcDbVertex
100
AcDb2dVertex
10
484.186520000000
20
353.787210000000
30
0.0
0
VERTEX
5
87d
100
AcDbEntity
8
0-0
6
CONTINUOUS
62
  7
100
AcDbVertex
100
AcDb2dVertex
10
483.264110000000
20
353.787210000000
30
0.0
0
VERTEX
5
87e
100
AcDbEntity
8
0-0
6
CONTINUOUS
62
  7
100
AcDbVertex
100
AcDb2dVertex
10
483.264110000000
20
353.313770000000
30
0.0
0
VERTEX
5
87f
100
AcDbEntity
8
0-0
6
CONTINUOUS
62
  7
100
AcDbVertex
100
AcDb2dVertex
10
484.098560000000
20
353.313770000000
30
0.0
0
VERTEX
5
880
100
AcDbEntity
8
0-0
6
CONTINUOUS
62
  7
100
AcDbVertex
100
AcDb2dVertex
10
484.098560000000
20
352.972110000000
30
0.0
0
VERTEX
5
881
100
AcDbEntity
8
0-0
6
CONTINUOUS
62
  7
100
AcDbVertex
100
AcDb2dVertex
10
483.264110000000
20
352.972110000000
30
0.0
0
VERTEX
5
882
100
AcDbEntity
8
0-0
6
CONTINUOUS
62
  7
100
AcDbVertex
100
AcDb2dVertex
10
483.264110000000
20
352.473560000000
30
0.0
0
VERTEX
5
883
100
AcDbEntity
8
0-0
6
CONTINUOUS
62
  7
100
AcDbVertex
100
AcDb2dVertex
10
484.186520000000
20
352.473560000000
30
0.0
0
VERTEX
5
884
100
AcDbEntity
8
0-0
6
CONTINUOUS
62
  7
100
AcDbVertex
100
AcDb2dVertex
10
484.186520000000
20
352.109610000000
30
0.0
0
VERTEX
5
885
100
AcDbEntity
8
0-0
6
CONTINUOUS
62
  7
100
AcDbVertex
100
AcDb2dVertex
10
482.756810000000
20
352.109610000000
30
0.0
0
VERTEX
5
886
100
AcDbEntity
8
0-0
6
CONTINUOUS
62
  7
100
AcDbVertex
100
AcDb2dVertex
10
482.756810000000
20
354.151170000000
30
0.0
0
SEQEND
5
887
100
AcDbEntity
8
0-0
0
LINE
5
888
100
AcDbEntity
8
0-0
6
CONTINUOUS
62
7
100
AcDbLine
10
485.489959999999
20
353.541450000000
30
0.0
11
486.010070000000
21
353.541450000000
31
0.0
0
LINE
5
889
100
AcDbEntity
8
0-0
6
CONTINUOUS
62
7
100
AcDbLine
10
486.023480000000
20
352.805790000000
30
0.0
11
485.492500000000
21
352.805790000000
31
0.0
0
LINE
5
88a
100
AcDbEntity
8
0-0
6
CONTINUOUS
62
7
100
AcDbLine
10
489.000000000000
20
365.000000000000
30
0.0
11
451.000000000000
21
365.000000000000
31
0.0
0
LINE
5
88b
100
AcDbEntity
8
0-0
6
CONTINUOUS
62
7
100
AcDbLine
10
450.000000000000
20
364.000000000000
30
0.0
11
450.000000000000
21
351.000000000000
31
0.0
0
LINE
5
88c
100
AcDbEntity
8
0-0
6
CONTINUOUS
62
7
100
AcDbLine
10
451.000000000000
20
350.000000000000
30
0.0
11
489.000000000000
21
350.000000000000
31
0.0
0
LINE
5
88d
100
AcDbEntity
8
0-0
6
CONTINUOUS
62
7
100
AcDbLine
10
490.000000000000
20
351.000000000000
30
0.0
11
490.000000000000
21
364.000000000000
31
0.0
0
LINE
5
88e
100
AcDbEntity
8
0-0
6
CONTINUOUS
62
7
100
AcDbLine
10
477.997390000000
20
359.748310000000
30
0.0
11
477.997390000000
21
358.734200000000
31
0.0
0
LINE
5
88f
100
AcDbEntity
8
0-0
6
CONTINUOUS
62
7
100
AcDbLine
10
477.002590000000
20
358.734200000000
30
0.0
11
477.002590000000
21
359.748310000000
31
0.0
0
LINE
5
890
100
AcDbEntity
8
0-0
6
CONTINUOUS
62
7
100
AcDbLine
10
476.265750000000
20
357.997360000000
30
0.0
11
475.251670000000
21
357.997360000000
31
0.0
0
LINE
5
891
100
AcDbEntity
8
0-0
6
CONTINUOUS
62
7
100
AcDbLine
10
475.251670000000
20
357.002610000000
30
0.0
11
476.265750000000
21
357.002610000000
31
0.0
0
LINE
5
892
100
AcDbEntity
8
0-0
6
CONTINUOUS
62
7
100
AcDbLine
10
477.002590000000
20
356.265770000000
30
0.0
11
477.002590000000
21
355.251710000000
31
0.0
0
LINE
5
893
100
AcDbEntity
8
0-0
6
CONTINUOUS
62
7
100
AcDbLine
10
477.997390000000
20
355.251710000000
30
0.0
11
477.997390000000
21
356.265770000000
31
0.0
0
LINE
5
894
100
AcDbEntity
8
0-0
6
CONTINUOUS
62
7
100
AcDbLine
10
478.734230000000
20
357.002610000000
30
0.0
11
479.748270000000
21
357.002610000000
31
0.0
0
LINE
5
895
100
AcDbEntity
8
0-0
6
CONTINUOUS
62
7
100
AcDbLine
10
479.748270000000
20
357.997360000000
30
0.0
11
478.734230000000
21
357.997360000000
31
0.0
0
LINE
5
896
100
AcDbEntity
8
0-0
6
CONTINUOUS
62
7
100
AcDbLine
10
464.748270000000
20
357.997360000000
30
0.0
11
463.734230000000
21
357.997360000000
31
0.0
0
LINE
5
897
100
AcDbEntity
8
0-0
6
CONTINUOUS
62
7
100
AcDbLine
10
463.734230000000
20
357.002610000000
30
0.0
11
464.748270000000
21
357.002610000000
31
0.0
0
LINE
5
898
100
AcDbEntity
8
0-0
6
CONTINUOUS
62
7
100
AcDbLine
10
462.997390000000
20
356.265770000000
30
0.0
11
462.997390000000
21
355.251710000000
31
0.0
0
LINE
5
899
100
AcDbEntity
8
0-0
6
CONTINUOUS
62
7
100
AcDbLine
10
462.002590000000
20
355.251710000000
30
0.0
11
462.002590000000
21
356.265770000000
31
0.0
0
LINE
5
89a
100
AcDbEntity
8
0-0
6
CONTINUOUS
62
7
100
AcDbLine
10
461.265750000000
20
357.002610000000
30
0.0
11
460.251670000000
21
357.002610000000
31
0.0
0
LINE
5
89b
100
AcDbEntity
8
0-0
6
CONTINUOUS
62
7
100
AcDbLine
10
460.251670000000
20
357.997360000000
30
0.0
11
461.265750000000
21
357.997360000000
31
0.0
0
LINE
5
89c
100
AcDbEntity
8
0-0
6
CONTINUOUS
62
7
100
AcDbLine
10
462.002590000000
20
358.734200000000
30
0.0
11
462.002590000000
21
359.748310000000
31
0.0
0
LINE
5
89d
100
AcDbEntity
8
0-0
6
CONTINUOUS
62
7
100
AcDbLine
10
462.997390000000
20
359.748310000000
30
0.0
11
462.997390000000
21
358.734200000000
31
0.0
0
LINE
5
89e
100
AcDbEntity
8
0-0
6
CONTINUOUS
62
7
100
AcDbLine
10
520.961627351734
20
364.000000000000
30
0.0
11
520.961627351734
21
351.000000000000
31
0.0
0
LINE
5
89f
100
AcDbEntity
8
0-0
6
CONTINUOUS
62
7
100
AcDbLine
10
521.961627351734
20
350.000000000000
30
0.0
11
523.961627351734
21
350.000000000000
31
0.0
0
LINE
5
8a0
100
AcDbEntity
8
0-0
6
CONTINUOUS
62
7
100
AcDbLine
10
523.961627351734
20
365.000000000000
30
0.0
11
521.961627351734
21
365.000000000000
31
0.0
0
ARC
5
8a1
100
AcDbEntity
8
0-0
6
CONTINUOUS
62
7
100
AcDbCircle
10
486.958520000000
20
353.130390000000
30
0.0
40
2.398986300000
100
AcDbArc
50
164.216000000000
51
195.783990000000
0
ARC
5
8a2
100
AcDbEntity
8
0-0
6
CONTINUOUS
62
7
100
AcDbCircle
10
491.195690000000
20
353.130390000000
30
0.0
40
6.092738900000
100
AcDbArc
50
176.789190000000
51
183.210800000000
0
ARC
5
8a3
100
AcDbEntity
8
0-0
6
CONTINUOUS
62
7
100
AcDbCircle
10
485.190610000000
20
352.665230000000
30
0.0
40
0.572178900000
100
AcDbArc
50
199.118120000000
51
253.770890000000
0
ARC
5
8a4
100
AcDbEntity
8
0-0
6
CONTINUOUS
62
7
100
AcDbCircle
10
485.302540000000
20
353.184730000000
30
0.0
40
1.102902900000
100
AcDbArc
50
255.730700000000
51
284.269290000000
0
ARC
5
8a5
100
AcDbEntity
8
0-0
6
CONTINUOUS
62
7
100
AcDbCircle
10
485.414470000000
20
352.665230000000
30
0.0
40
0.572178900000
100
AcDbArc
50
286.229100000000
51
340.881870000000
0
ARC
5
8a6
100
AcDbEntity
8
0-0
6
CONTINUOUS
62
7
100
AcDbCircle
10
483.646560000000
20
353.130390000000
30
0.0
40
2.398986300000
100
AcDbArc
50
344.216000000000
51
352.223750000000
0
ARC
5
8a7
100
AcDbEntity
8
0-0
6
CONTINUOUS
62
7
100
AcDbCircle
10
485.302540000000
20
352.597740000000
30
0.0
40
0.165862900000
100
AcDbArc
50
198.780930000000
51
341.219060000000
0
ARC
5
8a8
100
AcDbEntity
8
0-0
6
CONTINUOUS
62
7
100
AcDbCircle
10
484.566330000000
20
352.789630000000
30
0.0
40
0.926307300000
100
AcDbArc
50
344.644740000000
51
361.000075600000
0
ARC
5
8a9
100
AcDbEntity
8
0-0
6
CONTINUOUS
62
7
100
AcDbCircle
10
486.038750000000
20
352.789630000000
30
0.0
40
0.926307300000
100
AcDbArc
50
179.280770000000
51
195.355250000000
0
ARC
5
8aa
100
AcDbEntity
8
0-0
6
CONTINUOUS
62
7
100
AcDbCircle
10
485.302540000000
20
353.663040000000
30
0.0
40
0.165862900000
100
AcDbArc
50
18.780934000000
51
161.219060000000
0
ARC
5
8ab
100
AcDbEntity
8
0-0
6
CONTINUOUS
62
7
100
AcDbCircle
10
486.038750000000
20
353.471150000000
30
0.0
40
0.926307300000
100
AcDbArc
50
164.644740000000
51
180.719220000000
0
ARC
5
8ac
100
AcDbEntity
8
0-0
6
CONTINUOUS
62
7
100
AcDbCircle
10
484.566330000000
20
353.471150000000
30
0.0
40
0.926307300000
100
AcDbArc
50
4.352810000000
51
15.355258000000
0
ARC
5
8ad
100
AcDbEntity
8
0-0
6
CONTINUOUS
62
7
100
AcDbCircle
10
485.414470000000
20
353.595540000000
30
0.0
40
0.572178900000
100
AcDbArc
50
19.118120000000
51
73.770896000000
0
ARC
5
8ae
100
AcDbEntity
8
0-0
6
CONTINUOUS
62
7
100
AcDbCircle
10
483.646560000000
20
353.130390000000
30
0.0
40
2.398986300000
100
AcDbArc
50
9.866322700000
51
15.783997000000
0
ARC
5
8af
100
AcDbEntity
8
0-0
6
CONTINUOUS
62
7
100
AcDbCircle
10
485.302540000000
20
353.076040000000
30
0.0
40
1.102902900000
100
AcDbArc
50
75.730707000000
51
104.269290000000
0
ARC
5
8b0
100
AcDbEntity
8
0-0
6
CONTINUOUS
62
7
100
AcDbCircle
10
485.190610000000
20
353.595540000000
30
0.0
40
0.572178900000
100
AcDbArc
50
106.229100000000
51
160.881870000000
0
ARC
5
8b1
100
AcDbEntity
8
0-0
6
CONTINUOUS
62
7
100
AcDbCircle
10
488.747810000000
20
353.130390000000
30
0.0
40
2.398986300000
100
AcDbArc
50
164.216000000000
51
195.783990000000
0
ARC
5
8b2
100
AcDbEntity
8
0-0
6
CONTINUOUS
62
7
100
AcDbCircle
10
492.984980000000
20
353.130390000000
30
0.0
40
6.092738900000
100
AcDbArc
50
176.789190000000
51
183.210800000000
0
ARC
5
8b3
100
AcDbEntity
8
0-0
6
CONTINUOUS
62
7
100
AcDbCircle
10
481.198680000000
20
353.130390000000
30
0.0
40
6.092738900000
100
AcDbArc
50
356.789190000000
51
363.210809900000
0
ARC
5
8b4
100
AcDbEntity
8
0-0
6
CONTINUOUS
62
7
100
AcDbCircle
10
487.091830000000
20
352.597740000000
30
0.0
40
0.165862900000
100
AcDbArc
50
198.780930000000
51
341.219060000000
0
ARC
5
8b5
100
AcDbEntity
8
0-0
6
CONTINUOUS
62
7
100
AcDbCircle
10
487.091830000000
20
353.184730000000
30
0.0
40
1.102902900000
100
AcDbArc
50
255.730700000000
51
284.269290000000
0
ARC
5
8b6
100
AcDbEntity
8
0-0
6
CONTINUOUS
62
7
100
AcDbCircle
10
487.203760000000
20
352.665230000000
30
0.0
40
0.572178900000
100
AcDbArc
50
286.229100000000
51
340.881870000000
0
ARC
5
8b7
100
AcDbEntity
8
0-0
6
CONTINUOUS
62
7
100
AcDbCircle
10
486.979900000000
20
352.665230000000
30
0.0
40
0.572178900000
100
AcDbArc
50
199.118120000000
51
253.770890000000
0
ARC
5
8b8
100
AcDbEntity
8
0-0
6
CONTINUOUS
62
7
100
AcDbCircle
10
485.435850000000
20
353.130390000000
30
0.0
40
2.398986300000
100
AcDbArc
50
344.216000000000
51
375.783997000000
0
ARC
5
8b9
100
AcDbEntity
8
0-0
6
CONTINUOUS
62
7
100
AcDbCircle
10
486.355620000000
20
352.789630000000
30
0.0
40
0.926307300000
100
AcDbArc
50
344.644740000000
51
360.719224300000
0
ARC
5
8ba
100
AcDbEntity
8
0-0
6
CONTINUOUS
62
7
100
AcDbCircle
10
487.828040000000
20
352.789630000000
30
0.0
40
0.926307300000
100
AcDbArc
50
179.280770000000
51
195.355250000000
0
ARC
5
8bb
100
AcDbEntity
8
0-0
6
CONTINUOUS
62
7
100
AcDbCircle
10
487.828040000000
20
353.471150000000
30
0.0
40
0.926307300000
100
AcDbArc
50
164.644740000000
51
180.719220000000
0
ARC
5
8bc
100
AcDbEntity
8
0-0
6
CONTINUOUS
62
7
100
AcDbCircle
10
487.091830000000
20
353.663040000000
30
0.0
40
0.165862900000
100
AcDbArc
50
18.780934000000
51
161.219060000000
0
ARC
5
8bd
100
AcDbEntity
8
0-0
6
CONTINUOUS
62
7
100
AcDbCircle
10
486.355620000000
20
353.471150000000
30
0.0
40
0.926307300000
100
AcDbArc
50
359.280770000000
51
375.355258000000
0
ARC
5
8be
100
AcDbEntity
8
0-0
6
CONTINUOUS
62
7
100
AcDbCircle
10
487.091830000000
20
353.076040000000
30
0.0
40
1.102902900000
100
AcDbArc
50
75.730707000000
51
104.269290000000
0
ARC
5
8bf
100
AcDbEntity
8
0-0
6
CONTINUOUS
62
7
100
AcDbCircle
10
486.979900000000
20
353.595540000000
30
0.0
40
0.572178900000
100
AcDbArc
50
106.229100000000
51
160.881870000000
0
ARC
5
8c0
100
AcDbEntity
8
0-0
6
CONTINUOUS
62
7
100
AcDbCircle
10
487.203760000000
20
353.595540000000
30
0.0
40
0.572178900000
100
AcDbArc
50
19.118120000000
51
73.770896000000
0
ARC
5
8c1
100
AcDbEntity
8
0-0
6
CONTINUOUS
62
7
100
AcDbCircle
10
480.700000000000
20
351.900000000000
30
0.0
40
0.300000000000
100
AcDbArc
50
180.000000000000
51
270.000000000000
0
ARC
5
8c2
100
AcDbEntity
8
0-0
6
CONTINUOUS
62
7
100
AcDbCircle
10
480.700000000000
20
354.300000000000
30
0.0
40
0.300000000000
100
AcDbArc
50
90.000000000000
51
180.000000000000
0
ARC
5
8c3
100
AcDbEntity
8
0-0
6
CONTINUOUS
62
7
100
AcDbCircle
10
488.100000000000
20
354.300000000000
30
0.0
40
0.300000000000
100
AcDbArc
50
0.000000000000
51
90.000000000000
0
ARC
5
8c4
100
AcDbEntity
8
0-0
6
CONTINUOUS
62
7
100
AcDbCircle
10
488.100000000000
20
351.900000000000
30
0.0
40
0.300000000000
100
AcDbArc
50
270.000000000000
51
360.000000000000
0
ARC
5
8c5
100
AcDbEntity
8
0-0
6
CONTINUOUS
62
7
100
AcDbCircle
10
451.000000000000
20
364.000000000000
30
0.0
40
1.000000000000
100
AcDbArc
50
90.000000000000
51
180.000000000000
0
ARC
5
8c6
100
AcDbEntity
8
0-0
6
CONTINUOUS
62
7
100
AcDbCircle
10
451.000000000000
20
351.000000000000
30
0.0
40
1.000000000000
100
AcDbArc
50
180.000000000000
51
270.000000000000
0
ARC
5
8c7
100
AcDbEntity
8
0-0
6
CONTINUOUS
62
7
100
AcDbCircle
10
489.000000000000
20
364.000000000000
30
0.0
40
1.000000000000
100
AcDbArc
50
0.000000000000
51
90.000000000000
0
ARC
5
8c8
100
AcDbEntity
8
0-0
6
CONTINUOUS
62
7
100
AcDbCircle
10
489.000000000000
20
351.000000000000
30
0.0
40
1.000000000000
100
AcDbArc
50
270.000000000000
51
360.000000000000
0
CIRCLE
5
8c9
100
AcDbEntity
8
0-0
6
CONTINUOUS
62
7
100
AcDbCircle
10
462.500000000000
20
357.500000000000
30
0.0
40
3.550000000000
0
ARC
5
8ca
100
AcDbEntity
8
0-0
6
CONTINUOUS
62
7
100
AcDbCircle
10
461.265750000000
20
358.734200000000
30
0.0
40
0.736848000000
100
AcDbArc
50
270.000000000000
51
360.000000000000
0
ARC
5
8cb
100
AcDbEntity
8
0-0
6
CONTINUOUS
62
7
100
AcDbCircle
10
463.734230000000
20
358.734200000000
30
0.0
40
0.736848000000
100
AcDbArc
50
180.000000000000
51
270.000000000000
0
ARC
5
8cc
100
AcDbEntity
8
0-0
6
CONTINUOUS
62
7
100
AcDbCircle
10
463.734230000000
20
356.265770000000
30
0.0
40
0.736848000000
100
AcDbArc
50
90.000000000000
51
180.000000000000
0
ARC
5
8cd
100
AcDbEntity
8
0-0
6
CONTINUOUS
62
7
100
AcDbCircle
10
461.265750000000
20
356.265770000000
30
0.0
40
0.736848000000
100
AcDbArc
50
0.000000000000
51
90.000000000000
0
ARC
5
8ce
100
AcDbEntity
8
0-0
6
CONTINUOUS
62
7
100
AcDbCircle
10
462.500010000000
20
357.500010000000
30
0.0
40
2.302650000000
100
AcDbArc
50
347.525720000000
51
372.474273000000
0
ARC
5
8cf
100
AcDbEntity
8
0-0
6
CONTINUOUS
62
7
100
AcDbCircle
10
462.500010000000
20
357.500010000000
30
0.0
40
2.302650000000
100
AcDbArc
50
77.525817000000
51
102.474180000000
0
ARC
5
8d0
100
AcDbEntity
8
0-0
6
CONTINUOUS
62
7
100
AcDbCircle
10
462.500010000000
20
357.500010000000
30
0.0
40
2.302650000000
100
AcDbArc
50
167.525720000000
51
192.474270000000
0
ARC
5
8d1
100
AcDbEntity
8
0-0
6
CONTINUOUS
62
7
100
AcDbCircle
10
462.500010000000
20
357.500010000000
30
0.0
40
2.302650000000
100
AcDbArc
50
257.525810000000
51
282.474180000000
0
CIRCLE
5
8d2
100
AcDbEntity
8
0-0
6
CONTINUOUS
62
7
100
AcDbCircle
10
477.500000000000
20
357.500000000000
30
0.0
40
3.550000000000
0
ARC
5
8d3
100
AcDbEntity
8
0-0
6
CONTINUOUS
62
7
100
AcDbCircle
10
476.265750000000
20
358.734200000000
30
0.0
40
0.736848000000
100
AcDbArc
50
270.000000000000
51
360.000000000000
0
ARC
5
8d4
100
AcDbEntity
8
0-0
6
CONTINUOUS
62
7
100
AcDbCircle
10
478.734230000000
20
358.734200000000
30
0.0
40
0.736848000000
100
AcDbArc
50
180.000000000000
51
270.000000000000
0
ARC
5
8d5
100
AcDbEntity
8
0-0
6
CONTINUOUS
62
7
100
AcDbCircle
10
478.734230000000
20
356.265770000000
30
0.0
40
0.736848000000
100
AcDbArc
50
90.000000000000
51
180.000000000000
0
ARC
5
8d6
100
AcDbEntity
8
0-0
6
CONTINUOUS
62
7
100
AcDbCircle
10
476.265750000000
20
356.265770000000
30
0.0
40
0.736848000000
100
AcDbArc
50
0.000000000000
51
90.000000000000
0
ARC
5
8d7
100
AcDbEntity
8
0-0
6
CONTINUOUS
62
7
100
AcDbCircle
10
477.500010000000
20
357.500010000000
30
0.0
40
2.302650000000
100
AcDbArc
50
347.525720000000
51
372.474273000000
0
ARC
5
8d8
100
AcDbEntity
8
0-0
6
CONTINUOUS
62
7
100
AcDbCircle
10
477.500010000000
20
357.500010000000
30
0.0
40
2.302650000000
100
AcDbArc
50
77.525817000000
51
102.474180000000
0
ARC
5
8d9
100
AcDbEntity
8
0-0
6
CONTINUOUS
62
7
100
AcDbCircle
10
477.500010000000
20
357.500010000000
30
0.0
40
2.302650000000
100
AcDbArc
50
167.525720000000
51
192.474270000000
0
ARC
5
8da
100
AcDbEntity
8
0-0
6
CONTINUOUS
62
7
100
AcDbCircle
10
477.500010000000
20
357.500010000000
30
0.0
40
2.302650000000
100
AcDbArc
50
257.525810000000
51
282.474180000000
0
LINE
5
8db
100
AcDbEntity
8
0-0
6
CONTINUOUS
62
7
100
AcDbLine
10
523.961627351734
20
350.000000000000
30
0.0
11
523.961627351734
21
365.000000000000
31
0.0
0
POLYLINE
5
8dc
100
AcDbEntity
8
0-0
6
CONTINUOUS
62
  7
100
AcDb2dPolyline
66
1
10
0.0
20
0.0
30
0.0
70
0
0
VERTEX
5
8dd
100
AcDbEntity
8
0-0
6
CONTINUOUS
62
  7
100
AcDbVertex
100
AcDb2dVertex
10
523.961627351734
20
360.800000000000
30
0.0
0
VERTEX
5
8de
100
AcDbEntity
8
0-0
6
CONTINUOUS
62
  7
100
AcDbVertex
100
AcDb2dVertex
10
525.961627351734
20
360.800000000000
30
0.0
0
VERTEX
5
8df
100
AcDbEntity
8
0-0
6
CONTINUOUS
62
  7
100
AcDbVertex
100
AcDb2dVertex
10
530.013967351734
20
360.587620000000
30
0.0
0
SEQEND
5
8e0
100
AcDbEntity
8
0-0
0
LINE
5
8e1
100
AcDbEntity
8
0-0
6
CONTINUOUS
62
7
100
AcDbLine
10
530.961627351734
20
359.588990000000
30
0.0
11
530.961627351734
21
358.646720000000
31
0.0
0
LINE
5
8e2
100
AcDbEntity
8
0-0
6
CONTINUOUS
62
7
100
AcDbLine
10
530.677327351734
20
358.347130000000
30
0.0
11
526.530227351734
21
358.129790000000
31
0.0
0
LINE
5
8e3
100
AcDbEntity
8
0-0
6
CONTINUOUS
62
7
100
AcDbLine
10
526.530227351734
20
356.870200000000
30
0.0
11
530.677327351734
21
356.652860000000
31
0.0
0
LINE
5
8e4
100
AcDbEntity
8
0-0
6
CONTINUOUS
62
7
100
AcDbLine
10
530.961627351734
20
356.353270000000
30
0.0
11
530.961627351734
21
355.411000000000
31
0.0
0
POLYLINE
5
8e5
100
AcDbEntity
8
0-0
6
CONTINUOUS
62
  7
100
AcDb2dPolyline
66
1
10
0.0
20
0.0
30
0.0
70
0
0
VERTEX
5
8e6
100
AcDbEntity
8
0-0
6
CONTINUOUS
62
  7
100
AcDbVertex
100
AcDb2dVertex
10
530.013967351734
20
354.412370000000
30
0.0
0
VERTEX
5
8e7
100
AcDbEntity
8
0-0
6
CONTINUOUS
62
  7
100
AcDbVertex
100
AcDb2dVertex
10
525.961627351734
20
354.200000000000
30
0.0
0
VERTEX
5
8e8
100
AcDbEntity
8
0-0
6
CONTINUOUS
62
  7
100
AcDbVertex
100
AcDb2dVertex
10
523.961627351734
20
354.200000000000
30
0.0
0
SEQEND
5
8e9
100
AcDbEntity
8
0-0
0
LINE
5
8ea
100
AcDbEntity
8
0-0
6
CONTINUOUS
62
7
100
AcDbLine
10
525.961627351734
20
354.200000000000
30
0.0
11
525.961627351734
21
360.800000000000
31
0.0
0
ARC
5
8eb
100
AcDbEntity
8
0-0
6
CONTINUOUS
62
7
100
AcDbCircle
10
521.961627351734
20
351.000000000000
30
0.0
40
1.000000000000
100
AcDbArc
50
180.000000000000
51
270.000000000000
0
ARC
5
8ec
100
AcDbEntity
8
0-0
6
CONTINUOUS
62
7
100
AcDbCircle
10
521.961627351734
20
364.000000000000
30
0.0
40
1.000000000000
100
AcDbArc
50
90.000000000000
51
180.000000000000
0
ARC
5
8ed
100
AcDbEntity
8
0-0
6
CONTINUOUS
62
7
100
AcDbCircle
10
526.561627351733
20
357.469370000000
30
0.0
40
0.600000000000
100
AcDbArc
50
180.000000000000
51
267.000000000000
0
ARC
5
8ee
100
AcDbEntity
8
0-0
6
CONTINUOUS
62
7
100
AcDbCircle
10
526.561627351733
20
357.530620000000
30
0.0
40
0.600000000000
100
AcDbArc
50
93.000000000000
51
180.000000000000
0
ARC
5
8ef
100
AcDbEntity
8
0-0
6
CONTINUOUS
62
7
100
AcDbCircle
10
529.961627351734
20
355.411000000000
30
0.0
40
1.000000000000
100
AcDbArc
50
273.000000000000
51
360.000000000000
0
ARC
5
8f0
100
AcDbEntity
8
0-0
6
CONTINUOUS
62
7
100
AcDbCircle
10
529.961627351734
20
359.588990000000
30
0.0
40
1.000000000000
100
AcDbArc
50
0.000000000000
51
87.000000000000
0
ARC
5
8f1
100
AcDbEntity
8
0-0
6
CONTINUOUS
62
7
100
AcDbCircle
10
530.661627351733
20
356.353270000000
30
0.0
40
0.300000000000
100
AcDbArc
50
0.000000000000
51
87.000000000000
0
ARC
5
8f2
100
AcDbEntity
8
0-0
6
CONTINUOUS
62
7
100
AcDbCircle
10
530.661627351733
20
358.646720000000
30
0.0
40
0.300000000000
100
AcDbArc
50
273.000000000000
51
360.000000000000
0
LINE
5
8f3
100
AcDbEntity
8
0-0
6
CONTINUOUS
62
7
100
AcDbLine
10
352.000000000000
20
349.000000000000
30
0.0
11
350.000000000000
21
349.000000000000
31
0.0
0
LINE
5
8f4
100
AcDbEntity
8
0-0
6
CONTINUOUS
62
7
100
AcDbLine
10
349.000000000000
20
350.000000000000
30
0.0
11
349.000000000000
21
363.000000000000
31
0.0
0
LINE
5
8f5
100
AcDbEntity
8
0-0
6
CONTINUOUS
62
7
100
AcDbLine
10
356.000000000000
20
361.584235721942
30
0.0
11
356.000000000000
21
351.415764278059
31
0.0
0
POLYLINE
5
8f6
100
AcDbEntity
8
0-0
6
CONTINUOUS
62
  7
100
AcDb2dPolyline
66
1
10
0.0
20
0.0
30
0.0
70
0
0
VERTEX
5
8f7
100
AcDbEntity
8
0-0
6
CONTINUOUS
62
  7
100
AcDbVertex
100
AcDb2dVertex
10
352.000000000000
20
349.000000000000
30
0.0
0
VERTEX
5
8f8
100
AcDbEntity
8
0-0
6
CONTINUOUS
62
  7
100
AcDbVertex
100
AcDb2dVertex
10
352.000000000000
20
364.000000000000
30
0.0
0
VERTEX
5
8f9
100
AcDbEntity
8
0-0
6
CONTINUOUS
62
  7
100
AcDbVertex
100
AcDb2dVertex
10
350.000000000000
20
364.000000000000
30
0.0
0
SEQEND
5
8fa
100
AcDbEntity
8
0-0
0
ARC
5
8fb
100
AcDbEntity
8
0-0
6
CONTINUOUS
62
7
100
AcDbCircle
10
350.000000000000
20
350.000000000000
30
0.0
40
1.000000000000
100
AcDbArc
50
180.000000000000
51
270.000000000000
0
ARC
5
8fc
100
AcDbEntity
8
0-0
6
CONTINUOUS
62
7
100
AcDbCircle
10
350.000000000000
20
363.000000000000
30
0.0
40
1.000000000000
100
AcDbArc
50
90.000000000000
51
180.000000000000
0
ARC
5
8fd
100
AcDbEntity
8
0-0
6
CONTINUOUS
62
7
100
AcDbCircle
10
355.000000000000
20
361.584235721942
30
0.0
40
1.000000000000
100
AcDbArc
50
0.000000000000
51
86.000000000000
0
ARC
5
8fe
100
AcDbEntity
8
0-0
6
CONTINUOUS
62
7
100
AcDbCircle
10
355.000000000000
20
351.415764278059
30
0.0
40
1.000000000000
100
AcDbArc
50
274.000000000000
51
360.000000000000
0
LINE
5
8ff
100
AcDbEntity
8
0-0
6
CONTINUOUS
62
7
100
AcDbLine
10
355.065542631353
20
350.418200227799
30
0.0
11
352.000000000000
21
350.150000000000
31
0.0
0
LINE
5
900
100
AcDbEntity
8
0-0
6
CONTINUOUS
62
7
100
AcDbLine
10
355.065542631353
20
362.581799772202
30
0.0
11
352.000000000000
21
362.850000000000
31
0.0
0
LINE
5
901
100
AcDbEntity
8
0-0
6
CONTINUOUS
62
7
100
AcDbLine
10
173.100000000000
20
354.600000000000
30
0.0
11
165.700000000000
21
354.600000000000
31
0.0
0
LINE
5
902
100
AcDbEntity
8
0-0
6
CONTINUOUS
62
7
100
AcDbLine
10
165.400000000000
20
354.300000000000
30
0.0
11
165.400000000000
21
351.900000000000
31
0.0
0
LINE
5
903
100
AcDbEntity
8
0-0
6
CONTINUOUS
62
7
100
AcDbLine
10
165.700000000000
20
351.600000000000
30
0.0
11
173.100000000000
21
351.600000000000
31
0.0
0
LINE
5
904
100
AcDbEntity
8
0-0
6
CONTINUOUS
62
7
100
AcDbLine
10
173.400000000000
20
351.900000000000
30
0.0
11
173.400000000000
21
354.300000000000
31
0.0
0
LINE
5
905
100
AcDbEntity
8
0-0
6
CONTINUOUS
62
7
100
AcDbLine
10
171.010070000000
20
353.541460000000
30
0.0
11
170.489970000001
21
353.541460000000
31
0.0
0
LINE
5
906
100
AcDbEntity
8
0-0
6
CONTINUOUS
62
7
100
AcDbLine
10
170.492500000000
20
352.805800000000
30
0.0
11
171.023490000000
21
352.805800000000
31
0.0
0
POLYLINE
5
907
100
AcDbEntity
8
0-0
6
CONTINUOUS
62
  7
100
AcDb2dPolyline
66
1
10
0.0
20
0.0
30
0.0
70
0
0
VERTEX
5
908
100
AcDbEntity
8
0-0
6
CONTINUOUS
62
  7
100
AcDbVertex
100
AcDb2dVertex
10
169.098570000001
20
352.972120000000
30
0.0
0
VERTEX
5
909
100
AcDbEntity
8
0-0
6
CONTINUOUS
62
  7
100
AcDbVertex
100
AcDb2dVertex
10
168.264110000001
20
352.972120000000
30
0.0
0
VERTEX
5
90a
100
AcDbEntity
8
0-0
6
CONTINUOUS
62
  7
100
AcDbVertex
100
AcDb2dVertex
10
168.264110000001
20
352.473570000000
30
0.0
0
VERTEX
5
90b
100
AcDbEntity
8
0-0
6
CONTINUOUS
62
  7
100
AcDbVertex
100
AcDb2dVertex
10
169.186530000000
20
352.473570000000
30
0.0
0
VERTEX
5
90c
100
AcDbEntity
8
0-0
6
CONTINUOUS
62
  7
100
AcDbVertex
100
AcDb2dVertex
10
169.186530000000
20
352.109610000000
30
0.0
0
VERTEX
5
90d
100
AcDbEntity
8
0-0
6
CONTINUOUS
62
  7
100
AcDbVertex
100
AcDb2dVertex
10
167.756810000000
20
352.109610000000
30
0.0
0
VERTEX
5
90e
100
AcDbEntity
8
0-0
6
CONTINUOUS
62
  7
100
AcDbVertex
100
AcDb2dVertex
10
167.756810000000
20
354.151170000000
30
0.0
0
VERTEX
5
90f
100
AcDbEntity
8
0-0
6
CONTINUOUS
62
  7
100
AcDbVertex
100
AcDb2dVertex
10
169.186530000000
20
354.151170000000
30
0.0
0
VERTEX
5
910
100
AcDbEntity
8
0-0
6
CONTINUOUS
62
  7
100
AcDbVertex
100
AcDb2dVertex
10
169.186530000000
20
353.787210000000
30
0.0
0
VERTEX
5
911
100
AcDbEntity
8
0-0
6
CONTINUOUS
62
  7
100
AcDbVertex
100
AcDb2dVertex
10
168.264110000001
20
353.787210000000
30
0.0
0
VERTEX
5
912
100
AcDbEntity
8
0-0
6
CONTINUOUS
62
  7
100
AcDbVertex
100
AcDb2dVertex
10
168.264110000001
20
353.313770000000
30
0.0
0
VERTEX
5
913
100
AcDbEntity
8
0-0
6
CONTINUOUS
62
  7
100
AcDbVertex
100
AcDb2dVertex
10
169.098570000001
20
353.313770000000
30
0.0
0
VERTEX
5
914
100
AcDbEntity
8
0-0
6
CONTINUOUS
62
  7
100
AcDbVertex
100
AcDb2dVertex
10
169.098570000001
20
352.972120000000
30
0.0
0
SEQEND
5
915
100
AcDbEntity
8
0-0
0
POLYLINE
5
916
100
AcDbEntity
8
0-0
6
CONTINUOUS
62
  7
100
AcDb2dPolyline
66
1
10
0.0
20
0.0
30
0.0
70
0
0
VERTEX
5
917
100
AcDbEntity
8
0-0
6
CONTINUOUS
62
  7
100
AcDbVertex
100
AcDb2dVertex
10
167.364020000000
20
352.473570000000
30
0.0
0
VERTEX
5
918
100
AcDbEntity
8
0-0
6
CONTINUOUS
62
  7
100
AcDbVertex
100
AcDb2dVertex
10
166.443780000000
20
352.473570000000
30
0.0
0
VERTEX
5
919
100
AcDbEntity
8
0-0
6
CONTINUOUS
62
  7
100
AcDbVertex
100
AcDb2dVertex
10
166.443780000000
20
354.151170000000
30
0.0
0
VERTEX
5
91a
100
AcDbEntity
8
0-0
6
CONTINUOUS
62
  7
100
AcDbVertex
100
AcDb2dVertex
10
165.934680000000
20
354.151170000000
30
0.0
0
VERTEX
5
91b
100
AcDbEntity
8
0-0
6
CONTINUOUS
62
  7
100
AcDbVertex
100
AcDb2dVertex
10
165.934680000000
20
352.109610000000
30
0.0
0
VERTEX
5
91c
100
AcDbEntity
8
0-0
6
CONTINUOUS
62
  7
100
AcDbVertex
100
AcDb2dVertex
10
167.364020000000
20
352.109610000000
30
0.0
0
VERTEX
5
91d
100
AcDbEntity
8
0-0
6
CONTINUOUS
62
  7
100
AcDbVertex
100
AcDb2dVertex
10
167.364020000000
20
352.473570000000
30
0.0
0
SEQEND
5
91e
100
AcDbEntity
8
0-0
0
ARC
5
91f
100
AcDbEntity
8
0-0
6
CONTINUOUS
62
7
100
AcDbCircle
10
171.958520000000
20
353.130390000000
30
0.0
40
2.398986300000
100
AcDbArc
50
164.216000000000
51
195.783990000000
0
ARC
5
920
100
AcDbEntity
8
0-0
6
CONTINUOUS
62
7
100
AcDbCircle
10
176.195690000000
20
353.130390000000
30
0.0
40
6.092738900000
100
AcDbArc
50
176.789190000000
51
183.210800000000
0
ARC
5
921
100
AcDbEntity
8
0-0
6
CONTINUOUS
62
7
100
AcDbCircle
10
170.190610000000
20
352.665240000000
30
0.0
40
0.572178900000
100
AcDbArc
50
199.118120000000
51
253.770890000000
0
ARC
5
922
100
AcDbEntity
8
0-0
6
CONTINUOUS
62
7
100
AcDbCircle
10
170.302540000001
20
353.184730000000
30
0.0
40
1.102902900000
100
AcDbArc
50
255.730700000000
51
284.269290000000
0
ARC
5
923
100
AcDbEntity
8
0-0
6
CONTINUOUS
62
7
100
AcDbCircle
10
170.414480000000
20
352.665240000000
30
0.0
40
0.572178900000
100
AcDbArc
50
286.229100000000
51
340.881870000000
0
ARC
5
924
100
AcDbEntity
8
0-0
6
CONTINUOUS
62
7
100
AcDbCircle
10
168.646570000000
20
353.130390000000
30
0.0
40
2.398986300000
100
AcDbArc
50
344.216000000000
51
352.223750000000
0
ARC
5
925
100
AcDbEntity
8
0-0
6
CONTINUOUS
62
7
100
AcDbCircle
10
170.302540000001
20
352.597740000000
30
0.0
40
0.165862900000
100
AcDbArc
50
198.780930000000
51
341.219060000000
0
ARC
5
926
100
AcDbEntity
8
0-0
6
CONTINUOUS
62
7
100
AcDbCircle
10
169.566340000000
20
352.789630000000
30
0.0
40
0.926307300000
100
AcDbArc
50
344.644740000000
51
361.000075600000
0
ARC
5
927
100
AcDbEntity
8
0-0
6
CONTINUOUS
62
7
100
AcDbCircle
10
171.038750000001
20
352.789630000000
30
0.0
40
0.926307300000
100
AcDbArc
50
179.280770000000
51
195.355250000000
0
ARC
5
928
100
AcDbEntity
8
0-0
6
CONTINUOUS
62
7
100
AcDbCircle
10
170.302540000001
20
353.663040000000
30
0.0
40
0.165862900000
100
AcDbArc
50
18.780934000000
51
161.219060000000
0
ARC
5
929
100
AcDbEntity
8
0-0
6
CONTINUOUS
62
7
100
AcDbCircle
10
171.038750000001
20
353.471150000000
30
0.0
40
0.926307300000
100
AcDbArc
50
164.644740000000
51
180.719220000000
0
ARC
5
92a
100
AcDbEntity
8
0-0
6
CONTINUOUS
62
7
100
AcDbCircle
10
169.566340000000
20
353.471150000000
30
0.0
40
0.926307300000
100
AcDbArc
50
4.352810000000
51
15.355258000000
0
ARC
5
92b
100
AcDbEntity
8
0-0
6
CONTINUOUS
62
7
100
AcDbCircle
10
170.414480000000
20
353.595540000000
30
0.0
40
0.572178900000
100
AcDbArc
50
19.118120000000
51
73.770896000000
0
ARC
5
92c
100
AcDbEntity
8
0-0
6
CONTINUOUS
62
7
100
AcDbCircle
10
168.646570000000
20
353.130390000000
30
0.0
40
2.398986300000
100
AcDbArc
50
9.866322700000
51
15.783997000000
0
ARC
5
92d
100
AcDbEntity
8
0-0
6
CONTINUOUS
62
7
100
AcDbCircle
10
170.302540000001
20
353.076050000000
30
0.0
40
1.102902900000
100
AcDbArc
50
75.730707000000
51
104.269290000000
0
ARC
5
92e
100
AcDbEntity
8
0-0
6
CONTINUOUS
62
7
100
AcDbCircle
10
170.190610000000
20
353.595540000000
30
0.0
40
0.572178900000
100
AcDbArc
50
106.229100000000
51
160.881870000000
0
ARC
5
92f
100
AcDbEntity
8
0-0
6
CONTINUOUS
62
7
100
AcDbCircle
10
173.747820000001
20
353.130390000000
30
0.0
40
2.398986300000
100
AcDbArc
50
164.216000000000
51
195.783990000000
0
ARC
5
930
100
AcDbEntity
8
0-0
6
CONTINUOUS
62
7
100
AcDbCircle
10
177.984990000000
20
353.130390000000
30
0.0
40
6.092738900000
100
AcDbArc
50
176.789190000000
51
183.210800000000
0
ARC
5
931
100
AcDbEntity
8
0-0
6
CONTINUOUS
62
7
100
AcDbCircle
10
166.198690000001
20
353.130390000000
30
0.0
40
6.092738900000
100
AcDbArc
50
356.789190000000
51
363.210809900000
0
ARC
5
932
100
AcDbEntity
8
0-0
6
CONTINUOUS
62
7
100
AcDbCircle
10
172.091840000000
20
352.597740000000
30
0.0
40
0.165862900000
100
AcDbArc
50
198.780930000000
51
341.219060000000
0
ARC
5
933
100
AcDbEntity
8
0-0
6
CONTINUOUS
62
7
100
AcDbCircle
10
172.091840000000
20
353.184730000000
30
0.0
40
1.102902900000
100
AcDbArc
50
255.730700000000
51
284.269290000000
0
ARC
5
934
100
AcDbEntity
8
0-0
6
CONTINUOUS
62
7
100
AcDbCircle
10
172.203770000001
20
352.665240000000
30
0.0
40
0.572178900000
100
AcDbArc
50
286.229100000000
51
340.881870000000
0
ARC
5
935
100
AcDbEntity
8
0-0
6
CONTINUOUS
62
7
100
AcDbCircle
10
171.979910000000
20
352.665240000000
30
0.0
40
0.572178900000
100
AcDbArc
50
199.118120000000
51
253.770890000000
0
ARC
5
936
100
AcDbEntity
8
0-0
6
CONTINUOUS
62
7
100
AcDbCircle
10
170.435860000001
20
353.130390000000
30
0.0
40
2.398986300000
100
AcDbArc
50
344.216000000000
51
375.783997000000
0
ARC
5
937
100
AcDbEntity
8
0-0
6
CONTINUOUS
62
7
100
AcDbCircle
10
171.355630000000
20
352.789630000000
30
0.0
40
0.926307300000
100
AcDbArc
50
344.644740000000
51
360.719224300000
0
ARC
5
938
100
AcDbEntity
8
0-0
6
CONTINUOUS
62
7
100
AcDbCircle
10
172.828050000000
20
352.789630000000
30
0.0
40
0.926307300000
100
AcDbArc
50
179.280770000000
51
195.355250000000
0
ARC
5
939
100
AcDbEntity
8
0-0
6
CONTINUOUS
62
7
100
AcDbCircle
10
172.828050000000
20
353.471150000000
30
0.0
40
0.926307300000
100
AcDbArc
50
164.644740000000
51
180.719220000000
0
ARC
5
93a
100
AcDbEntity
8
0-0
6
CONTINUOUS
62
7
100
AcDbCircle
10
172.091840000000
20
353.663040000000
30
0.0
40
0.165862900000
100
AcDbArc
50
18.780934000000
51
161.219060000000
0
ARC
5
93b
100
AcDbEntity
8
0-0
6
CONTINUOUS
62
7
100
AcDbCircle
10
171.355630000000
20
353.471150000000
30
0.0
40
0.926307300000
100
AcDbArc
50
359.280770000000
51
375.355258000000
0
ARC
5
93c
100
AcDbEntity
8
0-0
6
CONTINUOUS
62
7
100
AcDbCircle
10
172.091840000000
20
353.076050000000
30
0.0
40
1.102902900000
100
AcDbArc
50
75.730707000000
51
104.269290000000
0
ARC
5
93d
100
AcDbEntity
8
0-0
6
CONTINUOUS
62
7
100
AcDbCircle
10
171.979910000000
20
353.595540000000
30
0.0
40
0.572178900000
100
AcDbArc
50
106.229100000000
51
160.881870000000
0
ARC
5
93e
100
AcDbEntity
8
0-0
6
CONTINUOUS
62
7
100
AcDbCircle
10
172.203770000001
20
353.595540000000
30
0.0
40
0.572178900000
100
AcDbArc
50
19.118120000000
51
73.770896000000
0
ARC
5
93f
100
AcDbEntity
8
0-0
6
CONTINUOUS
62
7
100
AcDbCircle
10
165.700000000000
20
351.900000000000
30
0.0
40
0.300000000000
100
AcDbArc
50
180.000000000000
51
270.000000000000
0
ARC
5
940
100
AcDbEntity
8
0-0
6
CONTINUOUS
62
7
100
AcDbCircle
10
165.700000000000
20
354.300000000000
30
0.0
40
0.300000000000
100
AcDbArc
50
90.000000000000
51
180.000000000000
0
ARC
5
941
100
AcDbEntity
8
0-0
6
CONTINUOUS
62
7
100
AcDbCircle
10
173.100000000000
20
354.300000000000
30
0.0
40
0.300000000000
100
AcDbArc
50
0.000000000000
51
90.000000000000
0
ARC
5
942
100
AcDbEntity
8
0-0
6
CONTINUOUS
62
7
100
AcDbCircle
10
173.100000000000
20
351.900000000000
30
0.0
40
0.300000000000
100
AcDbArc
50
270.000000000000
51
360.000000000000
0
LINE
5
943
100
AcDbEntity
8
0-0
6
CONTINUOUS
62
7
100
AcDbLine
10
175.000000000000
20
364.000000000000
30
0.0
11
175.000000000000
21
351.000000000000
31
0.0
0
LINE
5
944
100
AcDbEntity
8
0-0
6
CONTINUOUS
62
7
100
AcDbLine
10
174.000000000000
20
350.000000000000
30
0.0
11
151.000000000000
21
350.000000000000
31
0.0
0
LINE
5
945
100
AcDbEntity
8
0-0
6
CONTINUOUS
62
7
100
AcDbLine
10
150.000000000000
20
351.000000000000
30
0.0
11
150.000000000000
21
364.000000000000
31
0.0
0
LINE
5
946
100
AcDbEntity
8
0-0
6
CONTINUOUS
62
7
100
AcDbLine
10
151.000000000000
20
365.000000000000
30
0.0
11
174.000000000000
21
365.000000000000
31
0.0
0
LINE
5
947
100
AcDbEntity
8
0-0
6
CONTINUOUS
62
7
100
AcDbLine
10
164.748290000000
20
357.997390000000
30
0.0
11
163.734230000000
21
357.997390000000
31
0.0
0
LINE
5
948
100
AcDbEntity
8
0-0
6
CONTINUOUS
62
7
100
AcDbLine
10
163.734230000000
20
357.002590000000
30
0.0
11
164.748290000000
21
357.002590000000
31
0.0
0
LINE
5
949
100
AcDbEntity
8
0-0
6
CONTINUOUS
62
7
100
AcDbLine
10
162.997390000000
20
356.265750000000
30
0.0
11
162.997390000000
21
355.251670000000
31
0.0
0
LINE
5
94a
100
AcDbEntity
8
0-0
6
CONTINUOUS
62
7
100
AcDbLine
10
162.002640000000
20
355.251670000000
30
0.0
11
162.002640000000
21
356.265750000000
31
0.0
0
LINE
5
94b
100
AcDbEntity
8
0-0
6
CONTINUOUS
62
7
100
AcDbLine
10
161.265800000001
20
357.002590000000
30
0.0
11
160.251690000001
21
357.002590000000
31
0.0
0
LINE
5
94c
100
AcDbEntity
8
0-0
6
CONTINUOUS
62
7
100
AcDbLine
10
160.251690000001
20
357.997390000000
30
0.0
11
161.265800000001
21
357.997390000000
31
0.0
0
LINE
5
94d
100
AcDbEntity
8
0-0
6
CONTINUOUS
62
7
100
AcDbLine
10
162.002640000000
20
358.734230000000
30
0.0
11
162.002640000000
21
359.748270000000
31
0.0
0
LINE
5
94e
100
AcDbEntity
8
0-0
6
CONTINUOUS
62
7
100
AcDbLine
10
162.997390000000
20
359.748270000000
30
0.0
11
162.997390000000
21
358.734230000000
31
0.0
0
ARC
5
94f
100
AcDbEntity
8
0-0
6
CONTINUOUS
62
7
100
AcDbCircle
10
151.000000000000
20
351.000000000000
30
0.0
40
1.000000000000
100
AcDbArc
50
180.000000000000
51
270.000000000000
0
ARC
5
950
100
AcDbEntity
8
0-0
6
CONTINUOUS
62
7
100
AcDbCircle
10
151.000000000000
20
364.000000000000
30
0.0
40
1.000000000000
100
AcDbArc
50
90.000000000000
51
180.000000000000
0
ARC
5
951
100
AcDbEntity
8
0-0
6
CONTINUOUS
62
7
100
AcDbCircle
10
174.000000000000
20
364.000000000000
30
0.0
40
1.000000000000
100
AcDbArc
50
0.000000000000
51
90.000000000000
0
ARC
5
952
100
AcDbEntity
8
0-0
6
CONTINUOUS
62
7
100
AcDbCircle
10
174.000000000000
20
351.000000000000
30
0.0
40
1.000000000000
100
AcDbArc
50
270.000000000000
51
360.000000000000
0
CIRCLE
5
953
100
AcDbEntity
8
0-0
6
CONTINUOUS
62
7
100
AcDbCircle
10
162.500000000000
20
357.500000000000
30
0.0
40
3.550000000000
0
ARC
5
954
100
AcDbEntity
8
0-0
6
CONTINUOUS
62
7
100
AcDbCircle
10
161.265800000001
20
356.265750000000
30
0.0
40
0.736848000000
100
AcDbArc
50
0.000000000000
51
90.000000000000
0
ARC
5
955
100
AcDbEntity
8
0-0
6
CONTINUOUS
62
7
100
AcDbCircle
10
161.265800000001
20
358.734230000000
30
0.0
40
0.736848000000
100
AcDbArc
50
270.000000000000
51
360.000000000000
0
ARC
5
956
100
AcDbEntity
8
0-0
6
CONTINUOUS
62
7
100
AcDbCircle
10
163.734230000000
20
358.734230000000
30
0.0
40
0.736848000000
100
AcDbArc
50
180.000000000000
51
270.000000000000
0
ARC
5
957
100
AcDbEntity
8
0-0
6
CONTINUOUS
62
7
100
AcDbCircle
10
163.734230000000
20
356.265750000000
30
0.0
40
0.736848000000
100
AcDbArc
50
90.000000000000
51
180.000000000000
0
ARC
5
958
100
AcDbEntity
8
0-0
6
CONTINUOUS
62
7
100
AcDbCircle
10
162.499990000000
20
357.500010000000
30
0.0
40
2.302650000000
100
AcDbArc
50
77.525720000000
51
102.474270000000
0
ARC
5
959
100
AcDbEntity
8
0-0
6
CONTINUOUS
62
7
100
AcDbCircle
10
162.499990000000
20
357.500010000000
30
0.0
40
2.302650000000
100
AcDbArc
50
167.525810000000
51
192.474180000000
0
ARC
5
95a
100
AcDbEntity
8
0-0
6
CONTINUOUS
62
7
100
AcDbCircle
10
162.499990000000
20
357.500010000000
30
0.0
40
2.302650000000
100
AcDbArc
50
257.525720000000
51
282.474270000000
0
ARC
5
95b
100
AcDbEntity
8
0-0
6
CONTINUOUS
62
7
100
AcDbCircle
10
162.499990000000
20
357.500010000000
30
0.0
40
2.302650000000
100
AcDbArc
50
347.525810000000
51
372.474180000000
0
POLYLINE
5
95c
100
AcDbEntity
8
0-0
6
CONTINUOUS
62
  7
100
AcDb2dPolyline
66
1
10
0.0
20
0.0
30
0.0
70
0
0
VERTEX
5
95d
100
AcDbEntity
8
0-0
6
CONTINUOUS
62
  7
100
AcDbVertex
100
AcDb2dVertex
10
214.654447965250
20
360.587620000000
30
0.0
0
VERTEX
5
95e
100
AcDbEntity
8
0-0
6
CONTINUOUS
62
  7
100
AcDbVertex
100
AcDb2dVertex
10
210.602117965250
20
360.800000000000
30
0.0
0
VERTEX
5
95f
100
AcDbEntity
8
0-0
6
CONTINUOUS
62
  7
100
AcDbVertex
100
AcDb2dVertex
10
210.602117965250
20
354.200000000000
30
0.0
0
VERTEX
5
960
100
AcDbEntity
8
0-0
6
CONTINUOUS
62
  7
100
AcDbVertex
100
AcDb2dVertex
10
208.602117965250
20
354.200000000000
30
0.0
0
SEQEND
5
961
100
AcDbEntity
8
0-0
0
LINE
5
962
100
AcDbEntity
8
0-0
6
CONTINUOUS
62
7
100
AcDbLine
10
210.602117965250
20
354.200000000000
30
0.0
11
214.654447965250
21
354.412370000000
31
0.0
0
LINE
5
963
100
AcDbEntity
8
0-0
6
CONTINUOUS
62
7
100
AcDbLine
10
215.602117965250
20
355.411000000000
30
0.0
11
215.602117965250
21
356.353270000000
31
0.0
0
LINE
5
964
100
AcDbEntity
8
0-0
6
CONTINUOUS
62
7
100
AcDbLine
10
215.317817965249
20
356.652860000000
30
0.0
11
211.170707965250
21
356.870200000000
31
0.0
0
LINE
5
965
100
AcDbEntity
8
0-0
6
CONTINUOUS
62
7
100
AcDbLine
10
211.170707965250
20
358.129800000000
30
0.0
11
215.317817965249
21
358.347140000000
31
0.0
0
LINE
5
966
100
AcDbEntity
8
0-0
6
CONTINUOUS
62
7
100
AcDbLine
10
215.602117965250
20
358.646730000000
30
0.0
11
215.602117965250
21
359.588990000000
31
0.0
0
LINE
5
967
100
AcDbEntity
8
0-0
6
CONTINUOUS
62
7
100
AcDbLine
10
210.602117965250
20
360.800000000000
30
0.0
11
208.602117965250
21
360.800000000000
31
0.0
0
POLYLINE
5
968
100
AcDbEntity
8
0-0
6
CONTINUOUS
62
  7
100
AcDb2dPolyline
66
1
10
0.0
20
0.0
30
0.0
70
0
0
VERTEX
5
969
100
AcDbEntity
8
0-0
6
CONTINUOUS
62
  7
100
AcDbVertex
100
AcDb2dVertex
10
208.602117965250
20
365.000000000000
30
0.0
0
VERTEX
5
96a
100
AcDbEntity
8
0-0
6
CONTINUOUS
62
  7
100
AcDbVertex
100
AcDb2dVertex
10
208.602117965250
20
350.000000000000
30
0.0
0
VERTEX
5
96b
100
AcDbEntity
8
0-0
6
CONTINUOUS
62
  7
100
AcDbVertex
100
AcDb2dVertex
10
206.602117965250
20
350.000000000000
30
0.0
0
SEQEND
5
96c
100
AcDbEntity
8
0-0
0
LINE
5
96d
100
AcDbEntity
8
0-0
6
CONTINUOUS
62
7
100
AcDbLine
10
205.602117965250
20
351.000000000000
30
0.0
11
205.602117965250
21
364.000000000000
31
0.0
0
LINE
5
96e
100
AcDbEntity
8
0-0
6
CONTINUOUS
62
7
100
AcDbLine
10
206.602117965250
20
365.000000000000
30
0.0
11
208.602117965250
21
365.000000000000
31
0.0
0
ARC
5
96f
100
AcDbEntity
8
0-0
6
CONTINUOUS
62
7
100
AcDbCircle
10
214.602117965250
20
359.588990000000
30
0.0
40
1.000000000000
100
AcDbArc
50
0.000000000000
51
87.000000000000
0
ARC
5
970
100
AcDbEntity
8
0-0
6
CONTINUOUS
62
7
100
AcDbCircle
10
214.602117965250
20
355.411000000000
30
0.0
40
1.000000000000
100
AcDbArc
50
273.000000000000
51
360.000000000000
0
ARC
5
971
100
AcDbEntity
8
0-0
6
CONTINUOUS
62
7
100
AcDbCircle
10
215.302117965250
20
358.646730000000
30
0.0
40
0.300000000000
100
AcDbArc
50
273.000000000000
51
360.000000000000
0
ARC
5
972
100
AcDbEntity
8
0-0
6
CONTINUOUS
62
7
100
AcDbCircle
10
215.302117965250
20
356.353270000000
30
0.0
40
0.300000000000
100
AcDbArc
50
0.000000000000
51
87.000000000000
0
ARC
5
973
100
AcDbEntity
8
0-0
6
CONTINUOUS
62
7
100
AcDbCircle
10
206.602117965250
20
364.000000000000
30
0.0
40
1.000000000000
100
AcDbArc
50
90.000000000000
51
180.000000000000
0
ARC
5
974
100
AcDbEntity
8
0-0
6
CONTINUOUS
62
7
100
AcDbCircle
10
206.602117965250
20
351.000000000000
30
0.0
40
1.000000000000
100
AcDbArc
50
180.000000000000
51
270.000000000000
0
ARC
5
975
100
AcDbEntity
8
0-0
6
CONTINUOUS
62
7
100
AcDbCircle
10
211.202117965250
20
357.530620000000
30
0.0
40
0.600000000000
100
AcDbArc
50
93.000000000000
51
180.000000000000
0
ARC
5
976
100
AcDbEntity
8
0-0
6
CONTINUOUS
62
7
100
AcDbCircle
10
211.202117965250
20
357.469380000000
30
0.0
40
0.600000000000
100
AcDbArc
50
180.000000000000
51
267.000000000000
0
LINE
5
977
100
AcDbEntity
8
0-0
6
CONTINUOUS
62
7
100
AcDbLine
10
1.000000000000
20
350.000000000000
30
0.0
11
14.000000000000
21
350.000000000000
31
0.0
0
LINE
5
978
100
AcDbEntity
8
0-0
6
CONTINUOUS
62
7
100
AcDbLine
10
15.000000000000
20
369.000000000000
30
0.0
11
15.000000000000
21
351.000000000000
31
0.0
0
LINE
5
979
100
AcDbEntity
8
0-0
6
CONTINUOUS
62
7
100
AcDbLine
10
0.000000000000
20
351.000000000000
30
0.0
11
0.000000000000
21
369.000000000000
31
0.0
0
LINE
5
97a
100
AcDbEntity
8
0-0
6
CONTINUOUS
62
7
100
AcDbLine
10
14.000000000000
20
370.000000000000
30
0.0
11
1.000000000000
21
370.000000000000
31
0.0
0
LINE
5
97b
100
AcDbEntity
8
0-0
6
CONTINUOUS
62
7
100
AcDbLine
10
5.300000000000
20
352.000000000000
30
0.0
11
12.700000000000
21
352.000000000000
31
0.0
0
LINE
5
97c
100
AcDbEntity
8
0-0
6
CONTINUOUS
62
7
100
AcDbLine
10
13.000000000000
20
352.300000000000
30
0.0
11
13.000000000000
21
354.700000000000
31
0.0
0
LINE
5
97d
100
AcDbEntity
8
0-0
6
CONTINUOUS
62
7
100
AcDbLine
10
12.700000000000
20
355.000000000000
30
0.0
11
5.300000000000
21
355.000000000000
31
0.0
0
LINE
5
97e
100
AcDbEntity
8
0-0
6
CONTINUOUS
62
7
100
AcDbLine
10
5.000000000000
20
354.700000000000
30
0.0
11
5.000000000000
21
352.300000000000
31
0.0
0
LINE
5
97f
100
AcDbEntity
8
0-0
6
CONTINUOUS
62
7
100
AcDbLine
10
7.997380000000
20
360.251700000000
30
0.0
11
7.997380000000
21
361.265760000000
31
0.0
0
LINE
5
980
100
AcDbEntity
8
0-0
6
CONTINUOUS
62
7
100
AcDbLine
10
7.002580000000
20
361.265760000000
30
0.0
11
7.002580000000
21
360.251700000000
31
0.0
0
LINE
5
981
100
AcDbEntity
8
0-0
6
CONTINUOUS
62
7
100
AcDbLine
10
6.265740000000
20
362.002600000000
30
0.0
11
5.251660000000
21
362.002600000000
31
0.0
0
LINE
5
982
100
AcDbEntity
8
0-0
6
CONTINUOUS
62
7
100
AcDbLine
10
5.251660000000
20
362.997350000000
30
0.0
11
6.265740000000
21
362.997350000000
31
0.0
0
LINE
5
983
100
AcDbEntity
8
0-0
6
CONTINUOUS
62
7
100
AcDbLine
10
7.002580000000
20
363.734190000000
30
0.0
11
7.002580000000
21
364.748300000000
31
0.0
0
LINE
5
984
100
AcDbEntity
8
0-0
6
CONTINUOUS
62
7
100
AcDbLine
10
7.997380000000
20
364.748300000000
30
0.0
11
7.997380000000
21
363.734190000000
31
0.0
0
LINE
5
985
100
AcDbEntity
8
0-0
6
CONTINUOUS
62
7
100
AcDbLine
10
8.734220000000
20
362.997350000000
30
0.0
11
9.748260000000
21
362.997350000000
31
0.0
0
LINE
5
986
100
AcDbEntity
8
0-0
6
CONTINUOUS
62
7
100
AcDbLine
10
9.748260000000
20
362.002600000000
30
0.0
11
8.734220000000
21
362.002600000000
31
0.0
0
POLYLINE
5
987
100
AcDbEntity
8
0-0
6
CONTINUOUS
62
  7
100
AcDb2dPolyline
66
1
10
0.0
20
0.0
30
0.0
70
0
0
VERTEX
5
988
100
AcDbEntity
8
0-0
6
CONTINUOUS
62
  7
100
AcDbVertex
100
AcDb2dVertex
10
0.000000000000
20
331.922814939848
30
0.0
0
VERTEX
5
989
100
AcDbEntity
8
0-0
6
CONTINUOUS
62
  7
100
AcDbVertex
100
AcDb2dVertex
10
0.000000000000
20
329.922814939848
30
0.0
0
VERTEX
5
98a
100
AcDbEntity
8
0-0
6
CONTINUOUS
62
  7
100
AcDbVertex
100
AcDb2dVertex
10
15.000000000000
20
329.922814939848
30
0.0
0
VERTEX
5
98b
100
AcDbEntity
8
0-0
6
CONTINUOUS
62
  7
100
AcDbVertex
100
AcDb2dVertex
10
15.000000000000
20
331.922814939848
30
0.0
0
SEQEND
5
98c
100
AcDbEntity
8
0-0
0
LINE
5
98d
100
AcDbEntity
8
0-0
6
CONTINUOUS
62
7
100
AcDbLine
10
14.000000000000
20
332.922814939848
30
0.0
11
1.000000000000
21
332.922814939848
31
0.0
0
LINE
5
98e
100
AcDbEntity
8
0-0
6
CONTINUOUS
62
7
100
AcDbLine
10
1.300000000000
20
329.922814939848
30
0.0
11
1.389916068155
21
328.207114152975
31
0.0
0
LINE
5
98f
100
AcDbEntity
8
0-0
6
CONTINUOUS
62
7
100
AcDbLine
10
1.689504928581
20
327.922814939848
30
0.0
11
13.310495071419
21
327.922814939848
31
0.0
0
LINE
5
990
100
AcDbEntity
8
0-0
6
CONTINUOUS
62
7
100
AcDbLine
10
13.610083931846
20
328.207114152975
30
0.0
11
13.700000000000
21
329.922814939848
31
0.0
0
LINE
5
991
100
AcDbEntity
8
0-0
6
CONTINUOUS
62
7
100
AcDbLine
10
12.200000000000
20
329.922814939848
30
0.0
11
12.200000000000
21
327.922814939848
31
0.0
0
LINE
5
992
100
AcDbEntity
8
0-0
6
CONTINUOUS
62
7
100
AcDbLine
10
11.000000000000
20
327.922814939848
30
0.0
11
10.812458555644
21
324.344311005483
31
0.0
0
LINE
5
993
100
AcDbEntity
8
0-0
6
CONTINUOUS
62
7
100
AcDbLine
10
9.314514253512
20
322.922814939848
30
0.0
11
5.685485746488
21
322.922814939848
31
0.0
0
LINE
5
994
100
AcDbEntity
8
0-0
6
CONTINUOUS
62
7
100
AcDbLine
10
9.601923789000
20
329.922814939848
30
0.0
11
9.601923789000
21
327.922814939848
31
0.0
0
LINE
5
995
100
AcDbEntity
8
0-0
6
CONTINUOUS
62
7
100
AcDbLine
10
5.398076211000
20
327.922814939848
30
0.0
11
5.398076211000
21
329.922814939848
31
0.0
0
LINE
5
996
100
AcDbEntity
8
0-0
6
CONTINUOUS
62
7
100
AcDbLine
10
2.800000000000
20
329.922814939848
30
0.0
11
2.800000000000
21
327.922814939848
31
0.0
0
LINE
5
997
100
AcDbEntity
8
0-0
6
CONTINUOUS
62
7
100
AcDbLine
10
4.000000000000
20
327.922814939848
30
0.0
11
4.187541444356
21
324.344311005483
31
0.0
0
POLYLINE
5
998
100
AcDbEntity
8
0-0
6
CONTINUOUS
62
  7
100
AcDb2dPolyline
66
1
10
0.0
20
0.0
30
0.0
70
0
0
VERTEX
5
999
100
AcDbEntity
8
0-0
6
CONTINUOUS
62
  7
100
AcDbVertex
100
AcDb2dVertex
10
43.097510840613
20
350.000000000000
30
0.0
0
VERTEX
5
99a
100
AcDbEntity
8
0-0
6
CONTINUOUS
62
  7
100
AcDbVertex
100
AcDb2dVertex
10
45.097510840613
20
350.000000000000
30
0.0
0
VERTEX
5
99b
100
AcDbEntity
8
0-0
6
CONTINUOUS
62
  7
100
AcDbVertex
100
AcDb2dVertex
10
45.097510840613
20
370.000000000000
30
0.0
0
VERTEX
5
99c
100
AcDbEntity
8
0-0
6
CONTINUOUS
62
  7
100
AcDbVertex
100
AcDb2dVertex
10
43.097510840613
20
370.000000000000
30
0.0
0
SEQEND
5
99d
100
AcDbEntity
8
0-0
0
LINE
5
99e
100
AcDbEntity
8
0-0
6
CONTINUOUS
62
7
100
AcDbLine
10
42.097510840613
20
369.000000000000
30
0.0
11
42.097510840613
21
351.000000000000
31
0.0
0
LINE
5
99f
100
AcDbEntity
8
0-0
6
CONTINUOUS
62
7
100
AcDbLine
10
45.097510840613
20
357.600000000000
30
0.0
11
46.813211627486
21
357.689916068154
31
0.0
0
LINE
5
9a0
100
AcDbEntity
8
0-0
6
CONTINUOUS
62
7
100
AcDbLine
10
47.097510840613
20
357.989504928581
30
0.0
11
47.097510840613
21
367.010495071419
31
0.0
0
LINE
5
9a1
100
AcDbEntity
8
0-0
6
CONTINUOUS
62
7
100
AcDbLine
10
46.813211627486
20
367.310083931846
30
0.0
11
45.097510840613
21
367.400000000000
31
0.0
0
LINE
5
9a2
100
AcDbEntity
8
0-0
6
CONTINUOUS
62
7
100
AcDbLine
10
45.097510840613
20
365.966926212000
30
0.0
11
47.097510840613
21
365.966926212000
31
0.0
0
LINE
5
9a3
100
AcDbEntity
8
0-0
6
CONTINUOUS
62
7
100
AcDbLine
10
47.097510840613
20
365.900000000000
30
0.0
11
51.149846796856
21
365.687626071624
31
0.0
0
LINE
5
9a4
100
AcDbEntity
8
0-0
6
CONTINUOUS
62
7
100
AcDbLine
10
52.097510840613
20
364.688996536870
30
0.0
11
52.097510840613
21
363.646728266429
31
0.0
0
LINE
5
9a5
100
AcDbEntity
8
0-0
6
CONTINUOUS
62
7
100
AcDbLine
10
51.813211627486
20
363.347139406003
30
0.0
11
47.097510840613
21
363.100000000000
31
0.0
0
LINE
5
9a6
100
AcDbEntity
8
0-0
6
CONTINUOUS
62
7
100
AcDbLine
10
47.097510840613
20
361.900000000000
30
0.0
11
51.813211627486
21
361.652860593997
31
0.0
0
LINE
5
9a7
100
AcDbEntity
8
0-0
6
CONTINUOUS
62
7
100
AcDbLine
10
52.097510840613
20
361.353271733570
30
0.0
11
52.097510840613
21
360.311003463130
31
0.0
0
LINE
5
9a8
100
AcDbEntity
8
0-0
6
CONTINUOUS
62
7
100
AcDbLine
10
51.149846796856
20
359.312373928375
30
0.0
11
47.097510840613
21
359.100000000000
31
0.0
0
LINE
5
9a9
100
AcDbEntity
8
0-0
6
CONTINUOUS
62
7
100
AcDbLine
10
47.097510840613
20
359.033073788000
30
0.0
11
45.097510840613
21
359.033073788000
31
0.0
0
LINE
5
9aa
100
AcDbEntity
8
0-0
6
CONTINUOUS
62
7
100
AcDbLine
10
45.097510840613
20
360.059868707000
30
0.0
11
47.097510840613
21
360.059868707000
31
0.0
0
LINE
5
9ab
100
AcDbEntity
8
0-0
6
CONTINUOUS
62
7
100
AcDbLine
10
47.097510840613
20
364.940131293000
30
0.0
11
45.097510840613
21
364.940131293000
31
0.0
0
ARC
5
9ac
100
AcDbEntity
8
0-0
6
CONTINUOUS
62
7
100
AcDbCircle
10
5.300000000000
20
354.700000000000
30
0.0
40
0.300000000000
100
AcDbArc
50
90.000000000000
51
180.000000000000
0
ARC
5
9ad
100
AcDbEntity
8
0-0
6
CONTINUOUS
62
7
100
AcDbCircle
10
5.300000000000
20
352.300000000000
30
0.0
40
0.300000000000
100
AcDbArc
50
180.000000000000
51
270.000000000000
0
ARC
5
9ae
100
AcDbEntity
8
0-0
6
CONTINUOUS
62
7
100
AcDbCircle
10
12.700000000000
20
354.700000000000
30
0.0
40
0.300000000000
100
AcDbArc
50
0.000000000000
51
90.000000000000
0
ARC
5
9af
100
AcDbEntity
8
0-0
6
CONTINUOUS
62
7
100
AcDbCircle
10
12.700000000000
20
352.300000000000
30
0.0
40
0.300000000000
100
AcDbArc
50
270.000000000000
51
360.000000000000
0
CIRCLE
5
9b0
100
AcDbEntity
8
0-0
6
CONTINUOUS
62
7
100
AcDbCircle
10
7.500000000000
20
362.500000000000
30
0.0
40
3.550000000000
0
ARC
5
9b1
100
AcDbEntity
8
0-0
6
CONTINUOUS
62
7
100
AcDbCircle
10
14.000000000000
20
351.000000000000
30
0.0
40
1.000000000000
100
AcDbArc
50
270.000000000000
51
360.000000000000
0
ARC
5
9b2
100
AcDbEntity
8
0-0
6
CONTINUOUS
62
7
100
AcDbCircle
10
14.000000000000
20
369.000000000000
30
0.0
40
1.000000000000
100
AcDbArc
50
0.000000000000
51
90.000000000000
0
ARC
5
9b3
100
AcDbEntity
8
0-0
6
CONTINUOUS
62
7
100
AcDbCircle
10
1.000000000000
20
351.000000000000
30
0.0
40
1.000000000000
100
AcDbArc
50
180.000000000000
51
270.000000000000
0
ARC
5
9b4
100
AcDbEntity
8
0-0
6
CONTINUOUS
62
7
100
AcDbCircle
10
1.000000000000
20
369.000000000000
30
0.0
40
1.000000000000
100
AcDbArc
50
90.000000000000
51
180.000000000000
0
ARC
5
9b5
100
AcDbEntity
8
0-0
6
CONTINUOUS
62
7
100
AcDbCircle
10
7.500000000000
20
362.500000000000
30
0.0
40
2.302650000000
100
AcDbArc
50
257.525810000000
51
282.474180000000
0
ARC
5
9b6
100
AcDbEntity
8
0-0
6
CONTINUOUS
62
7
100
AcDbCircle
10
7.500000000000
20
362.500000000000
30
0.0
40
2.302650000000
100
AcDbArc
50
167.525720000000
51
192.474270000000
0
ARC
5
9b7
100
AcDbEntity
8
0-0
6
CONTINUOUS
62
7
100
AcDbCircle
10
7.500000000000
20
362.500000000000
30
0.0
40
2.302650000000
100
AcDbArc
50
77.525817000000
51
102.474180000000
0
ARC
5
9b8
100
AcDbEntity
8
0-0
6
CONTINUOUS
62
7
100
AcDbCircle
10
7.500000000000
20
362.500000000000
30
0.0
40
2.302650000000
100
AcDbArc
50
347.525720000000
51
372.474273000000
0
ARC
5
9b9
100
AcDbEntity
8
0-0
6
CONTINUOUS
62
7
100
AcDbCircle
10
6.265740000000
20
361.265760000000
30
0.0
40
0.736848000000
100
AcDbArc
50
0.000000000000
51
90.000000000000
0
ARC
5
9ba
100
AcDbEntity
8
0-0
6
CONTINUOUS
62
7
100
AcDbCircle
10
8.734220000000
20
361.265760000000
30
0.0
40
0.736848000000
100
AcDbArc
50
90.000000000000
51
180.000000000000
0
ARC
5
9bb
100
AcDbEntity
8
0-0
6
CONTINUOUS
62
7
100
AcDbCircle
10
8.734220000000
20
363.734190000000
30
0.0
40
0.736848000000
100
AcDbArc
50
180.000000000000
51
270.000000000000
0
ARC
5
9bc
100
AcDbEntity
8
0-0
6
CONTINUOUS
62
7
100
AcDbCircle
10
6.265740000000
20
363.734190000000
30
0.0
40
0.736848000000
100
AcDbArc
50
270.000000000000
51
360.000000000000
0
ARC
5
9bd
100
AcDbEntity
8
0-0
6
CONTINUOUS
62
7
100
AcDbCircle
10
9.314514253512
20
324.422814939848
30
0.0
40
1.500000000000
100
AcDbArc
50
270.000000000000
51
357.000000000000
0
ARC
5
9be
100
AcDbEntity
8
0-0
6
CONTINUOUS
62
7
100
AcDbCircle
10
5.685485746488
20
324.422814939848
30
0.0
40
1.500000000000
100
AcDbArc
50
183.000000000000
51
270.000000000000
0
ARC
5
9bf
100
AcDbEntity
8
0-0
6
CONTINUOUS
62
7
100
AcDbCircle
10
14.000000000000
20
331.922814939848
30
0.0
40
1.000000000000
100
AcDbArc
50
360.000000000000
51
450.000000000000
0
ARC
5
9c0
100
AcDbEntity
8
0-0
6
CONTINUOUS
62
7
100
AcDbCircle
10
1.000000000000
20
331.922814939848
30
0.0
40
1.000000000000
100
AcDbArc
50
90.000000000000
51
180.000000000000
0
ARC
5
9c1
100
AcDbEntity
8
0-0
6
CONTINUOUS
62
7
100
AcDbCircle
10
13.310495071419
20
328.222814939848
30
0.0
40
0.300000000000
100
AcDbArc
50
270.000000000000
51
357.000000000000
0
ARC
5
9c2
100
AcDbEntity
8
0-0
6
CONTINUOUS
62
7
100
AcDbCircle
10
1.689504928581
20
328.222814939848
30
0.0
40
0.300000000000
100
AcDbArc
50
183.000000000000
51
270.000000000000
0
ARC
5
9c3
100
AcDbEntity
8
0-0
6
CONTINUOUS
62
7
100
AcDbCircle
10
43.097510840613
20
351.000000000000
30
0.0
40
1.000000000000
100
AcDbArc
50
180.000000000000
51
270.000000000000
0
ARC
5
9c4
100
AcDbEntity
8
0-0
6
CONTINUOUS
62
7
100
AcDbCircle
10
51.797510840613
20
363.646728266429
30
0.0
40
0.300000000000
100
AcDbArc
50
272.999999999997
51
360.000000000000
0
ARC
5
9c5
100
AcDbEntity
8
0-0
6
CONTINUOUS
62
7
100
AcDbCircle
10
51.797510840613
20
361.353271733570
30
0.0
40
0.300000000000
100
AcDbArc
50
0.000000000000
51
86.999999999998
0
ARC
5
9c6
100
AcDbEntity
8
0-0
6
CONTINUOUS
62
7
100
AcDbCircle
10
43.097510840613
20
369.000000000000
30
0.0
40
1.000000000000
100
AcDbArc
50
90.000000000000
51
180.000000000000
0
ARC
5
9c7
100
AcDbEntity
8
0-0
6
CONTINUOUS
62
7
100
AcDbCircle
10
51.097510840613
20
364.688996536870
30
0.0
40
1.000000000000
100
AcDbArc
50
0.000000000000
51
87.000000000005
0
ARC
5
9c8
100
AcDbEntity
8
0-0
6
CONTINUOUS
62
7
100
AcDbCircle
10
51.097510840613
20
360.311003463130
30
0.0
40
1.000000000000
100
AcDbArc
50
273.000000000002
51
360.000000000000
0
ARC
5
9c9
100
AcDbEntity
8
0-0
6
CONTINUOUS
62
7
100
AcDbCircle
10
46.797510840613
20
367.010495071419
30
0.0
40
0.300000000000
100
AcDbArc
50
0.000000000000
51
87.000000000000
0
ARC
5
9ca
100
AcDbEntity
8
0-0
6
CONTINUOUS
62
7
100
AcDbCircle
10
46.797510840613
20
357.989504928581
30
0.0
40
0.300000000000
100
AcDbArc
50
273.000000000000
51
360.000000000000
0
POLYLINE
5
9cb
100
AcDbEntity
8
0-0
6
CONTINUOUS
62
  7
100
AcDb2dPolyline
66
1
10
0.0
20
0.0
30
0.0
70
0
0
VERTEX
5
9cc
100
AcDbEntity
8
0-0
6
CONTINUOUS
62
  7
100
AcDbVertex
100
AcDb2dVertex
10
7.356811237216
20
352.509611243045
30
0.0
0
VERTEX
5
9cd
100
AcDbEntity
8
0-0
6
CONTINUOUS
62
  7
100
AcDbVertex
100
AcDb2dVertex
10
7.356811237216
20
354.551172485645
30
0.0
0
VERTEX
5
9ce
100
AcDbEntity
8
0-0
6
CONTINUOUS
62
  7
100
AcDbVertex
100
AcDb2dVertex
10
8.786526028760
20
354.551172485645
30
0.0
0
VERTEX
5
9cf
100
AcDbEntity
8
0-0
6
CONTINUOUS
62
  7
100
AcDbVertex
100
AcDb2dVertex
10
8.786526028760
20
354.187214548894
30
0.0
0
VERTEX
5
9d0
100
AcDbEntity
8
0-0
6
CONTINUOUS
62
  7
100
AcDbVertex
100
AcDb2dVertex
10
7.864111322656
20
354.187214548894
30
0.0
0
VERTEX
5
9d1
100
AcDbEntity
8
0-0
6
CONTINUOUS
62
  7
100
AcDbVertex
100
AcDb2dVertex
10
7.864111322656
20
353.713770234955
30
0.0
0
VERTEX
5
9d2
100
AcDbEntity
8
0-0
6
CONTINUOUS
62
  7
100
AcDbVertex
100
AcDb2dVertex
10
8.698564997633
20
353.713770234955
30
0.0
0
VERTEX
5
9d3
100
AcDbEntity
8
0-0
6
CONTINUOUS
62
  7
100
AcDbVertex
100
AcDb2dVertex
10
8.698564997633
20
353.372119156975
30
0.0
0
VERTEX
5
9d4
100
AcDbEntity
8
0-0
6
CONTINUOUS
62
  7
100
AcDbVertex
100
AcDb2dVertex
10
7.864111322656
20
353.372119156975
30
0.0
0
VERTEX
5
9d5
100
AcDbEntity
8
0-0
6
CONTINUOUS
62
  7
100
AcDbVertex
100
AcDb2dVertex
10
7.864111322656
20
352.873569179825
30
0.0
0
VERTEX
5
9d6
100
AcDbEntity
8
0-0
6
CONTINUOUS
62
  7
100
AcDbVertex
100
AcDb2dVertex
10
8.786526028760
20
352.873569179825
30
0.0
0
VERTEX
5
9d7
100
AcDbEntity
8
0-0
6
CONTINUOUS
62
  7
100
AcDbVertex
100
AcDb2dVertex
10
8.786526028760
20
352.509611243045
30
0.0
0
VERTEX
5
9d8
100
AcDbEntity
8
0-0
6
CONTINUOUS
62
  7
100
AcDbVertex
100
AcDb2dVertex
10
7.356811237216
20
352.509611243045
30
0.0
0
SEQEND
5
9d9
100
AcDbEntity
8
0-0
0
POLYLINE
5
9da
100
AcDbEntity
8
0-0
6
CONTINUOUS
62
  7
100
AcDb2dPolyline
66
1
10
0.0
20
0.0
30
0.0
70
0
0
VERTEX
5
9db
100
AcDbEntity
8
0-0
6
CONTINUOUS
62
  7
100
AcDbVertex
100
AcDb2dVertex
10
6.964014931038
20
352.509611243045
30
0.0
0
VERTEX
5
9dc
100
AcDbEntity
8
0-0
6
CONTINUOUS
62
  7
100
AcDbVertex
100
AcDb2dVertex
10
5.534672154723
20
352.509611243045
30
0.0
0
VERTEX
5
9dd
100
AcDbEntity
8
0-0
6
CONTINUOUS
62
  7
100
AcDbVertex
100
AcDb2dVertex
10
5.534672154723
20
354.551172485645
30
0.0
0
VERTEX
5
9de
100
AcDbEntity
8
0-0
6
CONTINUOUS
62
  7
100
AcDbVertex
100
AcDb2dVertex
10
6.043777683123
20
354.551172485645
30
0.0
0
VERTEX
5
9df
100
AcDbEntity
8
0-0
6
CONTINUOUS
62
  7
100
AcDbVertex
100
AcDb2dVertex
10
6.043777683123
20
352.873569179825
30
0.0
0
VERTEX
5
9e0
100
AcDbEntity
8
0-0
6
CONTINUOUS
62
  7
100
AcDbVertex
100
AcDb2dVertex
10
6.964014931038
20
352.873569179825
30
0.0
0
VERTEX
5
9e1
100
AcDbEntity
8
0-0
6
CONTINUOUS
62
  7
100
AcDbVertex
100
AcDb2dVertex
10
6.964014931038
20
352.509611243045
30
0.0
0
SEQEND
5
9e2
100
AcDbEntity
8
0-0
0
LINE
5
9e3
100
AcDbEntity
8
0-0
6
CONTINUOUS
62
7
100
AcDbLine
10
10.092498802319
20
353.205797659085
30
0.0
11
10.623488207782
21
353.205797659085
31
0.0
0
LINE
5
9e4
100
AcDbEntity
8
0-0
6
CONTINUOUS
62
7
100
AcDbLine
10
10.610068711380
20
353.941458279125
30
0.0
11
10.089968065243
21
353.941458279125
31
0.0
0
ARC
5
9e5
100
AcDbEntity
8
0-0
6
CONTINUOUS
62
7
100
AcDbCircle
10
11.558519495466
20
353.530391864345
30
0.0
40
2.398986344497
100
AcDbArc
50
164.216002475893
51
195.783997524107
0
ARC
5
9e6
100
AcDbEntity
8
0-0
6
CONTINUOUS
62
7
100
AcDbCircle
10
15.795690093433
20
353.530391864341
30
0.0
40
6.092738949811
100
AcDbArc
50
176.789190081973
51
183.210809918027
0
ARC
5
9e7
100
AcDbEntity
8
0-0
6
CONTINUOUS
62
7
100
AcDbCircle
10
9.790609975918
20
353.065238192152
30
0.0
40
0.572178966339
100
AcDbArc
50
199.118120314094
51
253.770896322251
0
ARC
5
9e8
100
AcDbEntity
8
0-0
6
CONTINUOUS
62
7
100
AcDbCircle
10
9.902541180461
20
353.584735672748
30
0.0
40
1.102902967963
100
AcDbArc
50
255.730707223577
51
284.269292776423
0
ARC
5
9e9
100
AcDbEntity
8
0-0
6
CONTINUOUS
62
7
100
AcDbCircle
10
10.014472385003
20
353.065238192152
30
0.0
40
0.572178966339
100
AcDbArc
50
286.229103677749
51
340.881879685906
0
ARC
5
9ea
100
AcDbEntity
8
0-0
6
CONTINUOUS
62
7
100
AcDbCircle
10
8.246562865455
20
353.530391864345
30
0.0
40
2.398986344497
100
AcDbArc
50
344.216002475893
51
352.223758552802
0
ARC
5
9eb
100
AcDbEntity
8
0-0
6
CONTINUOUS
62
7
100
AcDbCircle
10
9.902541180461
20
352.997740719942
30
0.0
40
0.165862986421
100
AcDbArc
50
198.780934832589
51
341.219065167411
0
ARC
5
9ec
100
AcDbEntity
8
0-0
6
CONTINUOUS
62
7
100
AcDbCircle
10
9.166332587189
20
353.189630145232
30
0.0
40
0.926307317553
100
AcDbArc
50
344.644741742154
51
361.000075600875
0
ARC
5
9ed
100
AcDbEntity
8
0-0
6
CONTINUOUS
62
7
100
AcDbCircle
10
10.638749773732
20
353.189630145232
30
0.0
40
0.926307317553
100
AcDbArc
50
179.280775692595
51
195.355258257846
0
ARC
5
9ee
100
AcDbEntity
8
0-0
6
CONTINUOUS
62
7
100
AcDbCircle
10
9.902541180461
20
354.063043008749
30
0.0
40
0.165862986421
100
AcDbArc
50
18.780934832589
51
161.219065167411
0
ARC
5
9ef
100
AcDbEntity
8
0-0
6
CONTINUOUS
62
7
100
AcDbCircle
10
10.638749773732
20
353.871153583459
30
0.0
40
0.926307317553
100
AcDbArc
50
164.644741742154
51
180.719224307405
0
ARC
5
9f0
100
AcDbEntity
8
0-0
6
CONTINUOUS
62
7
100
AcDbCircle
10
9.166332587189
20
353.871153583459
30
0.0
40
0.926307317553
100
AcDbArc
50
4.352810002801
51
15.355258257846
0
ARC
5
9f1
100
AcDbEntity
8
0-0
6
CONTINUOUS
62
7
100
AcDbCircle
10
10.014472385003
20
353.995545536538
30
0.0
40
0.572178966339
100
AcDbArc
50
19.118120314094
51
73.770896322251
0
ARC
5
9f2
100
AcDbEntity
8
0-0
6
CONTINUOUS
62
7
100
AcDbCircle
10
8.246562865455
20
353.530391864345
30
0.0
40
2.398986344497
100
AcDbArc
50
9.866322719821
51
15.783997524107
0
ARC
5
9f3
100
AcDbEntity
8
0-0
6
CONTINUOUS
62
7
100
AcDbCircle
10
9.902541180461
20
353.476048055943
30
0.0
40
1.102902967963
100
AcDbArc
50
75.730707223577
51
104.269292776423
0
ARC
5
9f4
100
AcDbEntity
8
0-0
6
CONTINUOUS
62
7
100
AcDbCircle
10
9.790609975918
20
353.995545536538
30
0.0
40
0.572178966339
100
AcDbArc
50
106.229103677749
51
160.881879685906
0
ARC
5
9f5
100
AcDbEntity
8
0-0
6
CONTINUOUS
62
7
100
AcDbCircle
10
13.347811795496
20
353.530391864345
30
0.0
40
2.398986344497
100
AcDbArc
50
164.216002475893
51
195.783997524107
0
ARC
5
9f6
100
AcDbEntity
8
0-0
6
CONTINUOUS
62
7
100
AcDbCircle
10
17.584982393463
20
353.530391864341
30
0.0
40
6.092738949811
100
AcDbArc
50
176.789190081973
51
183.210809918027
0
ARC
5
9f7
100
AcDbEntity
8
0-0
6
CONTINUOUS
62
7
100
AcDbCircle
10
5.798684567517
20
353.530391864341
30
0.0
40
6.092738949811
100
AcDbArc
50
356.789190081973
51
363.210809918027
0
ARC
5
9f8
100
AcDbEntity
8
0-0
6
CONTINUOUS
62
7
100
AcDbCircle
10
11.691833480490
20
352.997740719942
30
0.0
40
0.165862986421
100
AcDbArc
50
198.780934832589
51
341.219065167411
0
ARC
5
9f9
100
AcDbEntity
8
0-0
6
CONTINUOUS
62
7
100
AcDbCircle
10
11.691833480490
20
353.584735672748
30
0.0
40
1.102902967963
100
AcDbArc
50
255.730707223577
51
284.269292776423
0
ARC
5
9fa
100
AcDbEntity
8
0-0
6
CONTINUOUS
62
7
100
AcDbCircle
10
11.803764685032
20
353.065238192152
30
0.0
40
0.572178966339
100
AcDbArc
50
286.229103677749
51
340.881879685906
0
ARC
5
9fb
100
AcDbEntity
8
0-0
6
CONTINUOUS
62
7
100
AcDbCircle
10
11.579902275948
20
353.065238192152
30
0.0
40
0.572178966339
100
AcDbArc
50
199.118120314094
51
253.770896322251
0
ARC
5
9fc
100
AcDbEntity
8
0-0
6
CONTINUOUS
62
7
100
AcDbCircle
10
10.035855165484
20
353.530391864345
30
0.0
40
2.398986344497
100
AcDbArc
50
344.216002475893
51
375.783997524107
0
ARC
5
9fd
100
AcDbEntity
8
0-0
6
CONTINUOUS
62
7
100
AcDbCircle
10
10.955624887219
20
353.189630145232
30
0.0
40
0.926307317553
100
AcDbArc
50
344.644741742154
51
360.719224307405
0
ARC
5
9fe
100
AcDbEntity
8
0-0
6
CONTINUOUS
62
7
100
AcDbCircle
10
12.428042073761
20
353.189630145232
30
0.0
40
0.926307317553
100
AcDbArc
50
179.280775692595
51
195.355258257846
0
ARC
5
9ff
100
AcDbEntity
8
0-0
6
CONTINUOUS
62
7
100
AcDbCircle
10
12.428042073761
20
353.871153583459
30
0.0
40
0.926307317553
100
AcDbArc
50
164.644741742154
51
180.719224307405
0
ARC
5
a00
100
AcDbEntity
8
0-0
6
CONTINUOUS
62
7
100
AcDbCircle
10
11.691833480490
20
354.063043008749
30
0.0
40
0.165862986421
100
AcDbArc
50
18.780934832589
51
161.219065167411
0
ARC
5
a01
100
AcDbEntity
8
0-0
6
CONTINUOUS
62
7
100
AcDbCircle
10
10.955624887219
20
353.871153583459
30
0.0
40
0.926307317553
100
AcDbArc
50
359.280775692595
51
375.355258257846
0
ARC
5
a02
100
AcDbEntity
8
0-0
6
CONTINUOUS
62
7
100
AcDbCircle
10
11.691833480490
20
353.476048055943
30
0.0
40
1.102902967963
100
AcDbArc
50
75.730707223577
51
104.269292776423
0
ARC
5
a03
100
AcDbEntity
8
0-0
6
CONTINUOUS
62
7
100
AcDbCircle
10
11.579902275948
20
353.995545536538
30
0.0
40
0.572178966339
100
AcDbArc
50
106.229103677749
51
160.881879685906
0
ARC
5
a04
100
AcDbEntity
8
0-0
6
CONTINUOUS
62
7
100
AcDbCircle
10
11.803764685032
20
353.995545536538
30
0.0
40
0.572178966339
100
AcDbArc
50
19.118120314094
51
73.770896322251
0
TEXT
5
a05
100
AcDbEntity
8
0-0
62
7
370
-3
100
AcDbText
10
0.691
20
345.711
30
0.0
40
3.618
1
E12M
41
0.410
50
0.000
100
AcDbText
0
TEXT
5
a06
100
AcDbEntity
8
0-0
62
7
370
-3
100
AcDbText
10
150.517
20
344.404
30
0.0
40
3.618
1
E152  E152S
41
0.435
50
0.000
100
AcDbText
0
LINE
5
a07
100
AcDbEntity
8
0-0
6
CONTINUOUS
62
7
100
AcDbLine
10
164.314514253513
20
323.000000000000
30
0.0
11
160.685485746488
21
323.000000000000
31
0.0
0
LINE
5
a08
100
AcDbEntity
8
0-0
6
CONTINUOUS
62
7
100
AcDbLine
10
159.187541444356
20
324.421496065635
30
0.0
11
159.000000000000
21
328.000000000000
31
0.0
0
LINE
5
a09
100
AcDbEntity
8
0-0
6
CONTINUOUS
62
7
100
AcDbLine
10
157.900000000000
20
328.000000000000
30
0.0
11
167.100000000000
21
328.000000000000
31
0.0
0
LINE
5
a0a
100
AcDbEntity
8
0-0
6
CONTINUOUS
62
7
100
AcDbLine
10
175.000000000000
20
332.000000000000
30
0.0
11
175.000000000000
21
330.000000000000
31
0.0
0
LINE
5
a0b
100
AcDbEntity
8
0-0
6
CONTINUOUS
62
7
100
AcDbLine
10
166.000000000000
20
328.000000000000
30
0.0
11
165.812458555645
21
324.421496065635
31
0.0
0
LINE
5
a0c
100
AcDbEntity
8
0-0
6
CONTINUOUS
62
7
100
AcDbLine
10
150.000000000000
20
330.000000000000
30
0.0
11
150.000000000000
21
332.000000000000
31
0.0
0
LINE
5
a0d
100
AcDbEntity
8
0-0
6
CONTINUOUS
62
7
100
AcDbLine
10
151.000000000000
20
333.000000000000
30
0.0
11
174.000000000000
21
333.000000000000
31
0.0
0
ARC
5
a0e
100
AcDbEntity
8
0-0
6
CONTINUOUS
62
7
100
AcDbCircle
10
167.100000000000
20
328.300000000000
30
0.0
40
0.300000000000
100
AcDbArc
50
270.000000000000
51
360.000000000000
0
ARC
5
a0f
100
AcDbEntity
8
0-0
6
CONTINUOUS
62
7
100
AcDbCircle
10
157.900000000000
20
328.300000000000
30
0.0
40
0.300000000000
100
AcDbArc
50
180.000000000000
51
270.000000000000
0
ARC
5
a10
100
AcDbEntity
8
0-0
6
CONTINUOUS
62
7
100
AcDbCircle
10
164.314514253513
20
324.500000000000
30
0.0
40
1.500000000000
100
AcDbArc
50
270.000000000000
51
357.000000000000
0
ARC
5
a11
100
AcDbEntity
8
0-0
6
CONTINUOUS
62
7
100
AcDbCircle
10
160.685485746488
20
324.500000000000
30
0.0
40
1.500000000000
100
AcDbArc
50
183.000000000000
51
270.000000000000
0
ARC
5
a12
100
AcDbEntity
8
0-0
6
CONTINUOUS
62
7
100
AcDbCircle
10
174.000000000000
20
332.000000000000
30
0.0
40
1.000000000000
100
AcDbArc
50
0.000000000000
51
90.000000000000
0
ARC
5
a13
100
AcDbEntity
8
0-0
6
CONTINUOUS
62
7
100
AcDbCircle
10
151.000000000000
20
332.000000000000
30
0.0
40
1.000000000000
100
AcDbArc
50
90.000000000000
51
180.000000000000
0
LINE
5
a14
100
AcDbEntity
8
0-0
6
CONTINUOUS
62
7
100
AcDbLine
10
175.000000000000
20
330.000000000000
30
0.0
11
150.000000000000
21
330.000000000000
31
0.0
0
LINE
5
a15
100
AcDbEntity
8
0-0
6
CONTINUOUS
62
7
100
AcDbLine
10
167.400000000001
20
330.000000000000
30
0.0
11
167.400000000001
21
328.300000000000
31
0.0
0
LINE
5
a16
100
AcDbEntity
8
0-0
6
CONTINUOUS
62
7
100
AcDbLine
10
157.600000000000
20
330.000000000000
30
0.0
11
157.600000000000
21
328.300000000000
31
0.0
0
TEXT
5
a17
100
AcDbEntity
8
0-0
62
7
370
-3
100
AcDbText
10
300.644
20
345.762
30
0.0
40
3.618
1
E153 E153S
41
0.433
50
0.000
100
AcDbText
0
LINE
5
a18
100
AcDbEntity
8
0-0
6
CONTINUOUS
62
7
100
AcDbLine
10
302.444731626721
20
326.284299213127
30
0.0
11
302.250000000000
21
330.000000000000
31
0.0
0
LINE
5
a19
100
AcDbEntity
8
0-0
6
CONTINUOUS
62
7
100
AcDbLine
10
304.750000000000
20
330.000000000000
30
0.0
11
304.555268373280
21
326.284299213127
31
0.0
0
LINE
5
a1a
100
AcDbEntity
8
0-0
6
CONTINUOUS
62
7
100
AcDbLine
10
302.744320487147
20
326.000000000000
30
0.0
11
304.255679512853
21
326.000000000000
31
0.0
0
LINE
5
a1b
100
AcDbEntity
8
0-0
6
CONTINUOUS
62
7
100
AcDbLine
10
325.250000000000
20
330.000000000000
30
0.0
11
325.444731626720
21
326.284299213127
31
0.0
0
LINE
5
a1c
100
AcDbEntity
8
0-0
6
CONTINUOUS
62
7
100
AcDbLine
10
327.255679512853
20
326.000000000000
30
0.0
11
325.744320487147
21
326.000000000000
31
0.0
0
LINE
5
a1d
100
AcDbEntity
8
0-0
6
CONTINUOUS
62
7
100
AcDbLine
10
327.555268373279
20
326.284299213127
30
0.0
11
327.750000000000
21
330.000000000000
31
0.0
0
POLYLINE
5
a1e
100
AcDbEntity
8
0-0
6
CONTINUOUS
62
  7
100
AcDb2dPolyline
66
1
10
0.0
20
0.0
30
0.0
70
0
0
VERTEX
5
a1f
100
AcDbEntity
8
0-0
6
CONTINUOUS
62
  7
100
AcDbVertex
100
AcDb2dVertex
10
330.000000000000
20
330.000000000000
30
0.0
0
VERTEX
5
a20
100
AcDbEntity
8
0-0
6
CONTINUOUS
62
  7
100
AcDbVertex
100
AcDb2dVertex
10
300.000000000000
20
330.000000000000
30
0.0
0
VERTEX
5
a21
100
AcDbEntity
8
0-0
6
CONTINUOUS
62
  7
100
AcDbVertex
100
AcDb2dVertex
10
300.000000000000
20
332.000000000000
30
0.0
0
SEQEND
5
a22
100
AcDbEntity
8
0-0
0
LINE
5
a23
100
AcDbEntity
8
0-0
6
CONTINUOUS
62
7
100
AcDbLine
10
301.000000000000
20
333.000000000000
30
0.0
11
329.000000000000
21
333.000000000000
31
0.0
0
LINE
5
a24
100
AcDbEntity
8
0-0
6
CONTINUOUS
62
7
100
AcDbLine
10
330.000000000000
20
332.000000000000
30
0.0
11
330.000000000000
21
330.000000000000
31
0.0
0
ARC
5
a25
100
AcDbEntity
8
0-0
6
CONTINUOUS
62
7
100
AcDbCircle
10
301.000000000000
20
332.000000000000
30
0.0
40
1.000000000000
100
AcDbArc
50
90.000000000000
51
180.000000000000
0
ARC
5
a26
100
AcDbEntity
8
0-0
6
CONTINUOUS
62
7
100
AcDbCircle
10
329.000000000000
20
332.000000000000
30
0.0
40
1.000000000000
100
AcDbArc
50
0.000000000000
51
90.000000000000
0
ARC
5
a27
100
AcDbEntity
8
0-0
6
CONTINUOUS
62
7
100
AcDbCircle
10
302.744320487147
20
326.300000000000
30
0.0
40
0.300000000000
100
AcDbArc
50
183.000000000002
51
270.000000000000
0
ARC
5
a28
100
AcDbEntity
8
0-0
6
CONTINUOUS
62
7
100
AcDbCircle
10
304.255679512853
20
326.300000000000
30
0.0
40
0.300000000000
100
AcDbArc
50
270.000000000000
51
357.000000000000
0
ARC
5
a29
100
AcDbEntity
8
0-0
6
CONTINUOUS
62
7
100
AcDbCircle
10
325.744320487147
20
326.300000000000
30
0.0
40
0.300000000000
100
AcDbArc
50
183.000000000000
51
270.000000000000
0
ARC
5
a2a
100
AcDbEntity
8
0-0
6
CONTINUOUS
62
7
100
AcDbCircle
10
327.255679512853
20
326.300000000000
30
0.0
40
0.300000000000
100
AcDbArc
50
270.000000000000
51
356.999999999998
0
LINE
5
a2b
100
AcDbEntity
8
0-0
6
CONTINUOUS
62
7
100
AcDbLine
10
326.010068711380
20
353.541458279125
30
0.0
11
325.489968065243
21
353.541458279125
31
0.0
0
LINE
5
a2c
100
AcDbEntity
8
0-0
6
CONTINUOUS
62
7
100
AcDbLine
10
325.492498802319
20
352.805797659085
30
0.0
11
326.023488207781
21
352.805797659085
31
0.0
0
POLYLINE
5
a2d
100
AcDbEntity
8
0-0
6
CONTINUOUS
62
  7
100
AcDb2dPolyline
66
1
10
0.0
20
0.0
30
0.0
70
0
0
VERTEX
5
a2e
100
AcDbEntity
8
0-0
6
CONTINUOUS
62
  7
100
AcDbVertex
100
AcDb2dVertex
10
324.098564997633
20
352.972119156975
30
0.0
0
VERTEX
5
a2f
100
AcDbEntity
8
0-0
6
CONTINUOUS
62
  7
100
AcDbVertex
100
AcDb2dVertex
10
323.264111322655
20
352.972119156975
30
0.0
0
VERTEX
5
a30
100
AcDbEntity
8
0-0
6
CONTINUOUS
62
  7
100
AcDbVertex
100
AcDb2dVertex
10
323.264111322655
20
352.473569179825
30
0.0
0
VERTEX
5
a31
100
AcDbEntity
8
0-0
6
CONTINUOUS
62
  7
100
AcDbVertex
100
AcDb2dVertex
10
324.186526028760
20
352.473569179825
30
0.0
0
VERTEX
5
a32
100
AcDbEntity
8
0-0
6
CONTINUOUS
62
  7
100
AcDbVertex
100
AcDb2dVertex
10
324.186526028760
20
352.109611243045
30
0.0
0
VERTEX
5
a33
100
AcDbEntity
8
0-0
6
CONTINUOUS
62
  7
100
AcDbVertex
100
AcDb2dVertex
10
322.756811237216
20
352.109611243045
30
0.0
0
VERTEX
5
a34
100
AcDbEntity
8
0-0
6
CONTINUOUS
62
  7
100
AcDbVertex
100
AcDb2dVertex
10
322.756811237216
20
354.151172485645
30
0.0
0
VERTEX
5
a35
100
AcDbEntity
8
0-0
6
CONTINUOUS
62
  7
100
AcDbVertex
100
AcDb2dVertex
10
324.186526028760
20
354.151172485645
30
0.0
0
VERTEX
5
a36
100
AcDbEntity
8
0-0
6
CONTINUOUS
62
  7
100
AcDbVertex
100
AcDb2dVertex
10
324.186526028760
20
353.787214548894
30
0.0
0
VERTEX
5
a37
100
AcDbEntity
8
0-0
6
CONTINUOUS
62
  7
100
AcDbVertex
100
AcDb2dVertex
10
323.264111322655
20
353.787214548894
30
0.0
0
VERTEX
5
a38
100
AcDbEntity
8
0-0
6
CONTINUOUS
62
  7
100
AcDbVertex
100
AcDb2dVertex
10
323.264111322655
20
353.313770234955
30
0.0
0
VERTEX
5
a39
100
AcDbEntity
8
0-0
6
CONTINUOUS
62
  7
100
AcDbVertex
100
AcDb2dVertex
10
324.098564997633
20
353.313770234955
30
0.0
0
VERTEX
5
a3a
100
AcDbEntity
8
0-0
6
CONTINUOUS
62
  7
100
AcDbVertex
100
AcDb2dVertex
10
324.098564997633
20
352.972119156975
30
0.0
0
SEQEND
5
a3b
100
AcDbEntity
8
0-0
0
POLYLINE
5
a3c
100
AcDbEntity
8
0-0
6
CONTINUOUS
62
  7
100
AcDb2dPolyline
66
1
10
0.0
20
0.0
30
0.0
70
0
0
VERTEX
5
a3d
100
AcDbEntity
8
0-0
6
CONTINUOUS
62
  7
100
AcDbVertex
100
AcDb2dVertex
10
322.364014931037
20
352.473569179825
30
0.0
0
VERTEX
5
a3e
100
AcDbEntity
8
0-0
6
CONTINUOUS
62
  7
100
AcDbVertex
100
AcDb2dVertex
10
322.364014931037
20
352.109611243045
30
0.0
0
VERTEX
5
a3f
100
AcDbEntity
8
0-0
6
CONTINUOUS
62
  7
100
AcDbVertex
100
AcDb2dVertex
10
320.934672154723
20
352.109611243045
30
0.0
0
VERTEX
5
a40
100
AcDbEntity
8
0-0
6
CONTINUOUS
62
  7
100
AcDbVertex
100
AcDb2dVertex
10
320.934672154723
20
354.151172485645
30
0.0
0
VERTEX
5
a41
100
AcDbEntity
8
0-0
6
CONTINUOUS
62
  7
100
AcDbVertex
100
AcDb2dVertex
10
321.443777683123
20
354.151172485645
30
0.0
0
VERTEX
5
a42
100
AcDbEntity
8
0-0
6
CONTINUOUS
62
  7
100
AcDbVertex
100
AcDb2dVertex
10
321.443777683123
20
352.473569179825
30
0.0
0
VERTEX
5
a43
100
AcDbEntity
8
0-0
6
CONTINUOUS
62
  7
100
AcDbVertex
100
AcDb2dVertex
10
322.364014931037
20
352.473569179825
30
0.0
0
SEQEND
5
a44
100
AcDbEntity
8
0-0
0
ARC
5
a45
100
AcDbEntity
8
0-0
6
CONTINUOUS
62
7
100
AcDbCircle
10
326.958519495467
20
353.130391864345
30
0.0
40
2.398986344497
100
AcDbArc
50
164.216002475893
51
195.783997524107
0
ARC
5
a46
100
AcDbEntity
8
0-0
6
CONTINUOUS
62
7
100
AcDbCircle
10
331.195690093433
20
353.130391864341
30
0.0
40
6.092738949811
100
AcDbArc
50
176.789190081973
51
183.210809918027
0
ARC
5
a47
100
AcDbEntity
8
0-0
6
CONTINUOUS
62
7
100
AcDbCircle
10
325.190609975919
20
352.665238192152
30
0.0
40
0.572178966339
100
AcDbArc
50
199.118120314094
51
253.770896322251
0
ARC
5
a48
100
AcDbEntity
8
0-0
6
CONTINUOUS
62
7
100
AcDbCircle
10
325.302541180460
20
353.184735672748
30
0.0
40
1.102902967963
100
AcDbArc
50
255.730707223577
51
284.269292776423
0
ARC
5
a49
100
AcDbEntity
8
0-0
6
CONTINUOUS
62
7
100
AcDbCircle
10
325.414472385002
20
352.665238192152
30
0.0
40
0.572178966339
100
AcDbArc
50
286.229103677749
51
340.881879685906
0
ARC
5
a4a
100
AcDbEntity
8
0-0
6
CONTINUOUS
62
7
100
AcDbCircle
10
323.646562865454
20
353.130391864345
30
0.0
40
2.398986344497
100
AcDbArc
50
344.216002475893
51
352.223758552802
0
ARC
5
a4b
100
AcDbEntity
8
0-0
6
CONTINUOUS
62
7
100
AcDbCircle
10
325.302541180460
20
352.597740719942
30
0.0
40
0.165862986421
100
AcDbArc
50
198.780934832589
51
341.219065167411
0
ARC
5
a4c
100
AcDbEntity
8
0-0
6
CONTINUOUS
62
7
100
AcDbCircle
10
324.566332587189
20
352.789630145232
30
0.0
40
0.926307317553
100
AcDbArc
50
344.644741742154
51
361.000075600875
0
ARC
5
a4d
100
AcDbEntity
8
0-0
6
CONTINUOUS
62
7
100
AcDbCircle
10
326.038749773732
20
352.789630145232
30
0.0
40
0.926307317553
100
AcDbArc
50
179.280775692595
51
195.355258257846
0
ARC
5
a4e
100
AcDbEntity
8
0-0
6
CONTINUOUS
62
7
100
AcDbCircle
10
325.302541180460
20
353.663043008749
30
0.0
40
0.165862986421
100
AcDbArc
50
18.780934832589
51
161.219065167411
0
ARC
5
a4f
100
AcDbEntity
8
0-0
6
CONTINUOUS
62
7
100
AcDbCircle
10
326.038749773732
20
353.471153583459
30
0.0
40
0.926307317553
100
AcDbArc
50
164.644741742154
51
180.719224307405
0
ARC
5
a50
100
AcDbEntity
8
0-0
6
CONTINUOUS
62
7
100
AcDbCircle
10
324.566332587189
20
353.471153583459
30
0.0
40
0.926307317553
100
AcDbArc
50
4.352810002801
51
15.355258257846
0
ARC
5
a51
100
AcDbEntity
8
0-0
6
CONTINUOUS
62
7
100
AcDbCircle
10
325.414472385002
20
353.595545536538
30
0.0
40
0.572178966339
100
AcDbArc
50
19.118120314094
51
73.770896322251
0
ARC
5
a52
100
AcDbEntity
8
0-0
6
CONTINUOUS
62
7
100
AcDbCircle
10
323.646562865454
20
353.130391864345
30
0.0
40
2.398986344497
100
AcDbArc
50
9.866322719821
51
15.783997524107
0
ARC
5
a53
100
AcDbEntity
8
0-0
6
CONTINUOUS
62
7
100
AcDbCircle
10
325.302541180460
20
353.076048055943
30
0.0
40
1.102902967963
100
AcDbArc
50
75.730707223577
51
104.269292776423
0
ARC
5
a54
100
AcDbEntity
8
0-0
6
CONTINUOUS
62
7
100
AcDbCircle
10
325.190609975919
20
353.595545536538
30
0.0
40
0.572178966339
100
AcDbArc
50
106.229103677749
51
160.881879685906
0
ARC
5
a55
100
AcDbEntity
8
0-0
6
CONTINUOUS
62
7
100
AcDbCircle
10
328.747811795496
20
353.130391864345
30
0.0
40
2.398986344497
100
AcDbArc
50
164.216002475893
51
195.783997524107
0
ARC
5
a56
100
AcDbEntity
8
0-0
6
CONTINUOUS
62
7
100
AcDbCircle
10
332.984982393463
20
353.130391864341
30
0.0
40
6.092738949811
100
AcDbArc
50
176.789190081973
51
183.210809918027
0
ARC
5
a57
100
AcDbEntity
8
0-0
6
CONTINUOUS
62
7
100
AcDbCircle
10
321.198684567517
20
353.130391864341
30
0.0
40
6.092738949811
100
AcDbArc
50
356.789190081973
51
363.210809918027
0
ARC
5
a58
100
AcDbEntity
8
0-0
6
CONTINUOUS
62
7
100
AcDbCircle
10
327.091833480490
20
352.597740719942
30
0.0
40
0.165862986421
100
AcDbArc
50
198.780934832589
51
341.219065167411
0
ARC
5
a59
100
AcDbEntity
8
0-0
6
CONTINUOUS
62
7
100
AcDbCircle
10
327.091833480490
20
353.184735672748
30
0.0
40
1.102902967963
100
AcDbArc
50
255.730707223577
51
284.269292776423
0
ARC
5
a5a
100
AcDbEntity
8
0-0
6
CONTINUOUS
62
7
100
AcDbCircle
10
327.203764685032
20
352.665238192152
30
0.0
40
0.572178966339
100
AcDbArc
50
286.229103677749
51
340.881879685906
0
ARC
5
a5b
100
AcDbEntity
8
0-0
6
CONTINUOUS
62
7
100
AcDbCircle
10
326.979902275948
20
352.665238192152
30
0.0
40
0.572178966339
100
AcDbArc
50
199.118120314094
51
253.770896322251
0
ARC
5
a5c
100
AcDbEntity
8
0-0
6
CONTINUOUS
62
7
100
AcDbCircle
10
325.435855165484
20
353.130391864345
30
0.0
40
2.398986344497
100
AcDbArc
50
344.216002475893
51
375.783997524107
0
ARC
5
a5d
100
AcDbEntity
8
0-0
6
CONTINUOUS
62
7
100
AcDbCircle
10
326.355624887218
20
352.789630145232
30
0.0
40
0.926307317553
100
AcDbArc
50
344.644741742154
51
360.719224307405
0
ARC
5
a5e
100
AcDbEntity
8
0-0
6
CONTINUOUS
62
7
100
AcDbCircle
10
327.828042073761
20
352.789630145232
30
0.0
40
0.926307317553
100
AcDbArc
50
179.280775692595
51
195.355258257846
0
ARC
5
a5f
100
AcDbEntity
8
0-0
6
CONTINUOUS
62
7
100
AcDbCircle
10
327.828042073761
20
353.471153583459
30
0.0
40
0.926307317553
100
AcDbArc
50
164.644741742154
51
180.719224307405
0
ARC
5
a60
100
AcDbEntity
8
0-0
6
CONTINUOUS
62
7
100
AcDbCircle
10
327.091833480490
20
353.663043008749
30
0.0
40
0.165862986421
100
AcDbArc
50
18.780934832589
51
161.219065167411
0
ARC
5
a61
100
AcDbEntity
8
0-0
6
CONTINUOUS
62
7
100
AcDbCircle
10
326.355624887218
20
353.471153583459
30
0.0
40
0.926307317553
100
AcDbArc
50
359.280775692595
51
375.355258257846
0
ARC
5
a62
100
AcDbEntity
8
0-0
6
CONTINUOUS
62
7
100
AcDbCircle
10
327.091833480490
20
353.076048055943
30
0.0
40
1.102902967963
100
AcDbArc
50
75.730707223577
51
104.269292776423
0
ARC
5
a63
100
AcDbEntity
8
0-0
6
CONTINUOUS
62
7
100
AcDbCircle
10
326.979902275948
20
353.595545536538
30
0.0
40
0.572178966339
100
AcDbArc
50
106.229103677749
51
160.881879685906
0
ARC
5
a64
100
AcDbEntity
8
0-0
6
CONTINUOUS
62
7
100
AcDbCircle
10
327.203764685032
20
353.595545536538
30
0.0
40
0.572178966339
100
AcDbArc
50
19.118120314094
51
73.770896322251
0
LINE
5
a65
100
AcDbEntity
8
0-0
6
CONTINUOUS
62
7
100
AcDbLine
10
328.400000000000
20
351.900000000000
30
0.0
11
328.400000000000
21
354.300000000000
31
0.0
0
LINE
5
a66
100
AcDbEntity
8
0-0
6
CONTINUOUS
62
7
100
AcDbLine
10
328.100000000000
20
351.600000000000
30
0.0
11
320.700000000000
21
351.600000000000
31
0.0
0
LINE
5
a67
100
AcDbEntity
8
0-0
6
CONTINUOUS
62
7
100
AcDbLine
10
320.400000000000
20
351.900000000000
30
0.0
11
320.400000000000
21
354.300000000000
31
0.0
0
LINE
5
a68
100
AcDbEntity
8
0-0
6
CONTINUOUS
62
7
100
AcDbLine
10
320.700000000000
20
354.600000000000
30
0.0
11
328.100000000000
21
354.600000000000
31
0.0
0
LINE
5
a69
100
AcDbEntity
8
0-0
6
CONTINUOUS
62
7
100
AcDbLine
10
301.000000000000
20
350.000000000000
30
0.0
11
329.000000000000
21
350.000000000000
31
0.0
0
LINE
5
a6a
100
AcDbEntity
8
0-0
6
CONTINUOUS
62
7
100
AcDbLine
10
330.000000000000
20
364.000000000000
30
0.0
11
330.000000000000
21
351.000000000000
31
0.0
0
LINE
5
a6b
100
AcDbEntity
8
0-0
6
CONTINUOUS
62
7
100
AcDbLine
10
300.000000000000
20
351.000000000000
30
0.0
11
300.000000000000
21
364.000000000000
31
0.0
0
LINE
5
a6c
100
AcDbEntity
8
0-0
6
CONTINUOUS
62
7
100
AcDbLine
10
329.000000000000
20
365.000000000000
30
0.0
11
301.000000000000
21
365.000000000000
31
0.0
0
ARC
5
a6d
100
AcDbEntity
8
0-0
6
CONTINUOUS
62
7
100
AcDbCircle
10
329.000000000000
20
364.000000000000
30
0.0
40
1.000000000000
100
AcDbArc
50
0.000000000000
51
90.000000000000
0
ARC
5
a6e
100
AcDbEntity
8
0-0
6
CONTINUOUS
62
7
100
AcDbCircle
10
329.000000000000
20
351.000000000000
30
0.0
40
1.000000000000
100
AcDbArc
50
270.000000000000
51
360.000000000000
0
ARC
5
a6f
100
AcDbEntity
8
0-0
6
CONTINUOUS
62
7
100
AcDbCircle
10
301.000000000000
20
364.000000000000
30
0.0
40
1.000000000000
100
AcDbArc
50
90.000000000000
51
180.000000000000
0
ARC
5
a70
100
AcDbEntity
8
0-0
6
CONTINUOUS
62
7
100
AcDbCircle
10
301.000000000000
20
351.000000000000
30
0.0
40
1.000000000000
100
AcDbArc
50
180.000000000000
51
270.000000000000
0
ARC
5
a71
100
AcDbEntity
8
0-0
6
CONTINUOUS
62
7
100
AcDbCircle
10
320.700000000000
20
351.900000000000
30
0.0
40
0.300000000000
100
AcDbArc
50
180.000000000000
51
270.000000000000
0
ARC
5
a72
100
AcDbEntity
8
0-0
6
CONTINUOUS
62
7
100
AcDbCircle
10
320.700000000000
20
354.300000000000
30
0.0
40
0.300000000000
100
AcDbArc
50
90.000000000000
51
180.000000000000
0
ARC
5
a73
100
AcDbEntity
8
0-0
6
CONTINUOUS
62
7
100
AcDbCircle
10
328.100000000000
20
354.300000000000
30
0.0
40
0.300000000000
100
AcDbArc
50
0.000000000000
51
90.000000000000
0
ARC
5
a74
100
AcDbEntity
8
0-0
6
CONTINUOUS
62
7
100
AcDbCircle
10
328.100000000000
20
351.900000000000
30
0.0
40
0.300000000000
100
AcDbArc
50
270.000000000000
51
360.000000000000
0
TEXT
5
a75
100
AcDbEntity
8
0-0
62
7
370
-3
100
AcDbText
10
450.581
20
345.984
30
0.0
40
3.618
1
E154 E154S
41
0.438
50
0.000
100
AcDbText
0
LINE
5
a76
100
AcDbEntity
8
0-0
6
CONTINUOUS
62
7
100
AcDbLine
10
450.000000000000
20
332.000000000000
30
0.0
11
450.000000000000
21
330.000000000000
31
0.0
0
LINE
5
a77
100
AcDbEntity
8
0-0
6
CONTINUOUS
62
7
100
AcDbLine
10
474.000000000000
20
328.000000000000
30
0.0
11
474.187541444356
21
324.421496065636
31
0.0
0
LINE
5
a78
100
AcDbEntity
8
0-0
6
CONTINUOUS
62
7
100
AcDbLine
10
481.000000000000
20
328.000000000000
30
0.0
11
480.812458555644
21
324.421496065636
31
0.0
0
LINE
5
a79
100
AcDbEntity
8
0-0
6
CONTINUOUS
62
7
100
AcDbLine
10
482.100000000000
20
328.000000000000
30
0.0
11
457.900000000000
21
328.000000000000
31
0.0
0
LINE
5
a7a
100
AcDbEntity
8
0-0
6
CONTINUOUS
62
7
100
AcDbLine
10
457.600000000000
20
328.300000000000
30
0.0
11
457.600000000000
21
330.000000000000
31
0.0
0
LINE
5
a7b
100
AcDbEntity
8
0-0
6
CONTINUOUS
62
7
100
AcDbLine
10
490.000000000000
20
332.000000000000
30
0.0
11
490.000000000000
21
330.000000000000
31
0.0
0
LINE
5
a7c
100
AcDbEntity
8
0-0
6
CONTINUOUS
62
7
100
AcDbLine
10
489.000000000000
20
333.000000000000
30
0.0
11
451.000000000000
21
333.000000000000
31
0.0
0
LINE
5
a7d
100
AcDbEntity
8
0-0
6
CONTINUOUS
62
7
100
AcDbLine
10
475.685485746488
20
323.000000000000
30
0.0
11
479.314514253512
21
323.000000000000
31
0.0
0
LINE
5
a7e
100
AcDbEntity
8
0-0
6
CONTINUOUS
62
7
100
AcDbLine
10
465.812458555644
20
324.421496065636
30
0.0
11
466.000000000000
21
328.000000000000
31
0.0
0
LINE
5
a7f
100
AcDbEntity
8
0-0
6
CONTINUOUS
62
7
100
AcDbLine
10
464.314514253512
20
323.000000000000
30
0.0
11
460.685485746488
21
323.000000000000
31
0.0
0
LINE
5
a80
100
AcDbEntity
8
0-0
6
CONTINUOUS
62
7
100
AcDbLine
10
459.000000000000
20
328.000000000000
30
0.0
11
459.187541444356
21
324.421496065636
31
0.0
0
LINE
5
a81
100
AcDbEntity
8
0-0
6
CONTINUOUS
62
7
100
AcDbLine
10
490.000000000000
20
330.000000000000
30
0.0
11
450.000000000000
21
330.000000000000
31
0.0
0
LINE
5
a82
100
AcDbEntity
8
0-0
6
CONTINUOUS
62
7
100
AcDbLine
10
482.400000000000
20
330.000000000000
30
0.0
11
482.400000000000
21
328.300000000000
31
0.0
0
ARC
5
a83
100
AcDbEntity
8
0-0
6
CONTINUOUS
62
7
100
AcDbCircle
10
475.685485746488
20
324.500000000000
30
0.0
40
1.500000000000
100
AcDbArc
50
182.999999999999
51
270.000000000000
0
ARC
5
a84
100
AcDbEntity
8
0-0
6
CONTINUOUS
62
7
100
AcDbCircle
10
451.000000000000
20
332.000000000000
30
0.0
40
1.000000000000
100
AcDbArc
50
90.000000000000
51
180.000000000000
0
ARC
5
a85
100
AcDbEntity
8
0-0
6
CONTINUOUS
62
7
100
AcDbCircle
10
489.000000000000
20
332.000000000000
30
0.0
40
1.000000000000
100
AcDbArc
50
0.000000000000
51
90.000000000000
0
ARC
5
a86
100
AcDbEntity
8
0-0
6
CONTINUOUS
62
7
100
AcDbCircle
10
482.100000000000
20
328.300000000000
30
0.0
40
0.300000000000
100
AcDbArc
50
270.000000000000
51
360.000000000000
0
ARC
5
a87
100
AcDbEntity
8
0-0
6
CONTINUOUS
62
7
100
AcDbCircle
10
457.900000000000
20
328.300000000000
30
0.0
40
0.300000000000
100
AcDbArc
50
180.000000000000
51
270.000000000000
0
ARC
5
a88
100
AcDbEntity
8
0-0
6
CONTINUOUS
62
7
100
AcDbCircle
10
464.314514253512
20
324.500000000000
30
0.0
40
1.500000000000
100
AcDbArc
50
270.000000000000
51
357.000000000000
0
ARC
5
a89
100
AcDbEntity
8
0-0
6
CONTINUOUS
62
7
100
AcDbCircle
10
460.685485746488
20
324.500000000000
30
0.0
40
1.500000000000
100
AcDbArc
50
183.000000000000
51
270.000000000000
0
ARC
5
a8a
100
AcDbEntity
8
0-0
6
CONTINUOUS
62
7
100
AcDbCircle
10
479.314514253512
20
324.500000000000
30
0.0
40
1.500000000000
100
AcDbArc
50
270.000000000000
51
357.000000000000
0
TEXT
5
a8b
100
AcDbEntity
8
0-0
62
7
370
-3
100
AcDbText
10
0.661
20
195.578
30
0.0
40
3.618
1
E205
41
0.384
50
0.000
100
AcDbText
0
LINE
5
a8c
100
AcDbEntity
8
0-0
6
CONTINUOUS
62
7
100
AcDbLine
10
25.000000000000
20
182.000000000000
30
0.0
11
25.000000000000
21
180.000000000000
31
0.0
0
LINE
5
a8d
100
AcDbEntity
8
0-0
6
CONTINUOUS
62
7
100
AcDbLine
10
0.000000000000
20
180.000000000000
30
0.0
11
0.000000000000
21
182.000000000000
31
0.0
0
LINE
5
a8e
100
AcDbEntity
8
0-0
6
CONTINUOUS
62
7
100
AcDbLine
10
14.314514253512
20
173.000000000000
30
0.0
11
10.685485746488
21
173.000000000000
31
0.0
0
LINE
5
a8f
100
AcDbEntity
8
0-0
6
CONTINUOUS
62
7
100
AcDbLine
10
1.000000000000
20
183.000000000000
30
0.0
11
24.000000000000
21
183.000000000000
31
0.0
0
LINE
5
a90
100
AcDbEntity
8
0-0
6
CONTINUOUS
62
7
100
AcDbLine
10
16.000000000000
20
178.000000000000
30
0.0
11
15.812458555644
21
174.421496065635
31
0.0
0
LINE
5
a91
100
AcDbEntity
8
0-0
6
CONTINUOUS
62
7
100
AcDbLine
10
9.187541444356
20
174.421496065635
30
0.0
11
9.000000000000
21
178.000000000000
31
0.0
0
LINE
5
a92
100
AcDbEntity
8
0-0
6
CONTINUOUS
62
7
100
AcDbLine
10
7.900000000000
20
178.000000000000
30
0.0
11
17.100000000000
21
178.000000000000
31
0.0
0
ARC
5
a93
100
AcDbEntity
8
0-0
6
CONTINUOUS
62
7
100
AcDbCircle
10
24.000000000000
20
182.000000000000
30
0.0
40
1.000000000000
100
AcDbArc
50
0.000000000000
51
90.000000000000
0
ARC
5
a94
100
AcDbEntity
8
0-0
6
CONTINUOUS
62
7
100
AcDbCircle
10
1.000000000000
20
182.000000000000
30
0.0
40
1.000000000000
100
AcDbArc
50
90.000000000000
51
180.000000000000
0
ARC
5
a95
100
AcDbEntity
8
0-0
6
CONTINUOUS
62
7
100
AcDbCircle
10
7.900000000000
20
178.300000000000
30
0.0
40
0.300000000000
100
AcDbArc
50
180.000000000000
51
270.000000000000
0
ARC
5
a96
100
AcDbEntity
8
0-0
6
CONTINUOUS
62
7
100
AcDbCircle
10
17.100000000000
20
178.300000000000
30
0.0
40
0.300000000000
100
AcDbArc
50
270.000000000000
51
360.000000000000
0
ARC
5
a97
100
AcDbEntity
8
0-0
6
CONTINUOUS
62
7
100
AcDbCircle
10
10.685485746488
20
174.500000000000
30
0.0
40
1.500000000000
100
AcDbArc
50
183.000000000000
51
270.000000000000
0
ARC
5
a98
100
AcDbEntity
8
0-0
6
CONTINUOUS
62
7
100
AcDbCircle
10
14.314514253512
20
174.500000000000
30
0.0
40
1.500000000000
100
AcDbArc
50
270.000000000000
51
357.000000000000
0
LINE
5
a99
100
AcDbEntity
8
0-0
6
CONTINUOUS
62
7
100
AcDbLine
10
25.000000000000
20
180.000000000000
30
0.0
11
0.000000000000
21
180.000000000000
31
0.0
0
LINE
5
a9a
100
AcDbEntity
8
0-0
6
CONTINUOUS
62
7
100
AcDbLine
10
7.600000000000
20
178.300000000000
30
0.0
11
7.600000000000
21
180.000000000000
31
0.0
0
LINE
5
a9b
100
AcDbEntity
8
0-0
6
CONTINUOUS
62
7
100
AcDbLine
10
17.400000000000
20
180.000000000000
30
0.0
11
17.400000000000
21
178.300000000000
31
0.0
0
TEXT
5
a9c
100
AcDbEntity
8
0-0
62
7
370
-3
100
AcDbText
10
150.482
20
195.652
30
0.0
40
3.618
1
EP25  EP25S
41
0.401
50
0.000
100
AcDbText
0
LINE
5
a9d
100
AcDbEntity
8
0-0
6
CONTINUOUS
62
7
100
AcDbLine
10
157.600000000000
20
180.000000000000
30
0.0
11
157.600000000000
21
178.300000000000
31
0.0
0
LINE
5
a9e
100
AcDbEntity
8
0-0
6
CONTINUOUS
62
7
100
AcDbLine
10
167.400000000000
20
180.000000000000
30
0.0
11
167.400000000000
21
178.300000000000
31
0.0
0
LINE
5
a9f
100
AcDbEntity
8
0-0
6
CONTINUOUS
62
7
100
AcDbLine
10
175.000000000000
20
180.000000000000
30
0.0
11
150.000000000000
21
180.000000000000
31
0.0
0
ARC
5
aa0
100
AcDbEntity
8
0-0
6
CONTINUOUS
62
7
100
AcDbCircle
10
151.000000000000
20
182.000000000000
30
0.0
40
1.000000000000
100
AcDbArc
50
90.000000000000
51
180.000000000000
0
ARC
5
aa1
100
AcDbEntity
8
0-0
6
CONTINUOUS
62
7
100
AcDbCircle
10
174.000000000000
20
182.000000000000
30
0.0
40
1.000000000000
100
AcDbArc
50
0.000000000000
51
90.000000000000
0
ARC
5
aa2
100
AcDbEntity
8
0-0
6
CONTINUOUS
62
7
100
AcDbCircle
10
160.685485746488
20
174.500000000000
30
0.0
40
1.500000000000
100
AcDbArc
50
183.000000000000
51
270.000000000000
0
ARC
5
aa3
100
AcDbEntity
8
0-0
6
CONTINUOUS
62
7
100
AcDbCircle
10
164.314514253512
20
174.500000000000
30
0.0
40
1.500000000000
100
AcDbArc
50
270.000000000000
51
357.000000000000
0
ARC
5
aa4
100
AcDbEntity
8
0-0
6
CONTINUOUS
62
7
100
AcDbCircle
10
157.900000000000
20
178.300000000000
30
0.0
40
0.300000000000
100
AcDbArc
50
180.000000000000
51
270.000000000000
0
ARC
5
aa5
100
AcDbEntity
8
0-0
6
CONTINUOUS
62
7
100
AcDbCircle
10
167.100000000000
20
178.300000000000
30
0.0
40
0.300000000000
100
AcDbArc
50
270.000000000000
51
360.000000000000
0
LINE
5
aa6
100
AcDbEntity
8
0-0
6
CONTINUOUS
62
7
100
AcDbLine
10
151.000000000000
20
183.000000000000
30
0.0
11
174.000000000000
21
183.000000000000
31
0.0
0
LINE
5
aa7
100
AcDbEntity
8
0-0
6
CONTINUOUS
62
7
100
AcDbLine
10
150.000000000000
20
180.000000000000
30
0.0
11
150.000000000000
21
182.000000000000
31
0.0
0
LINE
5
aa8
100
AcDbEntity
8
0-0
6
CONTINUOUS
62
7
100
AcDbLine
10
166.000000000000
20
178.000000000000
30
0.0
11
165.812458555644
21
174.421496065635
31
0.0
0
LINE
5
aa9
100
AcDbEntity
8
0-0
6
CONTINUOUS
62
7
100
AcDbLine
10
175.000000000000
20
182.000000000000
30
0.0
11
175.000000000000
21
180.000000000000
31
0.0
0
LINE
5
aaa
100
AcDbEntity
8
0-0
6
CONTINUOUS
62
7
100
AcDbLine
10
157.900000000000
20
178.000000000000
30
0.0
11
167.100000000000
21
178.000000000000
31
0.0
0
LINE
5
aab
100
AcDbEntity
8
0-0
6
CONTINUOUS
62
7
100
AcDbLine
10
159.187541444356
20
174.421496065635
30
0.0
11
159.000000000000
21
178.000000000000
31
0.0
0
LINE
5
aac
100
AcDbEntity
8
0-0
6
CONTINUOUS
62
7
100
AcDbLine
10
164.314514253512
20
173.000000000000
30
0.0
11
160.685485746488
21
173.000000000000
31
0.0
0
TEXT
5
aad
100
AcDbEntity
8
0-0
62
7
370
-3
100
AcDbText
10
300.625
20
195.809
30
0.0
40
3.618
1
E240  E240S
41
0.423
50
0.000
100
AcDbText
0
LINE
5
aae
100
AcDbEntity
8
0-0
6
CONTINUOUS
62
7
100
AcDbLine
10
300.000000000000
20
182.000000000000
30
0.0
11
300.000000000000
21
180.000000000000
31
0.0
0
LINE
5
aaf
100
AcDbEntity
8
0-0
6
CONTINUOUS
62
7
100
AcDbLine
10
324.000000000000
20
178.000000000000
30
0.0
11
324.187541444356
21
174.421496065636
31
0.0
0
LINE
5
ab0
100
AcDbEntity
8
0-0
6
CONTINUOUS
62
7
100
AcDbLine
10
331.000000000000
20
178.000000000000
30
0.0
11
330.812458555644
21
174.421496065636
31
0.0
0
LINE
5
ab1
100
AcDbEntity
8
0-0
6
CONTINUOUS
62
7
100
AcDbLine
10
332.100000000000
20
178.000000000000
30
0.0
11
307.900000000000
21
178.000000000000
31
0.0
0
LINE
5
ab2
100
AcDbEntity
8
0-0
6
CONTINUOUS
62
7
100
AcDbLine
10
307.600000000000
20
178.300000000000
30
0.0
11
307.600000000000
21
180.000000000000
31
0.0
0
LINE
5
ab3
100
AcDbEntity
8
0-0
6
CONTINUOUS
62
7
100
AcDbLine
10
340.000000000000
20
182.000000000000
30
0.0
11
340.000000000000
21
180.000000000000
31
0.0
0
LINE
5
ab4
100
AcDbEntity
8
0-0
6
CONTINUOUS
62
7
100
AcDbLine
10
325.685485746488
20
173.000000000000
30
0.0
11
329.314514253512
21
173.000000000000
31
0.0
0
LINE
5
ab5
100
AcDbEntity
8
0-0
6
CONTINUOUS
62
7
100
AcDbLine
10
315.812458555644
20
174.421496065636
30
0.0
11
316.000000000000
21
178.000000000000
31
0.0
0
LINE
5
ab6
100
AcDbEntity
8
0-0
6
CONTINUOUS
62
7
100
AcDbLine
10
314.314514253512
20
173.000000000000
30
0.0
11
310.685485746488
21
173.000000000000
31
0.0
0
LINE
5
ab7
100
AcDbEntity
8
0-0
6
CONTINUOUS
62
7
100
AcDbLine
10
309.000000000000
20
178.000000000000
30
0.0
11
309.187541444356
21
174.421496065636
31
0.0
0
ARC
5
ab8
100
AcDbEntity
8
0-0
6
CONTINUOUS
62
7
100
AcDbCircle
10
325.685485746488
20
174.500000000000
30
0.0
40
1.500000000000
100
AcDbArc
50
182.999999999999
51
270.000000000000
0
ARC
5
ab9
100
AcDbEntity
8
0-0
6
CONTINUOUS
62
7
100
AcDbCircle
10
301.000000000000
20
182.000000000000
30
0.0
40
1.000000000000
100
AcDbArc
50
90.000000000000
51
180.000000000000
0
ARC
5
aba
100
AcDbEntity
8
0-0
6
CONTINUOUS
62
7
100
AcDbCircle
10
339.000000000000
20
182.000000000000
30
0.0
40
1.000000000000
100
AcDbArc
50
0.000000000000
51
90.000000000000
0
ARC
5
abb
100
AcDbEntity
8
0-0
6
CONTINUOUS
62
7
100
AcDbCircle
10
332.100000000000
20
178.300000000000
30
0.0
40
0.300000000000
100
AcDbArc
50
270.000000000000
51
360.000000000000
0
ARC
5
abc
100
AcDbEntity
8
0-0
6
CONTINUOUS
62
7
100
AcDbCircle
10
307.900000000000
20
178.300000000000
30
0.0
40
0.300000000000
100
AcDbArc
50
180.000000000000
51
270.000000000000
0
ARC
5
abd
100
AcDbEntity
8
0-0
6
CONTINUOUS
62
7
100
AcDbCircle
10
314.314514253512
20
174.500000000000
30
0.0
40
1.500000000000
100
AcDbArc
50
270.000000000000
51
357.000000000000
0
ARC
5
abe
100
AcDbEntity
8
0-0
6
CONTINUOUS
62
7
100
AcDbCircle
10
310.685485746488
20
174.500000000000
30
0.0
40
1.500000000000
100
AcDbArc
50
183.000000000000
51
270.000000000000
0
ARC
5
abf
100
AcDbEntity
8
0-0
6
CONTINUOUS
62
7
100
AcDbCircle
10
329.314514253512
20
174.500000000000
30
0.0
40
1.500000000000
100
AcDbArc
50
270.000000000000
51
357.000000000000
0
LINE
5
ac0
100
AcDbEntity
8
0-0
6
CONTINUOUS
62
7
100
AcDbLine
10
332.400000000000
20
180.000000000000
30
0.0
11
332.400000000000
21
178.300000000000
31
0.0
0
LINE
5
ac1
100
AcDbEntity
8
0-0
6
CONTINUOUS
62
7
100
AcDbLine
10
339.000000000000
20
183.000000000000
30
0.0
11
301.000000000000
21
183.000000000000
31
0.0
0
LINE
5
ac2
100
AcDbEntity
8
0-0
6
CONTINUOUS
62
7
100
AcDbLine
10
340.000000000000
20
180.000000000000
30
0.0
11
300.000000000000
21
180.000000000000
31
0.0
0
TEXT
5
ac3
100
AcDbEntity
8
0-0
62
7
370
-3
100
AcDbText
10
450.386
20
194.762
30
0.0
40
3.618
1
E255  E255S
41
0.400
50
0.000
100
AcDbText
0
LINE
5
ac4
100
AcDbEntity
8
0-0
6
CONTINUOUS
62
7
100
AcDbLine
10
460.685485746488
20
173.000000000000
30
0.0
11
464.314514253512
21
173.000000000000
31
0.0
0
LINE
5
ac5
100
AcDbEntity
8
0-0
6
CONTINUOUS
62
7
100
AcDbLine
10
494.314514253512
20
173.000000000000
30
0.0
11
490.685485746488
21
173.000000000000
31
0.0
0
LINE
5
ac6
100
AcDbEntity
8
0-0
6
CONTINUOUS
62
7
100
AcDbLine
10
489.187541444356
20
174.421496065635
30
0.0
11
489.000000000000
21
178.000000000000
31
0.0
0
LINE
5
ac7
100
AcDbEntity
8
0-0
6
CONTINUOUS
62
7
100
AcDbLine
10
496.000000000000
20
178.000000000000
30
0.0
11
495.812458555645
21
174.421496065635
31
0.0
0
LINE
5
ac8
100
AcDbEntity
8
0-0
6
CONTINUOUS
62
7
100
AcDbLine
10
505.000000000000
20
182.000000000000
30
0.0
11
505.000000000000
21
180.000000000000
31
0.0
0
LINE
5
ac9
100
AcDbEntity
8
0-0
6
CONTINUOUS
62
7
100
AcDbLine
10
497.100000000000
20
178.000000000000
30
0.0
11
487.900000000000
21
178.000000000000
31
0.0
0
LINE
5
aca
100
AcDbEntity
8
0-0
6
CONTINUOUS
62
7
100
AcDbLine
10
467.100000000000
20
178.000000000000
30
0.0
11
457.900000000000
21
178.000000000000
31
0.0
0
LINE
5
acb
100
AcDbEntity
8
0-0
6
CONTINUOUS
62
7
100
AcDbLine
10
459.000000000000
20
178.000000000000
30
0.0
11
459.187541444356
21
174.421496065635
31
0.0
0
LINE
5
acc
100
AcDbEntity
8
0-0
6
CONTINUOUS
62
7
100
AcDbLine
10
450.000000000000
20
180.000000000000
30
0.0
11
450.000000000000
21
182.000000000000
31
0.0
0
LINE
5
acd
100
AcDbEntity
8
0-0
6
CONTINUOUS
62
7
100
AcDbLine
10
451.000000000000
20
183.000000000000
30
0.0
11
504.000000000000
21
183.000000000000
31
0.0
0
LINE
5
ace
100
AcDbEntity
8
0-0
6
CONTINUOUS
62
7
100
AcDbLine
10
466.000000000000
20
178.000000000000
30
0.0
11
465.812458555645
21
174.421496065635
31
0.0
0
ARC
5
acf
100
AcDbEntity
8
0-0
6
CONTINUOUS
62
7
100
AcDbCircle
10
504.000000000000
20
182.000000000000
30
0.0
40
1.000000000000
100
AcDbArc
50
0.000000000000
51
90.000000000000
0
ARC
5
ad0
100
AcDbEntity
8
0-0
6
CONTINUOUS
62
7
100
AcDbCircle
10
497.100000000000
20
178.300000000000
30
0.0
40
0.300000000000
100
AcDbArc
50
270.000000000000
51
360.000000000000
0
ARC
5
ad1
100
AcDbEntity
8
0-0
6
CONTINUOUS
62
7
100
AcDbCircle
10
487.900000000000
20
178.300000000000
30
0.0
40
0.300000000000
100
AcDbArc
50
180.000000000000
51
270.000000000000
0
ARC
5
ad2
100
AcDbEntity
8
0-0
6
CONTINUOUS
62
7
100
AcDbCircle
10
494.314514253512
20
174.500000000000
30
0.0
40
1.500000000000
100
AcDbArc
50
270.000000000000
51
357.000000000000
0
ARC
5
ad3
100
AcDbEntity
8
0-0
6
CONTINUOUS
62
7
100
AcDbCircle
10
490.685485746488
20
174.500000000000
30
0.0
40
1.500000000000
100
AcDbArc
50
183.000000000000
51
270.000000000000
0
ARC
5
ad4
100
AcDbEntity
8
0-0
6
CONTINUOUS
62
7
100
AcDbCircle
10
451.000000000000
20
182.000000000000
30
0.0
40
1.000000000000
100
AcDbArc
50
90.000000000000
51
180.000000000000
0
ARC
5
ad5
100
AcDbEntity
8
0-0
6
CONTINUOUS
62
7
100
AcDbCircle
10
467.100000000000
20
178.300000000000
30
0.0
40
0.300000000000
100
AcDbArc
50
270.000000000000
51
360.000000000000
0
ARC
5
ad6
100
AcDbEntity
8
0-0
6
CONTINUOUS
62
7
100
AcDbCircle
10
457.900000000000
20
178.300000000000
30
0.0
40
0.300000000000
100
AcDbArc
50
180.000000000000
51
270.000000000000
0
ARC
5
ad7
100
AcDbEntity
8
0-0
6
CONTINUOUS
62
7
100
AcDbCircle
10
464.314514253512
20
174.500000000000
30
0.0
40
1.500000000000
100
AcDbArc
50
270.000000000000
51
357.000000000000
0
ARC
5
ad8
100
AcDbEntity
8
0-0
6
CONTINUOUS
62
7
100
AcDbCircle
10
460.685485746488
20
174.500000000000
30
0.0
40
1.500000000000
100
AcDbArc
50
183.000000000000
51
270.000000000000
0
LINE
5
ad9
100
AcDbEntity
8
0-0
6
CONTINUOUS
62
7
100
AcDbLine
10
505.000000000000
20
180.000000000000
30
0.0
11
450.000000000000
21
180.000000000000
31
0.0
0
LINE
5
ada
100
AcDbEntity
8
0-0
6
CONTINUOUS
62
7
100
AcDbLine
10
457.600000000000
20
178.300000000000
30
0.0
11
457.600000000000
21
180.000000000000
31
0.0
0
LINE
5
adb
100
AcDbEntity
8
0-0
6
CONTINUOUS
62
7
100
AcDbLine
10
467.400000000000
20
180.000000000000
30
0.0
11
467.400000000000
21
178.300000000000
31
0.0
0
LINE
5
adc
100
AcDbEntity
8
0-0
6
CONTINUOUS
62
7
100
AcDbLine
10
487.600000000000
20
178.300000000000
30
0.0
11
487.600000000000
21
180.000000000000
31
0.0
0
LINE
5
add
100
AcDbEntity
8
0-0
6
CONTINUOUS
62
7
100
AcDbLine
10
497.400000000000
20
180.000000000000
30
0.0
11
497.400000000000
21
178.300000000000
31
0.0
0
ARC
5
ade
100
AcDbEntity
8
0-0
6
CONTINUOUS
62
7
100
AcDbCircle
10
612.469370000000
20
177.400000000000
30
0.0
40
0.600000000000
100
AcDbArc
50
90.000000000000
51
177.000000000000
0
ARC
5
adf
100
AcDbEntity
8
0-0
6
CONTINUOUS
62
7
100
AcDbCircle
10
612.530620000000
20
177.400000000000
30
0.0
40
0.600000000000
100
AcDbArc
50
3.000000000000
51
90.000000000000
0
ARC
5
ae0
100
AcDbEntity
8
0-0
6
CONTINUOUS
62
7
100
AcDbCircle
10
611.353270000000
20
173.300000000000
30
0.0
40
0.300000000000
100
AcDbArc
50
270.000000000000
51
357.000000000000
0
ARC
5
ae1
100
AcDbEntity
8
0-0
6
CONTINUOUS
62
7
100
AcDbCircle
10
613.646720000000
20
173.300000000000
30
0.0
40
0.300000000000
100
AcDbArc
50
183.000000000000
51
270.000000000000
0
ARC
5
ae2
100
AcDbEntity
8
0-0
6
CONTINUOUS
62
7
100
AcDbCircle
10
610.411000000000
20
174.000000000000
30
0.0
40
1.000000000000
100
AcDbArc
50
183.000000000000
51
270.000000000000
0
ARC
5
ae3
100
AcDbEntity
8
0-0
6
CONTINUOUS
62
7
100
AcDbCircle
10
614.588990000000
20
174.000000000000
30
0.0
40
1.000000000000
100
AcDbArc
50
270.000000000000
51
357.000000000000
0
ARC
5
ae4
100
AcDbEntity
8
0-0
6
CONTINUOUS
62
7
100
AcDbCircle
10
601.000000000000
20
182.000000000000
30
0.0
40
1.000000000000
100
AcDbArc
50
90.000000000000
51
180.000000000000
0
ARC
5
ae5
100
AcDbEntity
8
0-0
6
CONTINUOUS
62
7
100
AcDbCircle
10
624.000000000000
20
182.000000000000
30
0.0
40
1.000000000000
100
AcDbArc
50
0.000000000000
51
90.000000000000
0
LINE
5
ae6
100
AcDbEntity
8
0-0
6
CONTINUOUS
62
7
100
AcDbLine
10
600.000000000000
20
182.000000000000
30
0.0
11
600.000000000000
21
180.000000000000
31
0.0
0
LINE
5
ae7
100
AcDbEntity
8
0-0
6
CONTINUOUS
62
7
100
AcDbLine
10
624.000000000000
20
183.000000000000
30
0.0
11
601.000000000000
21
183.000000000000
31
0.0
0
LINE
5
ae8
100
AcDbEntity
8
0-0
6
CONTINUOUS
62
7
100
AcDbLine
10
625.000000000000
20
180.000000000000
30
0.0
11
625.000000000000
21
182.000000000000
31
0.0
0
LINE
5
ae9
100
AcDbEntity
8
0-0
6
CONTINUOUS
62
7
100
AcDbLine
10
600.000000000000
20
180.000000000000
30
0.0
11
625.000000000000
21
180.000000000000
31
0.0
0
LINE
5
aea
100
AcDbEntity
8
0-0
6
CONTINUOUS
62
7
100
AcDbLine
10
609.412370000000
20
173.947670000000
30
0.0
11
609.200000000000
21
178.000000000000
31
0.0
0
LINE
5
aeb
100
AcDbEntity
8
0-0
6
CONTINUOUS
62
7
100
AcDbLine
10
611.353270000000
20
173.000000000000
30
0.0
11
610.411000000000
21
173.000000000000
31
0.0
0
LINE
5
aec
100
AcDbEntity
8
0-0
6
CONTINUOUS
62
7
100
AcDbLine
10
611.870200000000
20
177.431410000000
30
0.0
11
611.652860000000
21
173.284300000000
31
0.0
0
LINE
5
aed
100
AcDbEntity
8
0-0
6
CONTINUOUS
62
7
100
AcDbLine
10
613.347140000000
20
173.284300000000
30
0.0
11
613.129790000000
21
177.431410000000
31
0.0
0
LINE
5
aee
100
AcDbEntity
8
0-0
6
CONTINUOUS
62
7
100
AcDbLine
10
614.588990000000
20
173.000000000000
30
0.0
11
613.646720000000
21
173.000000000000
31
0.0
0
LINE
5
aef
100
AcDbEntity
8
0-0
6
CONTINUOUS
62
7
100
AcDbLine
10
615.800000000000
20
178.000000000000
30
0.0
11
615.587620000000
21
173.947670000000
31
0.0
0
LINE
5
af0
100
AcDbEntity
8
0-0
6
CONTINUOUS
62
7
100
AcDbLine
10
615.800000000000
20
178.000000000000
30
0.0
11
615.800000000000
21
180.000000000000
31
0.0
0
LINE
5
af1
100
AcDbEntity
8
0-0
6
CONTINUOUS
62
7
100
AcDbLine
10
609.200000000000
20
178.000000000000
30
0.0
11
615.800000000000
21
178.000000000000
31
0.0
0
LINE
5
af2
100
AcDbEntity
8
0-0
6
CONTINUOUS
62
7
100
AcDbLine
10
609.200000000000
20
180.000000000000
30
0.0
11
609.200000000000
21
178.000000000000
31
0.0
0
ARC
5
af3
100
AcDbEntity
8
0-0
6
CONTINUOUS
62
7
100
AcDbCircle
10
762.469370000000
20
177.400000000000
30
0.0
40
0.600000000000
100
AcDbArc
50
90.000000000000
51
177.000000000000
0
ARC
5
af4
100
AcDbEntity
8
0-0
6
CONTINUOUS
62
7
100
AcDbCircle
10
762.530620000000
20
177.400000000000
30
0.0
40
0.600000000000
100
AcDbArc
50
3.000000000000
51
90.000000000000
0
ARC
5
af5
100
AcDbEntity
8
0-0
6
CONTINUOUS
62
7
100
AcDbCircle
10
761.353270000000
20
173.300000000000
30
0.0
40
0.300000000000
100
AcDbArc
50
270.000000000000
51
357.000000000000
0
ARC
5
af6
100
AcDbEntity
8
0-0
6
CONTINUOUS
62
7
100
AcDbCircle
10
763.646720000000
20
173.300000000000
30
0.0
40
0.300000000000
100
AcDbArc
50
183.000000000000
51
270.000000000000
0
ARC
5
af7
100
AcDbEntity
8
0-0
6
CONTINUOUS
62
7
100
AcDbCircle
10
760.411000000000
20
174.000000000000
30
0.0
40
1.000000000000
100
AcDbArc
50
183.000000000000
51
270.000000000000
0
ARC
5
af8
100
AcDbEntity
8
0-0
6
CONTINUOUS
62
7
100
AcDbCircle
10
764.588990000000
20
174.000000000000
30
0.0
40
1.000000000000
100
AcDbArc
50
270.000000000000
51
357.000000000000
0
ARC
5
af9
100
AcDbEntity
8
0-0
6
CONTINUOUS
62
7
100
AcDbCircle
10
751.000000000000
20
182.000000000000
30
0.0
40
1.000000000000
100
AcDbArc
50
90.000000000000
51
180.000000000000
0
ARC
5
afa
100
AcDbEntity
8
0-0
6
CONTINUOUS
62
7
100
AcDbCircle
10
774.000000000000
20
182.000000000000
30
0.0
40
1.000000000000
100
AcDbArc
50
0.000000000000
51
90.000000000000
0
LINE
5
afb
100
AcDbEntity
8
0-0
6
CONTINUOUS
62
7
100
AcDbLine
10
750.000000000000
20
182.000000000000
30
0.0
11
750.000000000000
21
180.000000000000
31
0.0
0
LINE
5
afc
100
AcDbEntity
8
0-0
6
CONTINUOUS
62
7
100
AcDbLine
10
774.000000000000
20
183.000000000000
30
0.0
11
751.000000000000
21
183.000000000000
31
0.0
0
LINE
5
afd
100
AcDbEntity
8
0-0
6
CONTINUOUS
62
7
100
AcDbLine
10
775.000000000000
20
180.000000000000
30
0.0
11
775.000000000000
21
182.000000000000
31
0.0
0
LINE
5
afe
100
AcDbEntity
8
0-0
6
CONTINUOUS
62
7
100
AcDbLine
10
750.000000000000
20
180.000000000000
30
0.0
11
775.000000000000
21
180.000000000000
31
0.0
0
LINE
5
aff
100
AcDbEntity
8
0-0
6
CONTINUOUS
62
7
100
AcDbLine
10
759.412370000000
20
173.947670000000
30
0.0
11
759.200000000000
21
178.000000000000
31
0.0
0
LINE
5
b00
100
AcDbEntity
8
0-0
6
CONTINUOUS
62
7
100
AcDbLine
10
761.353270000000
20
173.000000000000
30
0.0
11
760.411000000000
21
173.000000000000
31
0.0
0
LINE
5
b01
100
AcDbEntity
8
0-0
6
CONTINUOUS
62
7
100
AcDbLine
10
761.870200000000
20
177.431410000000
30
0.0
11
761.652860000000
21
173.284300000000
31
0.0
0
LINE
5
b02
100
AcDbEntity
8
0-0
6
CONTINUOUS
62
7
100
AcDbLine
10
763.347140000000
20
173.284300000000
30
0.0
11
763.129790000000
21
177.431410000000
31
0.0
0
LINE
5
b03
100
AcDbEntity
8
0-0
6
CONTINUOUS
62
7
100
AcDbLine
10
764.588990000000
20
173.000000000000
30
0.0
11
763.646720000000
21
173.000000000000
31
0.0
0
LINE
5
b04
100
AcDbEntity
8
0-0
6
CONTINUOUS
62
7
100
AcDbLine
10
765.800000000000
20
178.000000000000
30
0.0
11
765.587620000000
21
173.947670000000
31
0.0
0
LINE
5
b05
100
AcDbEntity
8
0-0
6
CONTINUOUS
62
7
100
AcDbLine
10
765.800000000000
20
178.000000000000
30
0.0
11
765.800000000000
21
180.000000000000
31
0.0
0
LINE
5
b06
100
AcDbEntity
8
0-0
6
CONTINUOUS
62
7
100
AcDbLine
10
759.200000000000
20
178.000000000000
30
0.0
11
765.800000000000
21
178.000000000000
31
0.0
0
LINE
5
b07
100
AcDbEntity
8
0-0
6
CONTINUOUS
62
7
100
AcDbLine
10
759.200000000000
20
180.000000000000
30
0.0
11
759.200000000000
21
178.000000000000
31
0.0
0
ARC
5
b08
100
AcDbEntity
8
0-0
6
CONTINUOUS
62
7
100
AcDbCircle
10
612.469370000000
20
27.400000000000
30
0.0
40
0.600000000000
100
AcDbArc
50
90.000000000000
51
177.000000000000
0
ARC
5
b09
100
AcDbEntity
8
0-0
6
CONTINUOUS
62
7
100
AcDbCircle
10
612.530620000000
20
27.400000000000
30
0.0
40
0.600000000000
100
AcDbArc
50
3.000000000000
51
90.000000000000
0
ARC
5
b0a
100
AcDbEntity
8
0-0
6
CONTINUOUS
62
7
100
AcDbCircle
10
611.353270000000
20
23.300000000000
30
0.0
40
0.300000000000
100
AcDbArc
50
270.000000000000
51
357.000000000000
0
ARC
5
b0b
100
AcDbEntity
8
0-0
6
CONTINUOUS
62
7
100
AcDbCircle
10
613.646720000000
20
23.300000000000
30
0.0
40
0.300000000000
100
AcDbArc
50
183.000000000000
51
270.000000000000
0
ARC
5
b0c
100
AcDbEntity
8
0-0
6
CONTINUOUS
62
7
100
AcDbCircle
10
610.411000000000
20
24.000000000000
30
0.0
40
1.000000000000
100
AcDbArc
50
183.000000000000
51
270.000000000000
0
ARC
5
b0d
100
AcDbEntity
8
0-0
6
CONTINUOUS
62
7
100
AcDbCircle
10
614.588990000000
20
24.000000000000
30
0.0
40
1.000000000000
100
AcDbArc
50
270.000000000000
51
357.000000000000
0
ARC
5
b0e
100
AcDbEntity
8
0-0
6
CONTINUOUS
62
7
100
AcDbCircle
10
601.000000000000
20
32.000000000000
30
0.0
40
1.000000000000
100
AcDbArc
50
90.000000000000
51
180.000000000000
0
ARC
5
b0f
100
AcDbEntity
8
0-0
6
CONTINUOUS
62
7
100
AcDbCircle
10
624.000000000000
20
32.000000000000
30
0.0
40
1.000000000000
100
AcDbArc
50
0.000000000000
51
90.000000000000
0
LINE
5
b10
100
AcDbEntity
8
0-0
6
CONTINUOUS
62
7
100
AcDbLine
10
600.000000000000
20
32.000000000000
30
0.0
11
600.000000000000
21
30.000000000000
31
0.0
0
LINE
5
b11
100
AcDbEntity
8
0-0
6
CONTINUOUS
62
7
100
AcDbLine
10
624.000000000000
20
33.000000000000
30
0.0
11
601.000000000000
21
33.000000000000
31
0.0
0
LINE
5
b12
100
AcDbEntity
8
0-0
6
CONTINUOUS
62
7
100
AcDbLine
10
625.000000000000
20
30.000000000000
30
0.0
11
625.000000000000
21
32.000000000000
31
0.0
0
LINE
5
b13
100
AcDbEntity
8
0-0
6
CONTINUOUS
62
7
100
AcDbLine
10
600.000000000000
20
30.000000000000
30
0.0
11
625.000000000000
21
30.000000000000
31
0.0
0
LINE
5
b14
100
AcDbEntity
8
0-0
6
CONTINUOUS
62
7
100
AcDbLine
10
609.412370000000
20
23.947670000000
30
0.0
11
609.200000000000
21
28.000000000000
31
0.0
0
LINE
5
b15
100
AcDbEntity
8
0-0
6
CONTINUOUS
62
7
100
AcDbLine
10
611.353270000000
20
23.000000000000
30
0.0
11
610.411000000000
21
23.000000000000
31
0.0
0
LINE
5
b16
100
AcDbEntity
8
0-0
6
CONTINUOUS
62
7
100
AcDbLine
10
611.870200000000
20
27.431410000000
30
0.0
11
611.652860000000
21
23.284300000000
31
0.0
0
LINE
5
b17
100
AcDbEntity
8
0-0
6
CONTINUOUS
62
7
100
AcDbLine
10
613.347140000000
20
23.284300000000
30
0.0
11
613.129790000000
21
27.431410000000
31
0.0
0
LINE
5
b18
100
AcDbEntity
8
0-0
6
CONTINUOUS
62
7
100
AcDbLine
10
614.588990000000
20
23.000000000000
30
0.0
11
613.646720000000
21
23.000000000000
31
0.0
0
LINE
5
b19
100
AcDbEntity
8
0-0
6
CONTINUOUS
62
7
100
AcDbLine
10
615.800000000000
20
28.000000000000
30
0.0
11
615.587620000000
21
23.947670000000
31
0.0
0
LINE
5
b1a
100
AcDbEntity
8
0-0
6
CONTINUOUS
62
7
100
AcDbLine
10
615.800000000000
20
28.000000000000
30
0.0
11
615.800000000000
21
30.000000000000
31
0.0
0
LINE
5
b1b
100
AcDbEntity
8
0-0
6
CONTINUOUS
62
7
100
AcDbLine
10
609.200000000000
20
28.000000000000
30
0.0
11
615.800000000000
21
28.000000000000
31
0.0
0
LINE
5
b1c
100
AcDbEntity
8
0-0
6
CONTINUOUS
62
7
100
AcDbLine
10
609.200000000000
20
30.000000000000
30
0.0
11
609.200000000000
21
28.000000000000
31
0.0
0
ARC
5
b1d
100
AcDbEntity
8
0-0
6
CONTINUOUS
62
7
100
AcDbCircle
10
762.469350000000
20
27.400000000000
30
0.0
40
0.600000000000
100
AcDbArc
50
90.000000000000
51
177.000000000000
0
ARC
5
b1e
100
AcDbEntity
8
0-0
6
CONTINUOUS
62
7
100
AcDbCircle
10
762.530600000000
20
27.400000000000
30
0.0
40
0.600000000000
100
AcDbArc
50
3.000000000000
51
90.000000000000
0
ARC
5
b1f
100
AcDbEntity
8
0-0
6
CONTINUOUS
62
7
100
AcDbCircle
10
761.353250000000
20
23.300000000000
30
0.0
40
0.300000000000
100
AcDbArc
50
270.000000000000
51
357.000000000000
0
ARC
5
b20
100
AcDbEntity
8
0-0
6
CONTINUOUS
62
7
100
AcDbCircle
10
763.646700000000
20
23.300000000000
30
0.0
40
0.300000000000
100
AcDbArc
50
183.000000000000
51
270.000000000000
0
ARC
5
b21
100
AcDbEntity
8
0-0
6
CONTINUOUS
62
7
100
AcDbCircle
10
760.410980000000
20
24.000000000000
30
0.0
40
1.000000000000
100
AcDbArc
50
183.000000000000
51
270.000000000000
0
ARC
5
b22
100
AcDbEntity
8
0-0
6
CONTINUOUS
62
7
100
AcDbCircle
10
764.588970000000
20
24.000000000000
30
0.0
40
1.000000000000
100
AcDbArc
50
270.000000000000
51
357.000000000000
0
ARC
5
b23
100
AcDbEntity
8
0-0
6
CONTINUOUS
62
7
100
AcDbCircle
10
750.999980000000
20
32.000000000000
30
0.0
40
1.000000000000
100
AcDbArc
50
90.000000000000
51
180.000000000000
0
ARC
5
b24
100
AcDbEntity
8
0-0
6
CONTINUOUS
62
7
100
AcDbCircle
10
773.999980000000
20
32.000000000000
30
0.0
40
1.000000000000
100
AcDbArc
50
0.000000000000
51
90.000000000000
0
LINE
5
b25
100
AcDbEntity
8
0-0
6
CONTINUOUS
62
7
100
AcDbLine
10
749.999980000000
20
32.000000000000
30
0.0
11
749.999980000000
21
30.000000000000
31
0.0
0
LINE
5
b26
100
AcDbEntity
8
0-0
6
CONTINUOUS
62
7
100
AcDbLine
10
773.999980000000
20
33.000000000000
30
0.0
11
750.999980000000
21
33.000000000000
31
0.0
0
LINE
5
b27
100
AcDbEntity
8
0-0
6
CONTINUOUS
62
7
100
AcDbLine
10
774.999980000000
20
30.000000000000
30
0.0
11
774.999980000000
21
32.000000000000
31
0.0
0
LINE
5
b28
100
AcDbEntity
8
0-0
6
CONTINUOUS
62
7
100
AcDbLine
10
749.999980000000
20
30.000000000000
30
0.0
11
774.999980000000
21
30.000000000000
31
0.0
0
LINE
5
b29
100
AcDbEntity
8
0-0
6
CONTINUOUS
62
7
100
AcDbLine
10
759.412350000000
20
23.947670000000
30
0.0
11
759.199980000000
21
28.000000000000
31
0.0
0
LINE
5
b2a
100
AcDbEntity
8
0-0
6
CONTINUOUS
62
7
100
AcDbLine
10
761.353250000000
20
23.000000000000
30
0.0
11
760.410980000000
21
23.000000000000
31
0.0
0
LINE
5
b2b
100
AcDbEntity
8
0-0
6
CONTINUOUS
62
7
100
AcDbLine
10
761.870180000000
20
27.431410000000
30
0.0
11
761.652840000000
21
23.284300000000
31
0.0
0
LINE
5
b2c
100
AcDbEntity
8
0-0
6
CONTINUOUS
62
7
100
AcDbLine
10
763.347120000000
20
23.284300000000
30
0.0
11
763.129770000000
21
27.431410000000
31
0.0
0
LINE
5
b2d
100
AcDbEntity
8
0-0
6
CONTINUOUS
62
7
100
AcDbLine
10
764.588970000000
20
23.000000000000
30
0.0
11
763.646700000000
21
23.000000000000
31
0.0
0
LINE
5
b2e
100
AcDbEntity
8
0-0
6
CONTINUOUS
62
7
100
AcDbLine
10
765.799980000000
20
28.000000000000
30
0.0
11
765.587600000000
21
23.947670000000
31
0.0
0
LINE
5
b2f
100
AcDbEntity
8
0-0
6
CONTINUOUS
62
7
100
AcDbLine
10
765.799980000000
20
28.000000000000
30
0.0
11
765.799980000000
21
30.000000000000
31
0.0
0
LINE
5
b30
100
AcDbEntity
8
0-0
6
CONTINUOUS
62
7
100
AcDbLine
10
759.199980000000
20
28.000000000000
30
0.0
11
765.799980000000
21
28.000000000000
31
0.0
0
LINE
5
b31
100
AcDbEntity
8
0-0
6
CONTINUOUS
62
7
100
AcDbLine
10
759.199980000000
20
30.000000000000
30
0.0
11
759.199980000000
21
28.000000000000
31
0.0
0
LINE
5
b32
100
AcDbEntity
8
F-F_J_ADD
6
HIDDEN
62
253
100
AcDbLine
10
750.000000000000
20
464.129688982247
30
0.0
11
750.000000000000
21
0.000000000000
31
0.0
0
LINE
5
b33
100
AcDbEntity
8
F-F_J_ADD
6
HIDDEN
62
253
100
AcDbLine
10
0.000000000000
20
0.000000000000
30
0.0
11
0.000000000000
21
450.000000000000
31
0.0
0
LINE
5
b34
100
AcDbEntity
8
F-F_J_ADD
6
HIDDEN
62
253
100
AcDbLine
10
150.000000000000
20
0.000000000000
30
0.0
11
150.000000000000
21
450.000000000000
31
0.0
0
LINE
5
b35
100
AcDbEntity
8
F-F_J_ADD
6
HIDDEN
62
253
100
AcDbLine
10
300.000000000000
20
0.000000000000
30
0.0
11
300.000000000000
21
450.000000000000
31
0.0
0
LINE
5
b36
100
AcDbEntity
8
F-F_J_ADD
6
HIDDEN
62
253
100
AcDbLine
10
450.000000000000
20
0.000000000000
30
0.0
11
450.000000000000
21
450.000000000000
31
0.0
0
LINE
5
b37
100
AcDbEntity
8
F-F_J_ADD
6
HIDDEN
62
253
100
AcDbLine
10
600.000000000000
20
0.000000000000
30
0.0
11
600.000000000000
21
450.000000000000
31
0.0
0
LINE
5
b38
100
AcDbEntity
8
F-F_J_ADD
6
HIDDEN
62
253
100
AcDbLine
10
775.000000000000
20
227.941125496955
30
0.0
11
775.000000000000
21
194.755382658513
31
0.0
0
LINE
5
b39
100
AcDbEntity
8
F-F_J_ADD
6
HIDDEN
62
253
100
AcDbLine
10
775.000000000000
20
74.941120000000
30
0.0
11
775.000000000000
21
48.375040890425
31
0.0
0
LINE
5
b3a
100
AcDbEntity
8
F-F_J_ADD
6
HIDDEN
62
253
100
AcDbLine
10
619.000000000000
20
370.000000000000
30
0.0
11
596.366159875673
21
370.000000000000
31
0.0
0
LINE
5
b3b
100
AcDbEntity
8
0-0
6
CONTINUOUS
62
7
100
AcDbLine
10
326.010068711380
20
398.387527997623
30
0.0
11
325.489968065243
21
398.387527997623
31
0.0
0
LINE
5
b3c
100
AcDbEntity
8
0-0
6
CONTINUOUS
62
7
100
AcDbLine
10
325.492498802319
20
397.651867377583
30
0.0
11
326.023488207781
21
397.651867377583
31
0.0
0
POLYLINE
5
b3d
100
AcDbEntity
8
0-0
6
CONTINUOUS
62
  7
100
AcDb2dPolyline
66
1
10
0.0
20
0.0
30
0.0
70
0
0
VERTEX
5
b3e
100
AcDbEntity
8
0-0
6
CONTINUOUS
62
  7
100
AcDbVertex
100
AcDb2dVertex
10
324.098564997633
20
397.818188875473
30
0.0
0
VERTEX
5
b3f
100
AcDbEntity
8
0-0
6
CONTINUOUS
62
  7
100
AcDbVertex
100
AcDb2dVertex
10
323.264111322655
20
397.818188875473
30
0.0
0
VERTEX
5
b40
100
AcDbEntity
8
0-0
6
CONTINUOUS
62
  7
100
AcDbVertex
100
AcDb2dVertex
10
323.264111322655
20
397.319638898323
30
0.0
0
VERTEX
5
b41
100
AcDbEntity
8
0-0
6
CONTINUOUS
62
  7
100
AcDbVertex
100
AcDb2dVertex
10
324.186526028760
20
397.319638898323
30
0.0
0
VERTEX
5
b42
100
AcDbEntity
8
0-0
6
CONTINUOUS
62
  7
100
AcDbVertex
100
AcDb2dVertex
10
324.186526028760
20
396.955680961543
30
0.0
0
VERTEX
5
b43
100
AcDbEntity
8
0-0
6
CONTINUOUS
62
  7
100
AcDbVertex
100
AcDb2dVertex
10
322.756811237216
20
396.955680961543
30
0.0
0
VERTEX
5
b44
100
AcDbEntity
8
0-0
6
CONTINUOUS
62
  7
100
AcDbVertex
100
AcDb2dVertex
10
322.756811237216
20
398.997242204143
30
0.0
0
VERTEX
5
b45
100
AcDbEntity
8
0-0
6
CONTINUOUS
62
  7
100
AcDbVertex
100
AcDb2dVertex
10
324.186526028760
20
398.997242204143
30
0.0
0
VERTEX
5
b46
100
AcDbEntity
8
0-0
6
CONTINUOUS
62
  7
100
AcDbVertex
100
AcDb2dVertex
10
324.186526028760
20
398.633284267392
30
0.0
0
VERTEX
5
b47
100
AcDbEntity
8
0-0
6
CONTINUOUS
62
  7
100
AcDbVertex
100
AcDb2dVertex
10
323.264111322655
20
398.633284267392
30
0.0
0
VERTEX
5
b48
100
AcDbEntity
8
0-0
6
CONTINUOUS
62
  7
100
AcDbVertex
100
AcDb2dVertex
10
323.264111322655
20
398.159839953453
30
0.0
0
VERTEX
5
b49
100
AcDbEntity
8
0-0
6
CONTINUOUS
62
  7
100
AcDbVertex
100
AcDb2dVertex
10
324.098564997633
20
398.159839953453
30
0.0
0
VERTEX
5
b4a
100
AcDbEntity
8
0-0
6
CONTINUOUS
62
  7
100
AcDbVertex
100
AcDb2dVertex
10
324.098564997633
20
397.818188875473
30
0.0
0
SEQEND
5
b4b
100
AcDbEntity
8
0-0
0
POLYLINE
5
b4c
100
AcDbEntity
8
0-0
6
CONTINUOUS
62
  7
100
AcDb2dPolyline
66
1
10
0.0
20
0.0
30
0.0
70
0
0
VERTEX
5
b4d
100
AcDbEntity
8
0-0
6
CONTINUOUS
62
  7
100
AcDbVertex
100
AcDb2dVertex
10
322.364014931037
20
397.319638898323
30
0.0
0
VERTEX
5
b4e
100
AcDbEntity
8
0-0
6
CONTINUOUS
62
  7
100
AcDbVertex
100
AcDb2dVertex
10
322.364014931037
20
396.955680961543
30
0.0
0
VERTEX
5
b4f
100
AcDbEntity
8
0-0
6
CONTINUOUS
62
  7
100
AcDbVertex
100
AcDb2dVertex
10
320.934672154723
20
396.955680961543
30
0.0
0
VERTEX
5
b50
100
AcDbEntity
8
0-0
6
CONTINUOUS
62
  7
100
AcDbVertex
100
AcDb2dVertex
10
320.934672154723
20
398.997242204143
30
0.0
0
VERTEX
5
b51
100
AcDbEntity
8
0-0
6
CONTINUOUS
62
  7
100
AcDbVertex
100
AcDb2dVertex
10
321.443777683123
20
398.997242204143
30
0.0
0
VERTEX
5
b52
100
AcDbEntity
8
0-0
6
CONTINUOUS
62
  7
100
AcDbVertex
100
AcDb2dVertex
10
321.443777683123
20
397.319638898323
30
0.0
0
VERTEX
5
b53
100
AcDbEntity
8
0-0
6
CONTINUOUS
62
  7
100
AcDbVertex
100
AcDb2dVertex
10
322.364014931037
20
397.319638898323
30
0.0
0
SEQEND
5
b54
100
AcDbEntity
8
0-0
0
LINE
5
b55
100
AcDbEntity
8
0-0
6
CONTINUOUS
62
7
100
AcDbLine
10
328.700000000000
20
395.846069718498
30
0.0
11
301.300000000000
21
395.846069718498
31
0.0
0
LINE
5
b56
100
AcDbEntity
8
0-0
6
CONTINUOUS
62
7
100
AcDbLine
10
301.020527375159
20
395.866597093657
30
0.0
11
300.357814636821
21
395.203884355318
31
0.0
0
LINE
5
b57
100
AcDbEntity
8
0-0
6
CONTINUOUS
62
7
100
AcDbLine
10
329.642185363179
20
395.203884355318
30
0.0
11
328.979472624840
21
395.866597093657
31
0.0
0
LINE
5
b58
100
AcDbEntity
8
0-0
6
CONTINUOUS
62
7
100
AcDbLine
10
329.000000000000
20
396.146069718497
30
0.0
11
329.000000000000
21
408.546069718497
31
0.0
0
LINE
5
b59
100
AcDbEntity
8
0-0
6
CONTINUOUS
62
7
100
AcDbLine
10
328.979472624840
20
408.825542343338
30
0.0
11
329.642185363179
21
409.488255081677
31
0.0
0
LINE
5
b5a
100
AcDbEntity
8
0-0
6
CONTINUOUS
62
7
100
AcDbLine
10
300.357814636821
20
409.488255081677
30
0.0
11
301.020527375159
21
408.825542343338
31
0.0
0
LINE
5
b5b
100
AcDbEntity
8
0-0
6
CONTINUOUS
62
7
100
AcDbLine
10
301.000000000000
20
408.546069718497
30
0.0
11
301.000000000000
21
396.146069718497
31
0.0
0
LINE
5
b5c
100
AcDbEntity
8
0-0
6
CONTINUOUS
62
7
100
AcDbLine
10
301.300000000000
20
408.846069718498
30
0.0
11
328.700000000000
21
408.846069718498
31
0.0
0
ARC
5
b5d
100
AcDbEntity
8
0-0
6
CONTINUOUS
62
7
100
AcDbCircle
10
328.700000000000
20
408.546069718497
30
0.0
40
0.300000000000
100
AcDbArc
50
0.000000000000
51
90.000000000000
0
ARC
5
b5e
100
AcDbEntity
8
0-0
6
CONTINUOUS
62
7
100
AcDbCircle
10
328.700000000000
20
396.146069718497
30
0.0
40
0.300000000000
100
AcDbArc
50
270.000000000000
51
360.000000000000
0
ARC
5
b5f
100
AcDbEntity
8
0-0
6
CONTINUOUS
62
7
100
AcDbCircle
10
301.300000000000
20
408.546069718497
30
0.0
40
0.300000000000
100
AcDbArc
50
90.000000000000
51
180.000000000000
0
ARC
5
b60
100
AcDbEntity
8
0-0
6
CONTINUOUS
62
7
100
AcDbCircle
10
301.300000000000
20
396.146069718497
30
0.0
40
0.300000000000
100
AcDbArc
50
180.000000000000
51
270.000000000000
0
ARC
5
b61
100
AcDbEntity
8
0-0
6
CONTINUOUS
62
7
100
AcDbCircle
10
326.958519495467
20
397.976461582843
30
0.0
40
2.398986344497
100
AcDbArc
50
164.216002475893
51
195.783997524107
0
ARC
5
b62
100
AcDbEntity
8
0-0
6
CONTINUOUS
62
7
100
AcDbCircle
10
331.195690093433
20
397.976461582839
30
0.0
40
6.092738949811
100
AcDbArc
50
176.789190081973
51
183.210809918027
0
ARC
5
b63
100
AcDbEntity
8
0-0
6
CONTINUOUS
62
7
100
AcDbCircle
10
325.190609975919
20
397.511307910650
30
0.0
40
0.572178966339
100
AcDbArc
50
199.118120314094
51
253.770896322251
0
ARC
5
b64
100
AcDbEntity
8
0-0
6
CONTINUOUS
62
7
100
AcDbCircle
10
325.302541180460
20
398.030805391245
30
0.0
40
1.102902967963
100
AcDbArc
50
255.730707223577
51
284.269292776423
0
ARC
5
b65
100
AcDbEntity
8
0-0
6
CONTINUOUS
62
7
100
AcDbCircle
10
325.414472385002
20
397.511307910650
30
0.0
40
0.572178966339
100
AcDbArc
50
286.229103677749
51
340.881879685906
0
ARC
5
b66
100
AcDbEntity
8
0-0
6
CONTINUOUS
62
7
100
AcDbCircle
10
323.646562865454
20
397.976461582843
30
0.0
40
2.398986344497
100
AcDbArc
50
344.216002475893
51
352.223758552802
0
ARC
5
b67
100
AcDbEntity
8
0-0
6
CONTINUOUS
62
7
100
AcDbCircle
10
325.302541180460
20
397.443810438439
30
0.0
40
0.165862986421
100
AcDbArc
50
198.780934832589
51
341.219065167411
0
ARC
5
b68
100
AcDbEntity
8
0-0
6
CONTINUOUS
62
7
100
AcDbCircle
10
324.566332587189
20
397.635699863730
30
0.0
40
0.926307317553
100
AcDbArc
50
344.644741742154
51
361.000075600875
0
ARC
5
b69
100
AcDbEntity
8
0-0
6
CONTINUOUS
62
7
100
AcDbCircle
10
326.038749773732
20
397.635699863730
30
0.0
40
0.926307317553
100
AcDbArc
50
179.280775692595
51
195.355258257846
0
ARC
5
b6a
100
AcDbEntity
8
0-0
6
CONTINUOUS
62
7
100
AcDbCircle
10
325.302541180460
20
398.509112727246
30
0.0
40
0.165862986421
100
AcDbArc
50
18.780934832589
51
161.219065167411
0
ARC
5
b6b
100
AcDbEntity
8
0-0
6
CONTINUOUS
62
7
100
AcDbCircle
10
326.038749773732
20
398.317223301956
30
0.0
40
0.926307317553
100
AcDbArc
50
164.644741742154
51
180.719224307405
0
ARC
5
b6c
100
AcDbEntity
8
0-0
6
CONTINUOUS
62
7
100
AcDbCircle
10
324.566332587189
20
398.317223301956
30
0.0
40
0.926307317553
100
AcDbArc
50
4.352810002801
51
15.355258257846
0
ARC
5
b6d
100
AcDbEntity
8
0-0
6
CONTINUOUS
62
7
100
AcDbCircle
10
325.414472385002
20
398.441615255036
30
0.0
40
0.572178966339
100
AcDbArc
50
19.118120314094
51
73.770896322251
0
ARC
5
b6e
100
AcDbEntity
8
0-0
6
CONTINUOUS
62
7
100
AcDbCircle
10
323.646562865454
20
397.976461582843
30
0.0
40
2.398986344497
100
AcDbArc
50
9.866322719821
51
15.783997524107
0
ARC
5
b6f
100
AcDbEntity
8
0-0
6
CONTINUOUS
62
7
100
AcDbCircle
10
325.302541180460
20
397.922117774440
30
0.0
40
1.102902967963
100
AcDbArc
50
75.730707223577
51
104.269292776423
0
ARC
5
b70
100
AcDbEntity
8
0-0
6
CONTINUOUS
62
7
100
AcDbCircle
10
325.190609975919
20
398.441615255036
30
0.0
40
0.572178966339
100
AcDbArc
50
106.229103677749
51
160.881879685906
0
ARC
5
b71
100
AcDbEntity
8
0-0
6
CONTINUOUS
62
7
100
AcDbCircle
10
328.747811795496
20
397.976461582843
30
0.0
40
2.398986344497
100
AcDbArc
50
164.216002475893
51
195.783997524107
0
ARC
5
b72
100
AcDbEntity
8
0-0
6
CONTINUOUS
62
7
100
AcDbCircle
10
332.984982393463
20
397.976461582839
30
0.0
40
6.092738949811
100
AcDbArc
50
176.789190081973
51
183.210809918027
0
ARC
5
b73
100
AcDbEntity
8
0-0
6
CONTINUOUS
62
7
100
AcDbCircle
10
321.198684567517
20
397.976461582839
30
0.0
40
6.092738949811
100
AcDbArc
50
356.789190081973
51
363.210809918027
0
ARC
5
b74
100
AcDbEntity
8
0-0
6
CONTINUOUS
62
7
100
AcDbCircle
10
327.091833480490
20
397.443810438439
30
0.0
40
0.165862986421
100
AcDbArc
50
198.780934832589
51
341.219065167411
0
ARC
5
b75
100
AcDbEntity
8
0-0
6
CONTINUOUS
62
7
100
AcDbCircle
10
327.091833480490
20
398.030805391245
30
0.0
40
1.102902967963
100
AcDbArc
50
255.730707223577
51
284.269292776423
0
ARC
5
b76
100
AcDbEntity
8
0-0
6
CONTINUOUS
62
7
100
AcDbCircle
10
327.203764685032
20
397.511307910650
30
0.0
40
0.572178966339
100
AcDbArc
50
286.229103677749
51
340.881879685906
0
ARC
5
b77
100
AcDbEntity
8
0-0
6
CONTINUOUS
62
7
100
AcDbCircle
10
326.979902275948
20
397.511307910650
30
0.0
40
0.572178966339
100
AcDbArc
50
199.118120314094
51
253.770896322251
0
ARC
5
b78
100
AcDbEntity
8
0-0
6
CONTINUOUS
62
7
100
AcDbCircle
10
325.435855165484
20
397.976461582843
30
0.0
40
2.398986344497
100
AcDbArc
50
344.216002475893
51
375.783997524107
0
ARC
5
b79
100
AcDbEntity
8
0-0
6
CONTINUOUS
62
7
100
AcDbCircle
10
326.355624887218
20
397.635699863730
30
0.0
40
0.926307317553
100
AcDbArc
50
344.644741742154
51
360.719224307405
0
ARC
5
b7a
100
AcDbEntity
8
0-0
6
CONTINUOUS
62
7
100
AcDbCircle
10
327.828042073761
20
397.635699863730
30
0.0
40
0.926307317553
100
AcDbArc
50
179.280775692595
51
195.355258257846
0
ARC
5
b7b
100
AcDbEntity
8
0-0
6
CONTINUOUS
62
7
100
AcDbCircle
10
327.828042073761
20
398.317223301956
30
0.0
40
0.926307317553
100
AcDbArc
50
164.644741742154
51
180.719224307405
0
ARC
5
b7c
100
AcDbEntity
8
0-0
6
CONTINUOUS
62
7
100
AcDbCircle
10
327.091833480490
20
398.509112727246
30
0.0
40
0.165862986421
100
AcDbArc
50
18.780934832589
51
161.219065167411
0
ARC
5
b7d
100
AcDbEntity
8
0-0
6
CONTINUOUS
62
7
100
AcDbCircle
10
326.355624887218
20
398.317223301956
30
0.0
40
0.926307317553
100
AcDbArc
50
359.280775692595
51
375.355258257846
0
ARC
5
b7e
100
AcDbEntity
8
0-0
6
CONTINUOUS
62
7
100
AcDbCircle
10
327.091833480490
20
397.922117774440
30
0.0
40
1.102902967963
100
AcDbArc
50
75.730707223577
51
104.269292776423
0
ARC
5
b7f
100
AcDbEntity
8
0-0
6
CONTINUOUS
62
7
100
AcDbCircle
10
326.979902275948
20
398.441615255036
30
0.0
40
0.572178966339
100
AcDbArc
50
106.229103677749
51
160.881879685906
0
ARC
5
b80
100
AcDbEntity
8
0-0
6
CONTINUOUS
62
7
100
AcDbCircle
10
327.203764685032
20
398.441615255036
30
0.0
40
0.572178966339
100
AcDbArc
50
19.118120314094
51
73.770896322251
0
LINE
5
b81
100
AcDbEntity
8
0-0
6
CONTINUOUS
62
7
100
AcDbLine
10
328.400000000000
20
396.746069718497
30
0.0
11
328.400000000000
21
399.146069718498
31
0.0
0
LINE
5
b82
100
AcDbEntity
8
0-0
6
CONTINUOUS
62
7
100
AcDbLine
10
328.100000000000
20
396.446069718497
30
0.0
11
320.700000000000
21
396.446069718497
31
0.0
0
LINE
5
b83
100
AcDbEntity
8
0-0
6
CONTINUOUS
62
7
100
AcDbLine
10
320.400000000000
20
396.746069718497
30
0.0
11
320.400000000000
21
399.146069718498
31
0.0
0
LINE
5
b84
100
AcDbEntity
8
0-0
6
CONTINUOUS
62
7
100
AcDbLine
10
320.700000000000
20
399.446069718497
30
0.0
11
328.100000000000
21
399.446069718497
31
0.0
0
LINE
5
b85
100
AcDbEntity
8
0-0
6
CONTINUOUS
62
7
100
AcDbLine
10
301.000000000000
20
394.846069718498
30
0.0
11
329.000000000000
21
394.846069718498
31
0.0
0
LINE
5
b86
100
AcDbEntity
8
0-0
6
CONTINUOUS
62
7
100
AcDbLine
10
330.000000000000
20
408.846069718498
30
0.0
11
330.000000000000
21
395.846069718498
31
0.0
0
LINE
5
b87
100
AcDbEntity
8
0-0
6
CONTINUOUS
62
7
100
AcDbLine
10
300.000000000000
20
395.846069718498
30
0.0
11
300.000000000000
21
408.846069718498
31
0.0
0
LINE
5
b88
100
AcDbEntity
8
0-0
6
CONTINUOUS
62
7
100
AcDbLine
10
329.000000000000
20
409.846069718498
30
0.0
11
301.000000000000
21
409.846069718498
31
0.0
0
ARC
5
b89
100
AcDbEntity
8
0-0
6
CONTINUOUS
62
7
100
AcDbCircle
10
329.000000000000
20
408.846069718498
30
0.0
40
1.000000000000
100
AcDbArc
50
0.000000000000
51
90.000000000000
0
ARC
5
b8a
100
AcDbEntity
8
0-0
6
CONTINUOUS
62
7
100
AcDbCircle
10
329.000000000000
20
395.846069718498
30
0.0
40
1.000000000000
100
AcDbArc
50
270.000000000000
51
360.000000000000
0
ARC
5
b8b
100
AcDbEntity
8
0-0
6
CONTINUOUS
62
7
100
AcDbCircle
10
301.000000000000
20
408.846069718498
30
0.0
40
1.000000000000
100
AcDbArc
50
90.000000000000
51
180.000000000000
0
ARC
5
b8c
100
AcDbEntity
8
0-0
6
CONTINUOUS
62
7
100
AcDbCircle
10
301.000000000000
20
395.846069718498
30
0.0
40
1.000000000000
100
AcDbArc
50
180.000000000000
51
270.000000000000
0
ARC
5
b8d
100
AcDbEntity
8
0-0
6
CONTINUOUS
62
7
100
AcDbCircle
10
320.700000000000
20
396.746069718497
30
0.0
40
0.300000000000
100
AcDbArc
50
180.000000000000
51
270.000000000000
0
ARC
5
b8e
100
AcDbEntity
8
0-0
6
CONTINUOUS
62
7
100
AcDbCircle
10
320.700000000000
20
399.146069718498
30
0.0
40
0.300000000000
100
AcDbArc
50
90.000000000000
51
180.000000000000
0
ARC
5
b8f
100
AcDbEntity
8
0-0
6
CONTINUOUS
62
7
100
AcDbCircle
10
328.100000000000
20
399.146069718498
30
0.0
40
0.300000000000
100
AcDbArc
50
0.000000000000
51
90.000000000000
0
ARC
5
b90
100
AcDbEntity
8
0-0
6
CONTINUOUS
62
7
100
AcDbCircle
10
328.100000000000
20
396.746069718497
30
0.0
40
0.300000000000
100
AcDbArc
50
270.000000000000
51
360.000000000000
0
LINE
5
b91
100
AcDbEntity
8
F-F_J_ADD
6
HIDDEN
62
253
100
AcDbLine
10
918.142185080689
20
0.000000000000
30
0.0
11
0.000000000000
21
0.000000000000
31
0.0
0
LINE
5
b92
100
AcDbEntity
8
F-F_J_ADD
6
HIDDEN
62
253
100
AcDbLine
10
918.142185080689
20
50.000000000000
30
0.0
11
0.000000000000
21
50.000000000000
31
0.0
0
LINE
5
b93
100
AcDbEntity
8
F-F_J_ADD
6
HIDDEN
62
253
100
AcDbLine
10
918.142185080689
20
30.000000000000
30
0.0
11
0.000000000000
21
30.000000000000
31
0.0
0
LINE
5
b94
100
AcDbEntity
8
F-F_J_ADD
6
HIDDEN
62
253
100
AcDbLine
10
918.142185080689
20
350.000000000000
30
0.0
11
0.000000000000
21
350.000000000000
31
0.0
0
LINE
5
b95
100
AcDbEntity
8
F-F_J_ADD
6
HIDDEN
62
253
100
AcDbLine
10
918.142185080689
20
330.000000000000
30
0.0
11
0.000000000000
21
330.000000000000
31
0.0
0
LINE
5
b96
100
AcDbEntity
8
F-F_J_ADD
6
HIDDEN
62
253
100
AcDbLine
10
918.142185080689
20
200.000000000000
30
0.0
11
0.000000000000
21
200.000000000000
31
0.0
0
LINE
5
b97
100
AcDbEntity
8
F-F_J_ADD
6
HIDDEN
62
253
100
AcDbLine
10
918.142185080689
20
180.000000000000
30
0.0
11
0.000000000000
21
180.000000000000
31
0.0
0
LINE
5
b98
100
AcDbEntity
8
F-F_J_ADD
6
HIDDEN
62
253
100
AcDbLine
10
918.142185080689
20
450.000000000000
30
0.0
11
-0.000000000000
21
450.000000000000
31
0.0
0
ENDSEC
 0
SECTION
  2
OBJECTS
 0
DICTIONARY
  5
C
100
AcDbDictionary
  3
ACAD_GROUP
350
D
  3
ACAD_MLINESTYLE
350
E
 0
DICTIONARY
  5
D
102
{ACAD_REACTORS
102
}
100
AcDbDictionary
 0
DICTIONARY
  5
E
102
{ACAD_REACTORS
102
}
100
AcDbDictionary
  3
STANDARD
350
13
0
MLINESTYLE
  5
13
102
{ACAD_REACTORS
102
}
100
AcDbMlineStyle
  2
STANDARD
 70
    0
3

62
256
51
90.0
52
90.0
71
0
0
ACDBPLACEHOLDER
  5
14
102
{ACAD_REACTORS
102
}
0
ENDSEC
0
EOF
