0
SECTION
2
HEADER
9
$ACADVER
1
AC1015
9
$ACADMAINTVER
 70
6
9
$DWGCODEPAGE
3
ANSI_932
9
$EXTMIN
10
0.000
20
0.000
30
0.0
9
$EXTMAX
10
1189.000
20
841.000
30
0.0
9
$LIMMIN
10
0.000
20
0.000
9
$LIMMAX
10
1189.000
20
841.000
9
$DIMSCALE
40
1.000000
9
$LTSCALE
40
2.000
9
$PDMODE
70
0
9
$PDSIZE
40
40.0
9
$HANDSEED
5
61f2d
9
$UNITMODE
70
0
9
$VISRETAIN
70
0
9
$PLINEGEN
70
0
9
$PSLTSCALE
70
1
9
$TREEDEPTH
70
3020
9
$CMLSTYLE
2
STANDARD
9
$CMLJUST
70
0
9
$CMLSCALE
40
1.0
9
$PROXYGRAPHICS
70
1
9
$MEASUREMENT
70
0
9
$CELWEIGHT
370
-1
9
$ENDCAPS
280
0
9
$JOINSTYLE
280
0
9
$LWDISPLAY
290
0
9
$INSUNITS
70
0
9
$HYPERLINKBASE
1

9
$STYLESHEET
1

9
$XEDIT
290
1
9
$CEPSNTYPE
380
0
9
$PSTYLEMODE
290
1
9
$FINGERPRINTGUID
2
{5F082321-0195-11D3-BDFB-0060B0CD5109}
9
$VERSIONGUID
2
{12943756-294D-11D3-98C2-0060B087942D}
9
$EXTNAMES
290
1
9
$PSVPSCALE
40
0.0
9
$OLESTARTUP
290
0
0
ENDSEC
0
SECTION
  2
CLASSES
0
ENDSEC
0
SECTION
2
TABLES
0
TABLE
2
VPORT
5
190
100
AcDbSymbolTable
70
2
0
VPORT
5
191
100
AcDbSymbolTableRecord
100
AcDbViewportTableRecord
2
*ACTIVE
70
0
10
0.0
20
0.0
11
1.0
21
1.0
12
594.500
22
420.500
13
0.0
23
0.0
14
1.0
24
1.0
15
0.0
25
0.0
16
0.0
26
0.0
36
1.0
17
0.0
27
0.0
37
0.0
40
861.594
41
2.0
42
50.0
43
0.0
44
0.0
50
0.0
51
0.0
71
0
72
1000
73
1
74
1
75
0
76
0
77
0
78
0
0
ENDTAB
0
TABLE
2
LTYPE
5
1f4
100
AcDbSymbolTable
70
9
0
LTYPE
5
1f5
100
AcDbSymbolTableRecord
100
AcDbLinetypeTableRecord
2
BYBLOCK
70
 64
3

72
 65
73
  0
40
0.0
0
LTYPE
5
1f6
100
AcDbSymbolTableRecord
100
AcDbLinetypeTableRecord
2
BYLAYER
70
 64
3

72
 65
73
  0
40
0.0
0
LTYPE
5
1f7
100
AcDbSymbolTableRecord
100
AcDbLinetypeTableRecord
2
CONTINUOUS
70
64
3
SolidLine
72
65
73
0
40
0.0
0
LTYPE
5
1f8
100
AcDbSymbolTableRecord
100
AcDbLinetypeTableRecord
2
DOT
70
64
3
--  --  --  --  --  --  --  --     
72
65
73
2
40
3.000
49
1.000
74
0
49
-2.000
74
0
0
LTYPE
5
1f9
100
AcDbSymbolTableRecord
100
AcDbLinetypeTableRecord
2
DASHED
70
64
3
----    ----    ----    ----    
72
65
73
2
40
5.000
49
2.000
74
0
49
-3.000
74
0
0
LTYPE
5
1fa
100
AcDbSymbolTableRecord
100
AcDbLinetypeTableRecord
2
DASHED2
70
64
3
------  ------  ------  ------ 
72
65
73
2
40
10.000
49
4.000
74
0
49
-6.000
74
0
0
LTYPE
5
1fb
100
AcDbSymbolTableRecord
100
AcDbLinetypeTableRecord
2
CENTER
70
64
3
----- - ----- - ----- - ----- - 
72
65
73
4
40
10.000
49
6.000
74
0
49
-3.000
74
0
49
1.000
74
0
49
-3.000
74
0
0
LTYPE
5
1fc
100
AcDbSymbolTableRecord
100
AcDbLinetypeTableRecord
2
CENTER2
70
64
3
----------  --  ----------  -- 
72
65
73
4
40
17.000
49
12.000
74
0
49
-5.000
74
0
49
2.000
74
0
49
-5.000
74
0
0
LTYPE
5
1fd
100
AcDbSymbolTableRecord
100
AcDbLinetypeTableRecord
2
PHANTOM
70
64
3
--- - - --- - - --- - - --- - -
72
65
73
6
40
13.000
49
5.000
74
0
49
-3.000
74
0
49
1.000
74
0
49
-3.000
74
0
49
1.000
74
0
49
-3.000
74
0
0
LTYPE
5
1fe
100
AcDbSymbolTableRecord
100
AcDbLinetypeTableRecord
2
PHANTOM2
70
64
3
--------  -  -  --------  -  -
72
65
73
6
40
20.000
49
6.000
74
0
49
-5.000
74
0
49
2.000
74
0
49
-5.000
74
0
49
2.000
74
0
49
-5.000
74
0
0
LTYPE
5
1ff
100
AcDbSymbolTableRecord
100
AcDbLinetypeTableRecord
2
HIDDEN
70
64
3
-   -   -   -   -   -   -   -   
72
65
73
2
40
3.000
49
0.500
74
0
49
-2.500
74
0
0
ENDTAB
0
TABLE
2
STYLE
5
200
100
AcDbSymbolTable
70
1
0
STYLE
5
201
100
AcDbSymbolTableRecord
100
AcDbTextStyleTableRecord
2
STANDARD
70
0
40
0.0
41
1.0
50
0.0
71
0
42
0.0
3
txt.shx
4
extfont.shx
0
STYLE
5
202
100
AcDbSymbolTableRecord
100
AcDbTextStyleTableRecord
2
TATEGAKI
70
4
40
0.0
41
1.0
50
0.0
71
0
42
0.0
3
txt.shx
4
extfont.shx
0
STYLE
5
203
100
AcDbSymbolTableRecord
100
AcDbTextStyleTableRecord
2
DIM
70
0
40
0.0
41
0.75
50
0.0
71
0
42
0.0
3
txt.shx
4
extfont.shx
0
STYLE
5
204
100
AcDbSymbolTableRecord
100
AcDbTextStyleTableRecord
2
_Gothic_
70
0
40
1.0
41
1.0
50
0.0
71
0
42
10.0
3

4

1001
ACAD
1000
MS Gothic
1071
32817
0
STYLE
5
205
100
AcDbSymbolTableRecord
100
AcDbTextStyleTableRecord
2
_TateGothic_
70
4
40
0.0
41
1.0
50
0.0
71
0
42
0.0
3
@MS Gothic
4

0
ENDTAB
0
TABLE
2
VIEW
5
206
100
AcDbSymbolTable
70
0
0
ENDTAB
0
TABLE
2
UCS
5
207
100
AcDbSymbolTable
70
0
0
ENDTAB
0
TABLE
2
APPID
5
208
100
AcDbSymbolTable
70
1
0
APPID
5
209
100
AcDbSymbolTableRecord
100
AcDbRegAppTableRecord
2
ACAD
70
0
0
ENDTAB
0
TABLE
2
DIMSTYLE
5
403
330
0
100
AcDbSymbolTable
70
1
100
AcDbDimStyleTable
71
0
0
DIMSTYLE
105
404
330
402
100
AcDbSymbolTableRecord
100
AcDbDimStyleTableRecord
2
JAC_DIM
70
0
41
2.000
42
0.000
44
0.0
73
0
74
0
77
1
78
8
79
2
140
0.000
170
0
171
2
172
0
173
0
174
0
175
0
176
0
177
0
178
0
270
2
271
0
272
0
273
2
274
2
340
201
275
0
280
0
281
0
282
0
283
0
284
0
285
0
286
0
287
3
288
0
0
ENDTAB
0
TABLE
2
BLOCK_RECORD
5
405
100
AcDbSymbolTable
70
0
0
BLOCK_RECORD
5
406
100
AcDbSymbolTableRecord
100
AcDbBlockTableRecord
2
*MODEL_SPACE
0
BLOCK_RECORD
5
407
100
AcDbSymbolTableRecord
100
AcDbBlockTableRecord
2
*PAPER_SPACE
0
BLOCK_RECORD
5
408
100
AcDbSymbolTableRecord
100
AcDbBlockTableRecord
2
_JACCONVERT_
0
ENDTAB
0
TABLE
2
LAYER
5
409
100
AcDbSymbolTable
70
10
0
LAYER
5
40a
100
AcDbSymbolTableRecord
100
AcDbLayerTableRecord
2
0
70
0
62
7
6
CONTINUOUS
370
-3
390
14
0
LAYER
5
40b
100
AcDbSymbolTableRecord
100
AcDbLayerTableRecord
2
0-0
70
0
62
7
6
CONTINUOUS
370
-3
390
14
0
LAYER
5
40c
100
AcDbSymbolTableRecord
100
AcDbLayerTableRecord
2
0-1
70
0
62
7
6
CONTINUOUS
370
-3
390
14
0
LAYER
5
40d
100
AcDbSymbolTableRecord
100
AcDbLayerTableRecord
2
0-F
70
0
62
7
6
CONTINUOUS
370
-3
390
14
0
LAYER
5
40e
100
AcDbSymbolTableRecord
100
AcDbLayerTableRecord
2
F-F_J_ADD
70
4
62
-7
6
CONTINUOUS
290
0
370
-3
390
14
0
ENDTAB
0
ENDSEC
0
SECTION
2
BLOCKS
0
BLOCK
5
40f
100
AcDbEntity
67
1
8
0
100
AcDbBlockBegin
2
*MODEL_SPACE
70
0
10
0.0
20
0.0
30
0.0
3
*MODEL_SPACE
1

0
ENDBLK
5
410
100
AcDbEntity
8
0
100
AcDbBlockEnd
0
BLOCK
5
411
100
AcDbEntity
67
1
8
0
100
AcDbBlockBegin
2
*PAPER_SPACE
70
0
10
0.0
20
0.0
30
0.0
3
*PAPER_SPACE
1

0
ENDBLK
5
412
100
AcDbEntity
67
1
8
0
100
AcDbBlockEnd
0
BLOCK
5
413
100
AcDbEntity
8
0
100
AcDbBlockBegin
2
_JACCONVERT_
70
2
10
0.0
20
0.0
30
0.0
3
_JACCONVERT_
1
_JACCONVERT_
0
ATTDEF
5
414
100
AcDbEntity
8
0
62
0
100
AcDbText
10
0.0
20
0.0
30
0.0
40
1.0
1
User:UnSettingUp
100
AcDbAttributeDefinition
3

2
USER
70
8
0
ATTDEF
5
415
100
AcDbEntity
8
0
62
0
100
AcDbText
10
0.0
20
2.0
30
0.0
40
1.0
1
Date:23/07/14 16:41
100
AcDbAttributeDefinition
3

2
REVDATE
70
8
0
ATTDEF
5
416
100
AcDbEntity
8
0
62
0
100
AcDbText
10
0.0
20
4.0
30
0.0
40
1.0
1
File:104_LECO25_accessory.dxf
100
AcDbAttributeDefinition
3

2
FNAME
70
8
0
ATTDEF
5
417
100
AcDbEntity
8
0
62
0
100
AcDbText
10
0.0
20
6.0
30
0.0
40
1.0
1
JacConvert Version3.11 copyright (c) 2001-2016 K.Nakahara
100
AcDbAttributeDefinition
3

2
VER
70
8
0
ENDBLK
5
418
100
AcDbEntity
67
1
8
0
100
AcDbBlockEnd
0
ENDSEC
0
SECTION
2
ENTITIES
0
ARC
5
419
100
AcDbEntity
8
0-0
6
CONTINUOUS
62
7
100
AcDbCircle
10
75.830217629445
20
214.633766554497
30
0.0
40
0.300000000000
100
AcDbArc
50
274.593513009813
51
360.000000000000
0
LINE
5
41a
100
AcDbEntity
8
0-0
6
CONTINUOUS
62
7
100
AcDbLine
10
76.130217629445
20
214.780176716011
30
0.0
11
76.130217629445
21
214.633766554497
31
0.0
0
ARC
5
41b
100
AcDbEntity
8
0-0
6
CONTINUOUS
62
7
100
AcDbCircle
10
75.930217629445
20
214.780176716011
30
0.0
40
0.200000000000
100
AcDbArc
50
0.000000000000
51
30.000000000000
0
LINE
5
41c
100
AcDbEntity
8
0-0
6
CONTINUOUS
62
7
100
AcDbLine
10
75.841542494850
20
215.333766554497
30
0.0
11
76.103422710202
21
214.880176716011
31
0.0
0
ARC
5
41d
100
AcDbEntity
8
0-0
6
CONTINUOUS
62
7
100
AcDbCircle
10
74.975517091066
20
214.833766554497
30
0.0
40
1.000000000000
100
AcDbArc
50
30.000000000000
51
90.000000000000
0
LINE
5
41e
100
AcDbEntity
8
0-0
6
CONTINUOUS
62
7
100
AcDbLine
10
52.130217629407
20
214.780176716011
30
0.0
11
52.130217629407
21
214.633766554497
31
0.0
0
ARC
5
41f
100
AcDbEntity
8
0-0
6
CONTINUOUS
62
7
100
AcDbCircle
10
52.330217629407
20
214.780176716011
30
0.0
40
0.200000000000
100
AcDbArc
50
150.000000000000
51
180.000000000000
0
LINE
5
420
100
AcDbEntity
8
0-0
6
CONTINUOUS
62
7
100
AcDbLine
10
52.418892764001
20
215.333766554497
30
0.0
11
52.157012548650
21
214.880176716011
31
0.0
0
ARC
5
421
100
AcDbEntity
8
0-0
6
CONTINUOUS
62
7
100
AcDbCircle
10
52.430217629407
20
214.633766554497
30
0.0
40
0.300000000000
100
AcDbArc
50
180.000000000000
51
265.406486989926
0
ARC
5
422
100
AcDbEntity
8
0-0
6
CONTINUOUS
62
7
100
AcDbCircle
10
53.284918167786
20
214.833766554497
30
0.0
40
1.000000000000
100
AcDbArc
50
90.000000000000
51
150.000000000000
0
LINE
5
423
100
AcDbEntity
8
0-0
6
CONTINUOUS
62
7
100
AcDbLine
10
74.975517091066
20
215.833766554497
30
0.0
11
53.284918167786
21
215.833766554497
31
0.0
0
ARC
5
424
100
AcDbEntity
8
0-0
6
CONTINUOUS
62
7
100
AcDbCircle
10
67.585665199504
20
213.046037304967
30
0.0
40
0.100000000000
100
AcDbArc
50
178.000000000000
51
219.694950682827
0
LINE
5
425
100
AcDbEntity
8
0-0
6
CONTINUOUS
62
7
100
AcDbLine
10
68.129198562377
20
212.234662771008
30
0.0
11
67.508719615015
21
212.982167303967
31
0.0
0
ARC
5
426
100
AcDbEntity
8
0-0
6
CONTINUOUS
62
7
100
AcDbCircle
10
68.052252977889
20
212.170792770008
30
0.0
40
0.100000000000
100
AcDbArc
50
325.000000000000
51
399.694950682826
0
ARC
5
427
100
AcDbEntity
8
0-0
6
CONTINUOUS
62
7
100
AcDbCircle
10
67.254367358387
20
212.156208803201
30
0.0
40
0.100000000000
100
AcDbArc
50
331.999999999999
51
409.316322355114
0
LINE
5
428
100
AcDbEntity
8
0-0
6
CONTINUOUS
62
7
100
AcDbLine
10
66.846918108169
20
212.638338985172
30
0.0
11
67.319555598481
21
212.232040810648
31
0.0
0
ARC
5
429
100
AcDbEntity
8
0-0
6
CONTINUOUS
62
7
100
AcDbCircle
10
67.368424028924
20
213.244995044746
30
0.0
40
0.800000000000
100
AcDbArc
50
181.981864556440
51
229.316322355116
0
LINE
5
42a
100
AcDbEntity
8
0-0
6
CONTINUOUS
62
7
100
AcDbLine
10
68.134168182318
20
212.113435126373
30
0.0
11
66.532499545798
21
209.736279181082
31
0.0
0
LINE
5
42b
100
AcDbEntity
8
0-0
6
CONTINUOUS
62
7
100
AcDbLine
10
67.342662117673
20
212.109261646923
30
0.0
11
66.463663496597
21
210.379474249219
31
0.0
0
ARC
5
42c
100
AcDbEntity
8
0-0
6
CONTINUOUS
62
7
100
AcDbCircle
10
66.285012172383
20
209.983766554497
30
0.0
40
0.350000000000
100
AcDbArc
50
78.527842883460
51
315.000000000010
0
ARC
5
42d
100
AcDbEntity
8
0-0
6
CONTINUOUS
62
7
100
AcDbCircle
10
66.374513444806
20
210.424776216789
30
0.0
40
0.100000000000
100
AcDbArc
50
258.527842883457
51
333.062411102501
0
ARC
5
42e
100
AcDbEntity
8
0-0
6
CONTINUOUS
62
7
100
AcDbCircle
10
60.674770059348
20
213.046037304967
30
0.0
40
0.100000000000
100
AcDbArc
50
320.305049317173
51
362.000000000000
0
LINE
5
42f
100
AcDbEntity
8
0-0
6
CONTINUOUS
62
7
100
AcDbLine
10
60.131236696474
20
212.234662771008
30
0.0
11
60.751715643836
21
212.982167303967
31
0.0
0
ARC
5
430
100
AcDbEntity
8
0-0
6
CONTINUOUS
62
7
100
AcDbCircle
10
60.208182280963
20
212.170792770008
30
0.0
40
0.100000000000
100
AcDbArc
50
140.305049317174
51
215.000000000000
0
ARC
5
431
100
AcDbEntity
8
0-0
6
CONTINUOUS
62
7
100
AcDbCircle
10
61.006067900465
20
212.156208803201
30
0.0
40
0.100000000000
100
AcDbArc
50
130.683677644886
51
208.000000000001
0
LINE
5
432
100
AcDbEntity
8
0-0
6
CONTINUOUS
62
7
100
AcDbLine
10
61.413517150683
20
212.638338985172
30
0.0
11
60.940879660370
21
212.232040810648
31
0.0
0
ARC
5
433
100
AcDbEntity
8
0-0
6
CONTINUOUS
62
7
100
AcDbCircle
10
60.892011229928
20
213.244995044746
30
0.0
40
0.800000000000
100
AcDbArc
50
310.683677644884
51
358.018135443560
0
LINE
5
434
100
AcDbEntity
8
0-0
6
CONTINUOUS
62
7
100
AcDbLine
10
60.126267076534
20
212.113435126373
30
0.0
11
61.727935713054
21
209.736279181082
31
0.0
0
LINE
5
435
100
AcDbEntity
8
0-0
6
CONTINUOUS
62
7
100
AcDbLine
10
60.917773141179
20
212.109261646923
30
0.0
11
61.796771762255
21
210.379474249219
31
0.0
0
ARC
5
436
100
AcDbEntity
8
0-0
6
CONTINUOUS
62
7
100
AcDbCircle
10
61.975423086469
20
209.983766554497
30
0.0
40
0.350000000000
100
AcDbArc
50
224.999999999990
51
461.472157116540
0
ARC
5
437
100
AcDbEntity
8
0-0
6
CONTINUOUS
62
7
100
AcDbCircle
10
61.885921814046
20
210.424776216789
30
0.0
40
0.100000000000
100
AcDbArc
50
206.937588897499
51
281.472157116543
0
ARC
5
438
100
AcDbEntity
8
0-0
6
CONTINUOUS
62
7
100
AcDbCircle
10
66.240471099004
20
214.033766554497
30
0.0
40
0.300000000000
100
AcDbArc
50
1.981864556440
51
90.000000000000
0
LINE
5
439
100
AcDbEntity
8
0-0
6
CONTINUOUS
62
7
100
AcDbLine
10
66.540291646041
20
214.044141503869
30
0.0
11
66.568902570158
21
213.217328513085
31
0.0
0
LINE
5
43a
100
AcDbEntity
8
0-0
6
CONTINUOUS
62
7
100
AcDbLine
10
67.676609715957
20
214.363275611532
30
0.0
11
75.854243450196
21
214.334730168856
31
0.0
0
LINE
5
43b
100
AcDbEntity
8
0-0
6
CONTINUOUS
62
7
100
AcDbLine
10
67.526175844726
20
214.218464000070
30
0.0
11
67.485726116802
21
213.049527254637
31
0.0
0
ARC
5
43c
100
AcDbEntity
8
0-0
6
CONTINUOUS
62
7
100
AcDbCircle
10
67.676086118244
20
214.213276525383
30
0.0
40
0.150000000000
100
AcDbArc
50
89.800000000001
51
178.018135443560
0
LINE
5
43d
100
AcDbEntity
8
0-0
6
CONTINUOUS
62
7
100
AcDbLine
10
60.583825542895
20
214.363275611532
30
0.0
11
52.406191808655
21
214.334730168856
31
0.0
0
LINE
5
43e
100
AcDbEntity
8
0-0
6
CONTINUOUS
62
7
100
AcDbLine
10
60.734259414126
20
214.218464000070
30
0.0
11
60.774709142050
21
213.049527254637
31
0.0
0
ARC
5
43f
100
AcDbEntity
8
0-0
6
CONTINUOUS
62
7
100
AcDbCircle
10
60.584349140607
20
214.213276525383
30
0.0
40
0.150000000000
100
AcDbArc
50
1.981864556440
51
90.199999999999
0
LINE
5
440
100
AcDbEntity
8
0-0
6
CONTINUOUS
62
7
100
AcDbLine
10
62.019964159847
20
214.333766554497
30
0.0
11
66.240471099004
21
214.333766554497
31
0.0
0
LINE
5
441
100
AcDbEntity
8
0-0
6
CONTINUOUS
62
7
100
AcDbLine
10
61.720143612810
20
214.044141503869
30
0.0
11
61.691532688693
21
213.217328513085
31
0.0
0
ARC
5
442
100
AcDbEntity
8
0-0
6
CONTINUOUS
62
7
100
AcDbCircle
10
62.019964159847
20
214.033766554497
30
0.0
40
0.300000000000
100
AcDbArc
50
90.000000000000
51
178.018135443560
0
ARC
5
443
100
AcDbEntity
8
0-0
6
CONTINUOUS
62
7
100
AcDbCircle
10
103.516820632144
20
225.299036385641
30
0.0
40
0.300000000000
100
AcDbArc
50
274.593513009813
51
360.000000000000
0
LINE
5
444
100
AcDbEntity
8
0-0
6
CONTINUOUS
62
7
100
AcDbLine
10
103.816820632144
20
225.445446547155
30
0.0
11
103.816820632144
21
225.299036385641
31
0.0
0
ARC
5
445
100
AcDbEntity
8
0-0
6
CONTINUOUS
62
7
100
AcDbCircle
10
103.616820632144
20
225.445446547155
30
0.0
40
0.200000000000
100
AcDbArc
50
0.000000000000
51
30.000000000000
0
LINE
5
446
100
AcDbEntity
8
0-0
6
CONTINUOUS
62
7
100
AcDbLine
10
103.528145497549
20
225.999036385641
30
0.0
11
103.790025712901
21
225.545446547155
31
0.0
0
ARC
5
447
100
AcDbEntity
8
0-0
6
CONTINUOUS
62
7
100
AcDbCircle
10
102.662120093764
20
225.499036385641
30
0.0
40
1.000000000000
100
AcDbArc
50
30.000000000000
51
90.000000000000
0
LINE
5
448
100
AcDbEntity
8
0-0
6
CONTINUOUS
62
7
100
AcDbLine
10
79.816820632105
20
225.445446547155
30
0.0
11
79.816820632105
21
225.299036385641
31
0.0
0
ARC
5
449
100
AcDbEntity
8
0-0
6
CONTINUOUS
62
7
100
AcDbCircle
10
80.016820632105
20
225.445446547155
30
0.0
40
0.200000000000
100
AcDbArc
50
150.000000000000
51
180.000000000000
0
LINE
5
44a
100
AcDbEntity
8
0-0
6
CONTINUOUS
62
7
100
AcDbLine
10
80.105495766700
20
225.999036385641
30
0.0
11
79.843615551348
21
225.545446547155
31
0.0
0
ARC
5
44b
100
AcDbEntity
8
0-0
6
CONTINUOUS
62
7
100
AcDbCircle
10
80.116820632105
20
225.299036385641
30
0.0
40
0.300000000000
100
AcDbArc
50
180.000000000000
51
265.406486989926
0
ARC
5
44c
100
AcDbEntity
8
0-0
6
CONTINUOUS
62
7
100
AcDbCircle
10
80.971521170484
20
225.499036385641
30
0.0
40
1.000000000000
100
AcDbArc
50
90.000000000000
51
150.000000000000
0
LINE
5
44d
100
AcDbEntity
8
0-0
6
CONTINUOUS
62
7
100
AcDbLine
10
102.662120093764
20
226.499036385641
30
0.0
11
80.971521170484
21
226.499036385641
31
0.0
0
ARC
5
44e
100
AcDbEntity
8
0-0
6
CONTINUOUS
62
7
100
AcDbCircle
10
95.272268202202
20
223.711307136111
30
0.0
40
0.100000000000
100
AcDbArc
50
178.000000000000
51
219.694950682827
0
LINE
5
44f
100
AcDbEntity
8
0-0
6
CONTINUOUS
62
7
100
AcDbLine
10
95.815801565076
20
222.899932602152
30
0.0
11
95.195322617714
21
223.647437135111
31
0.0
0
ARC
5
450
100
AcDbEntity
8
0-0
6
CONTINUOUS
62
7
100
AcDbCircle
10
95.738855980587
20
222.836062601152
30
0.0
40
0.100000000000
100
AcDbArc
50
325.000000000000
51
399.694950682826
0
ARC
5
451
100
AcDbEntity
8
0-0
6
CONTINUOUS
62
7
100
AcDbCircle
10
94.940970361086
20
222.821478634346
30
0.0
40
0.100000000000
100
AcDbArc
50
331.999999999999
51
409.316322355114
0
LINE
5
452
100
AcDbEntity
8
0-0
6
CONTINUOUS
62
7
100
AcDbLine
10
94.533521110867
20
223.303608816316
30
0.0
11
95.006158601180
21
222.897310641792
31
0.0
0
ARC
5
453
100
AcDbEntity
8
0-0
6
CONTINUOUS
62
7
100
AcDbCircle
10
95.055027031622
20
223.910264875890
30
0.0
40
0.800000000000
100
AcDbArc
50
181.981864556440
51
229.316322355116
0
LINE
5
454
100
AcDbEntity
8
0-0
6
CONTINUOUS
62
7
100
AcDbLine
10
95.820771185016
20
222.778704957517
30
0.0
11
94.219102548497
21
220.401549012226
31
0.0
0
LINE
5
455
100
AcDbEntity
8
0-0
6
CONTINUOUS
62
7
100
AcDbLine
10
95.029265120371
20
222.774531478067
30
0.0
11
94.150266499295
21
221.044744080363
31
0.0
0
ARC
5
456
100
AcDbEntity
8
0-0
6
CONTINUOUS
62
7
100
AcDbCircle
10
93.971615175081
20
220.649036385641
30
0.0
40
0.350000000000
100
AcDbArc
50
78.527842883460
51
315.000000000010
0
ARC
5
457
100
AcDbEntity
8
0-0
6
CONTINUOUS
62
7
100
AcDbCircle
10
94.061116447504
20
221.090046047933
30
0.0
40
0.100000000000
100
AcDbArc
50
258.527842883457
51
333.062411102501
0
ARC
5
458
100
AcDbEntity
8
0-0
6
CONTINUOUS
62
7
100
AcDbCircle
10
88.361373062046
20
223.711307136111
30
0.0
40
0.100000000000
100
AcDbArc
50
320.305049317173
51
362.000000000000
0
LINE
5
459
100
AcDbEntity
8
0-0
6
CONTINUOUS
62
7
100
AcDbLine
10
87.817839699173
20
222.899932602152
30
0.0
11
88.438318646535
21
223.647437135111
31
0.0
0
ARC
5
45a
100
AcDbEntity
8
0-0
6
CONTINUOUS
62
7
100
AcDbCircle
10
87.894785283661
20
222.836062601152
30
0.0
40
0.100000000000
100
AcDbArc
50
140.305049317174
51
215.000000000000
0
ARC
5
45b
100
AcDbEntity
8
0-0
6
CONTINUOUS
62
7
100
AcDbCircle
10
88.692670903163
20
222.821478634346
30
0.0
40
0.100000000000
100
AcDbArc
50
130.683677644886
51
208.000000000001
0
LINE
5
45c
100
AcDbEntity
8
0-0
6
CONTINUOUS
62
7
100
AcDbLine
10
89.100120153381
20
223.303608816316
30
0.0
11
88.627482663069
21
222.897310641792
31
0.0
0
ARC
5
45d
100
AcDbEntity
8
0-0
6
CONTINUOUS
62
7
100
AcDbCircle
10
88.578614232627
20
223.910264875890
30
0.0
40
0.800000000000
100
AcDbArc
50
310.683677644884
51
358.018135443560
0
LINE
5
45e
100
AcDbEntity
8
0-0
6
CONTINUOUS
62
7
100
AcDbLine
10
87.812870079232
20
222.778704957517
30
0.0
11
89.414538715752
21
220.401549012226
31
0.0
0
LINE
5
45f
100
AcDbEntity
8
0-0
6
CONTINUOUS
62
7
100
AcDbLine
10
88.604376143877
20
222.774531478067
30
0.0
11
89.483374764953
21
221.044744080363
31
0.0
0
ARC
5
460
100
AcDbEntity
8
0-0
6
CONTINUOUS
62
7
100
AcDbCircle
10
89.662026089168
20
220.649036385641
30
0.0
40
0.350000000000
100
AcDbArc
50
224.999999999990
51
461.472157116540
0
ARC
5
461
100
AcDbEntity
8
0-0
6
CONTINUOUS
62
7
100
AcDbCircle
10
89.572524816744
20
221.090046047933
30
0.0
40
0.100000000000
100
AcDbArc
50
206.937588897499
51
281.472157116543
0
ARC
5
462
100
AcDbEntity
8
0-0
6
CONTINUOUS
62
7
100
AcDbCircle
10
93.927074101703
20
224.699036385641
30
0.0
40
0.300000000000
100
AcDbArc
50
1.981864556440
51
90.000000000000
0
LINE
5
463
100
AcDbEntity
8
0-0
6
CONTINUOUS
62
7
100
AcDbLine
10
94.226894648740
20
224.709411335014
30
0.0
11
94.255505572857
21
223.882598344230
31
0.0
0
LINE
5
464
100
AcDbEntity
8
0-0
6
CONTINUOUS
62
7
100
AcDbLine
10
95.363212718655
20
225.028545442676
30
0.0
11
103.540846452895
21
225.000000000000
31
0.0
0
LINE
5
465
100
AcDbEntity
8
0-0
6
CONTINUOUS
62
7
100
AcDbLine
10
95.212778847425
20
224.883733831214
30
0.0
11
95.172329119501
21
223.714797085781
31
0.0
0
ARC
5
466
100
AcDbEntity
8
0-0
6
CONTINUOUS
62
7
100
AcDbCircle
10
95.362689120943
20
224.878546356527
30
0.0
40
0.150000000000
100
AcDbArc
50
89.800000000001
51
178.018135443560
0
LINE
5
467
100
AcDbEntity
8
0-0
6
CONTINUOUS
62
7
100
AcDbLine
10
88.270428545593
20
225.028545442676
30
0.0
11
80.092794811354
21
225.000000000000
31
0.0
0
LINE
5
468
100
AcDbEntity
8
0-0
6
CONTINUOUS
62
7
100
AcDbLine
10
88.420862416824
20
224.883733831214
30
0.0
11
88.461312144748
21
223.714797085781
31
0.0
0
ARC
5
469
100
AcDbEntity
8
0-0
6
CONTINUOUS
62
7
100
AcDbCircle
10
88.270952143306
20
224.878546356527
30
0.0
40
0.150000000000
100
AcDbArc
50
1.981864556440
51
90.199999999999
0
LINE
5
46a
100
AcDbEntity
8
0-0
6
CONTINUOUS
62
7
100
AcDbLine
10
89.706567162546
20
224.999036385641
30
0.0
11
93.927074101703
21
224.999036385641
31
0.0
0
LINE
5
46b
100
AcDbEntity
8
0-0
6
CONTINUOUS
62
7
100
AcDbLine
10
89.406746615509
20
224.709411335014
30
0.0
11
89.378135691392
21
223.882598344230
31
0.0
0
ARC
5
46c
100
AcDbEntity
8
0-0
6
CONTINUOUS
62
7
100
AcDbCircle
10
89.706567162546
20
224.699036385641
30
0.0
40
0.300000000000
100
AcDbArc
50
90.000000000000
51
178.018135443560
0
POLYLINE
5
46d
100
AcDbEntity
8
0-1
6
CONTINUOUS
62
  4
100
AcDb2dPolyline
66
1
10
0.0
20
0.0
30
0.0
70
0
0
VERTEX
5
46e
100
AcDbEntity
8
0-1
6
CONTINUOUS
62
  4
100
AcDbVertex
100
AcDb2dVertex
10
98.116820632125
20
217.175735931288
30
0.0
0
VERTEX
5
46f
100
AcDbEntity
8
0-1
6
CONTINUOUS
62
  4
100
AcDbVertex
100
AcDb2dVertex
10
98.116820632125
20
212.700000000000
30
0.0
0
VERTEX
5
470
100
AcDbEntity
8
0-1
6
CONTINUOUS
62
  4
100
AcDbVertex
100
AcDb2dVertex
10
97.916820632125
20
212.500000000000
30
0.0
0
SEQEND
5
471
100
AcDbEntity
8
0-1
0
LINE
5
472
100
AcDbEntity
8
0-1
6
CONTINUOUS
62
4
100
AcDbLine
10
95.339174918594
20
215.059579651493
30
0.0
11
96.394466345655
21
215.342344137153
31
0.0
0
ARC
5
473
100
AcDbEntity
8
0-1
6
CONTINUOUS
62
4
100
AcDbCircle
10
96.316820632124
20
217.100000000000
30
0.0
40
0.300000000000
100
AcDbArc
50
0.000000000000
51
90.000000000000
0
ARC
5
474
100
AcDbEntity
8
0-1
6
CONTINUOUS
62
4
100
AcDbCircle
10
96.316820632124
20
215.632121885040
30
0.0
40
0.300000000000
100
AcDbArc
50
285.000000000000
51
360.000000000000
0
ARC
5
475
100
AcDbEntity
8
0-1
6
CONTINUOUS
62
4
100
AcDbCircle
10
95.416820632124
20
214.769801903606
30
0.0
40
0.300000000000
100
AcDbArc
50
105.000000000000
51
180.000000000000
0
ARC
5
476
100
AcDbEntity
8
0-1
6
CONTINUOUS
62
4
100
AcDbCircle
10
96.492556563412
20
219.100000000000
30
0.0
40
0.300000000000
100
AcDbArc
50
270.000000000000
51
315.000000000000
0
LINE
5
477
100
AcDbEntity
8
0-1
6
CONTINUOUS
62
4
100
AcDbLine
10
95.116820632125
20
212.500000000000
30
0.0
11
95.116820632125
21
214.769801903606
31
0.0
0
POLYLINE
5
478
100
AcDbEntity
8
0-1
6
CONTINUOUS
62
  4
100
AcDb2dPolyline
66
1
10
0.0
20
0.0
30
0.0
70
0
0
VERTEX
5
479
100
AcDbEntity
8
0-1
6
CONTINUOUS
62
  4
100
AcDbVertex
100
AcDb2dVertex
10
85.716820632124
20
212.500000000000
30
0.0
0
VERTEX
5
47a
100
AcDbEntity
8
0-1
6
CONTINUOUS
62
  4
100
AcDbVertex
100
AcDb2dVertex
10
85.516820632124
20
212.700000000000
30
0.0
0
VERTEX
5
47b
100
AcDbEntity
8
0-1
6
CONTINUOUS
62
  4
100
AcDbVertex
100
AcDb2dVertex
10
85.516820632124
20
217.175735931288
30
0.0
0
SEQEND
5
47c
100
AcDbEntity
8
0-1
0
LINE
5
47d
100
AcDbEntity
8
0-1
6
CONTINUOUS
62
4
100
AcDbLine
10
85.428952666480
20
217.387867965644
30
0.0
11
84.404688597768
21
218.412132034356
31
0.0
0
LINE
5
47e
100
AcDbEntity
8
0-1
6
CONTINUOUS
62
4
100
AcDbLine
10
84.192556563412
20
218.500000000000
30
0.0
11
81.416820632124
21
218.500000000000
31
0.0
0
LINE
5
47f
100
AcDbEntity
8
0-1
6
CONTINUOUS
62
4
100
AcDbLine
10
81.116820632124
20
218.200000000000
30
0.0
11
81.116820632124
21
216.400000000000
31
0.0
0
LINE
5
480
100
AcDbEntity
8
0-1
6
CONTINUOUS
62
4
100
AcDbLine
10
80.816820632124
20
216.100000000000
30
0.0
11
79.616820632125
21
216.100000000000
31
0.0
0
LINE
5
481
100
AcDbEntity
8
0-1
6
CONTINUOUS
62
4
100
AcDbLine
10
87.239174918594
20
215.342344137153
30
0.0
11
88.294466345655
21
215.059579651493
31
0.0
0
LINE
5
482
100
AcDbEntity
8
0-1
6
CONTINUOUS
62
4
100
AcDbLine
10
87.016820632124
20
217.100000000000
30
0.0
11
87.016820632124
21
215.632121885040
31
0.0
0
ARC
5
483
100
AcDbEntity
8
0-1
6
CONTINUOUS
62
4
100
AcDbCircle
10
79.616820632125
20
216.400000000000
30
0.0
40
0.300000000000
100
AcDbArc
50
180.000000000000
51
270.000000000000
0
ARC
5
484
100
AcDbEntity
8
0-1
6
CONTINUOUS
62
4
100
AcDbCircle
10
88.216820632124
20
214.769801903606
30
0.0
40
0.300000000000
100
AcDbArc
50
0.000000000000
51
75.000000000000
0
ARC
5
485
100
AcDbEntity
8
0-1
6
CONTINUOUS
62
4
100
AcDbCircle
10
87.316820632124
20
215.632121885040
30
0.0
40
0.300000000000
100
AcDbArc
50
180.000000000000
51
255.000000000000
0
ARC
5
486
100
AcDbEntity
8
0-1
6
CONTINUOUS
62
4
100
AcDbCircle
10
87.316820632124
20
217.100000000000
30
0.0
40
0.300000000000
100
AcDbArc
50
90.000000000000
51
180.000000000000
0
ARC
5
487
100
AcDbEntity
8
0-1
6
CONTINUOUS
62
4
100
AcDbCircle
10
84.192556563412
20
218.200000000000
30
0.0
40
0.300000000000
100
AcDbArc
50
45.000000000000
51
90.000000000000
0
ARC
5
488
100
AcDbEntity
8
0-1
6
CONTINUOUS
62
4
100
AcDbCircle
10
81.416820632124
20
218.200000000000
30
0.0
40
0.300000000000
100
AcDbArc
50
90.000000000000
51
180.000000000000
0
ARC
5
489
100
AcDbEntity
8
0-1
6
CONTINUOUS
62
4
100
AcDbCircle
10
80.816820632124
20
216.400000000000
30
0.0
40
0.300000000000
100
AcDbArc
50
270.000000000000
51
360.000000000000
0
ARC
5
48a
100
AcDbEntity
8
0-1
6
CONTINUOUS
62
4
100
AcDbCircle
10
85.216820632124
20
217.175735931288
30
0.0
40
0.300000000000
100
AcDbArc
50
0.000000000000
51
45.000000000000
0
LINE
5
48b
100
AcDbEntity
8
0-1
6
CONTINUOUS
62
4
100
AcDbLine
10
88.516820632124
20
214.769801903606
30
0.0
11
88.516820632124
21
212.500000000000
31
0.0
0
LINE
5
48c
100
AcDbEntity
8
0-1
6
CONTINUOUS
62
4
100
AcDbLine
10
96.316820632124
20
217.400000000000
30
0.0
11
87.316820632124
21
217.400000000000
31
0.0
0
ARC
5
48d
100
AcDbEntity
8
0-1
6
CONTINUOUS
62
4
100
AcDbCircle
10
97.516820632124
20
220.124264068712
30
0.0
40
0.300000000000
100
AcDbArc
50
315.000000000000
51
360.000000000000
0
LINE
5
48e
100
AcDbEntity
8
0-1
6
CONTINUOUS
62
4
100
AcDbLine
10
97.816820632124
20
220.124264068712
30
0.0
11
97.816820632124
21
222.900000000000
31
0.0
0
LINE
5
48f
100
AcDbEntity
8
0-1
6
CONTINUOUS
62
4
100
AcDbLine
10
96.704688597768
20
218.887867965644
30
0.0
11
97.728952666480
21
219.912132034356
31
0.0
0
LINE
5
490
100
AcDbEntity
8
0-1
6
CONTINUOUS
62
4
100
AcDbLine
10
104.016820632124
20
216.100000000000
30
0.0
11
102.816820632124
21
216.100000000000
31
0.0
0
LINE
5
491
100
AcDbEntity
8
0-1
6
CONTINUOUS
62
4
100
AcDbLine
10
102.516820632125
20
216.400000000000
30
0.0
11
102.516820632125
21
218.200000000000
31
0.0
0
LINE
5
492
100
AcDbEntity
8
0-1
6
CONTINUOUS
62
4
100
AcDbLine
10
99.228952666480
20
218.412132034356
30
0.0
11
98.204688597768
21
217.387867965644
31
0.0
0
LINE
5
493
100
AcDbEntity
8
0-1
6
CONTINUOUS
62
4
100
AcDbLine
10
96.616820632125
20
215.632121885040
30
0.0
11
96.616820632125
21
217.100000000000
31
0.0
0
ARC
5
494
100
AcDbEntity
8
0-1
6
CONTINUOUS
62
4
100
AcDbCircle
10
104.016820632124
20
216.400000000000
30
0.0
40
0.300000000000
100
AcDbArc
50
270.000000000000
51
360.000000000000
0
ARC
5
495
100
AcDbEntity
8
0-1
6
CONTINUOUS
62
4
100
AcDbCircle
10
102.816820632124
20
216.400000000000
30
0.0
40
0.300000000000
100
AcDbArc
50
180.000000000000
51
270.000000000000
0
ARC
5
496
100
AcDbEntity
8
0-1
6
CONTINUOUS
62
4
100
AcDbCircle
10
102.216820632125
20
218.200000000000
30
0.0
40
0.300000000000
100
AcDbArc
50
0.000000000000
51
90.000000000000
0
ARC
5
497
100
AcDbEntity
8
0-1
6
CONTINUOUS
62
4
100
AcDbCircle
10
99.441084700836
20
218.200000000000
30
0.0
40
0.300000000000
100
AcDbArc
50
90.000000000000
51
135.000000000000
0
ARC
5
498
100
AcDbEntity
8
0-1
6
CONTINUOUS
62
4
100
AcDbCircle
10
98.416820632125
20
217.175735931288
30
0.0
40
0.300000000000
100
AcDbArc
50
135.000000000000
51
180.000000000000
0
LINE
5
499
100
AcDbEntity
8
0-1
6
CONTINUOUS
62
4
100
AcDbLine
10
102.216820632125
20
218.500000000000
30
0.0
11
99.441084700836
21
218.500000000000
31
0.0
0
ARC
5
49a
100
AcDbEntity
8
0-1
6
CONTINUOUS
62
4
100
AcDbCircle
10
95.716820632124
20
224.700000000000
30
0.0
40
0.300000000000
100
AcDbArc
50
90.000000000000
51
180.000000000000
0
LINE
5
49b
100
AcDbEntity
8
0-1
6
CONTINUOUS
62
4
100
AcDbLine
10
95.416820632124
20
223.500000000000
30
0.0
11
95.416820632124
21
224.700000000000
31
0.0
0
ARC
5
49c
100
AcDbEntity
8
0-1
6
CONTINUOUS
62
4
100
AcDbCircle
10
95.716820632124
20
223.500000000000
30
0.0
40
0.300000000000
100
AcDbArc
50
180.000000000000
51
270.000000000000
0
LINE
5
49d
100
AcDbEntity
8
0-1
6
CONTINUOUS
62
4
100
AcDbLine
10
97.516820632124
20
223.200000000000
30
0.0
11
95.716820632124
21
223.200000000000
31
0.0
0
ARC
5
49e
100
AcDbEntity
8
0-1
6
CONTINUOUS
62
4
100
AcDbCircle
10
97.516820632124
20
222.900000000000
30
0.0
40
0.300000000000
100
AcDbArc
50
0.000000000000
51
90.000000000000
0
ARC
5
49f
100
AcDbEntity
8
0-1
6
CONTINUOUS
62
4
100
AcDbCircle
10
103.316820632124
20
224.000000000000
30
0.0
40
1.000000000000
100
AcDbArc
50
0.000000000000
51
90.000000000000
0
CIRCLE
5
4a0
100
AcDbEntity
8
0-1
6
CONTINUOUS
62
4
100
AcDbCircle
10
101.066820632124
20
221.750000000000
30
0.0
40
2.100000000000
0
LINE
5
4a1
100
AcDbEntity
8
0-1
6
CONTINUOUS
62
4
100
AcDbLine
10
104.316820632124
20
224.000000000000
30
0.0
11
104.316820632124
21
216.400000000000
31
0.0
0
ARC
5
4a2
100
AcDbEntity
8
0-1
6
CONTINUOUS
62
4
100
AcDbCircle
10
86.116820632124
20
222.900000000000
30
0.0
40
0.300000000000
100
AcDbArc
50
90.000000000000
51
180.000000000000
0
CIRCLE
5
4a3
100
AcDbEntity
8
0-1
6
CONTINUOUS
62
4
100
AcDbCircle
10
82.566820632124
20
221.750000000000
30
0.0
40
2.100000000000
0
ARC
5
4a4
100
AcDbEntity
8
0-1
6
CONTINUOUS
62
4
100
AcDbCircle
10
86.116820632124
20
220.124264068712
30
0.0
40
0.300000000000
100
AcDbArc
50
180.000000000000
51
225.000000000000
0
LINE
5
4a5
100
AcDbEntity
8
0-1
6
CONTINUOUS
62
4
100
AcDbLine
10
85.816820632124
20
222.900000000000
30
0.0
11
85.816820632124
21
220.124264068712
31
0.0
0
LINE
5
4a6
100
AcDbEntity
8
0-1
6
CONTINUOUS
62
4
100
AcDbLine
10
87.916820632125
20
223.200000000000
30
0.0
11
86.116820632124
21
223.200000000000
31
0.0
0
ARC
5
4a7
100
AcDbEntity
8
0-1
6
CONTINUOUS
62
4
100
AcDbCircle
10
87.916820632125
20
223.500000000000
30
0.0
40
0.300000000000
100
AcDbArc
50
270.000000000000
51
360.000000000000
0
LINE
5
4a8
100
AcDbEntity
8
0-1
6
CONTINUOUS
62
4
100
AcDbLine
10
88.216820632124
20
224.700000000000
30
0.0
11
88.216820632124
21
223.500000000000
31
0.0
0
ARC
5
4a9
100
AcDbEntity
8
0-1
6
CONTINUOUS
62
4
100
AcDbCircle
10
87.916820632124
20
224.700000000000
30
0.0
40
0.300000000000
100
AcDbArc
50
0.000000000000
51
90.000000000000
0
ARC
5
4aa
100
AcDbEntity
8
0-1
6
CONTINUOUS
62
4
100
AcDbCircle
10
80.316820632124
20
224.000000000000
30
0.0
40
1.000000000000
100
AcDbArc
50
90.000000000000
51
180.000000000000
0
LINE
5
4ab
100
AcDbEntity
8
0-1
6
CONTINUOUS
62
4
100
AcDbLine
10
79.316820632124
20
216.400000000000
30
0.0
11
79.316820632124
21
224.000000000000
31
0.0
0
LINE
5
4ac
100
AcDbEntity
8
0-1
6
CONTINUOUS
62
4
100
AcDbLine
10
85.904688597769
20
219.912132034356
30
0.0
11
86.928952666481
21
218.887867965644
31
0.0
0
ARC
5
4ad
100
AcDbEntity
8
0-1
6
CONTINUOUS
62
4
100
AcDbCircle
10
87.141084700836
20
219.100000000000
30
0.0
40
0.300000000000
100
AcDbArc
50
225.000000000000
51
270.000000000000
0
LINE
5
4ae
100
AcDbEntity
8
0-1
6
CONTINUOUS
62
4
100
AcDbLine
10
87.141084700836
20
218.800000000000
30
0.0
11
96.492556563412
21
218.800000000000
31
0.0
0
LINE
5
4af
100
AcDbEntity
8
F-F_J_ADD
6
HIDDEN
62
4
100
AcDbLine
10
101.066820632124
20
221.750000000000
30
0.0
11
104.316820632124
21
225.000000000000
31
0.0
0
LINE
5
4b0
100
AcDbEntity
8
F-F_J_ADD
6
HIDDEN
62
4
100
AcDbLine
10
82.566820632124
20
221.750000000000
30
0.0
11
79.316820632124
21
225.000000000000
31
0.0
0
LINE
5
4b1
100
AcDbEntity
8
0-1
6
CONTINUOUS
62
4
100
AcDbLine
10
80.316820632124
20
225.000000000000
30
0.0
11
103.316820632124
21
225.000000000000
31
0.0
0
LINE
5
4b2
100
AcDbEntity
8
0-1
6
PHANTOM
62
4
100
AcDbLine
10
91.816820632124
20
224.999036385641
30
0.0
11
91.816820632124
21
212.500000000000
31
0.0
0
POLYLINE
5
4b3
100
AcDbEntity
8
0-1
6
CONTINUOUS
62
  4
100
AcDb2dPolyline
66
1
10
0.0
20
0.0
30
0.0
70
0
0
VERTEX
5
4b4
100
AcDbEntity
8
0-1
6
CONTINUOUS
62
  4
100
AcDbVertex
100
AcDb2dVertex
10
98.116820632125
20
207.824264068712
30
0.0
0
VERTEX
5
4b5
100
AcDbEntity
8
0-1
6
CONTINUOUS
62
  4
100
AcDbVertex
100
AcDb2dVertex
10
98.116820632125
20
212.300000000000
30
0.0
0
VERTEX
5
4b6
100
AcDbEntity
8
0-1
6
CONTINUOUS
62
  4
100
AcDbVertex
100
AcDb2dVertex
10
97.916820632125
20
212.500000000000
30
0.0
0
SEQEND
5
4b7
100
AcDbEntity
8
0-1
0
LINE
5
4b8
100
AcDbEntity
8
0-1
6
CONTINUOUS
62
4
100
AcDbLine
10
95.339174918594
20
209.940420348507
30
0.0
11
96.394466345655
21
209.657655862847
31
0.0
0
ARC
5
4b9
100
AcDbEntity
8
0-1
6
CONTINUOUS
62
4
100
AcDbCircle
10
96.316820632124
20
207.900000000000
30
0.0
40
0.300000000000
100
AcDbArc
50
270.000000000000
51
360.000000000000
0
ARC
5
4ba
100
AcDbEntity
8
0-1
6
CONTINUOUS
62
4
100
AcDbCircle
10
96.316820632124
20
209.367878114960
30
0.0
40
0.300000000000
100
AcDbArc
50
0.000000000000
51
75.000000000000
0
ARC
5
4bb
100
AcDbEntity
8
0-1
6
CONTINUOUS
62
4
100
AcDbCircle
10
95.416820632124
20
210.230198096394
30
0.0
40
0.300000000000
100
AcDbArc
50
180.000000000000
51
255.000000000000
0
ARC
5
4bc
100
AcDbEntity
8
0-1
6
CONTINUOUS
62
4
100
AcDbCircle
10
96.492556563412
20
205.900000000000
30
0.0
40
0.300000000000
100
AcDbArc
50
45.000000000000
51
90.000000000000
0
LINE
5
4bd
100
AcDbEntity
8
0-1
6
CONTINUOUS
62
4
100
AcDbLine
10
95.116820632125
20
212.500000000000
30
0.0
11
95.116820632125
21
210.230198096394
31
0.0
0
POLYLINE
5
4be
100
AcDbEntity
8
0-1
6
CONTINUOUS
62
  4
100
AcDb2dPolyline
66
1
10
0.0
20
0.0
30
0.0
70
0
0
VERTEX
5
4bf
100
AcDbEntity
8
0-1
6
CONTINUOUS
62
  4
100
AcDbVertex
100
AcDb2dVertex
10
85.716820632124
20
212.500000000000
30
0.0
0
VERTEX
5
4c0
100
AcDbEntity
8
0-1
6
CONTINUOUS
62
  4
100
AcDbVertex
100
AcDb2dVertex
10
85.516820632124
20
212.300000000000
30
0.0
0
VERTEX
5
4c1
100
AcDbEntity
8
0-1
6
CONTINUOUS
62
  4
100
AcDbVertex
100
AcDb2dVertex
10
85.516820632124
20
207.824264068712
30
0.0
0
SEQEND
5
4c2
100
AcDbEntity
8
0-1
0
LINE
5
4c3
100
AcDbEntity
8
0-1
6
CONTINUOUS
62
4
100
AcDbLine
10
85.428952666480
20
207.612132034356
30
0.0
11
84.404688597768
21
206.587867965644
31
0.0
0
LINE
5
4c4
100
AcDbEntity
8
0-1
6
CONTINUOUS
62
4
100
AcDbLine
10
84.192556563412
20
206.500000000000
30
0.0
11
81.416820632124
21
206.500000000000
31
0.0
0
LINE
5
4c5
100
AcDbEntity
8
0-1
6
CONTINUOUS
62
4
100
AcDbLine
10
81.116820632124
20
206.800000000000
30
0.0
11
81.116820632124
21
208.600000000000
31
0.0
0
LINE
5
4c6
100
AcDbEntity
8
0-1
6
CONTINUOUS
62
4
100
AcDbLine
10
80.816820632124
20
208.900000000000
30
0.0
11
79.616820632125
21
208.900000000000
31
0.0
0
LINE
5
4c7
100
AcDbEntity
8
0-1
6
CONTINUOUS
62
4
100
AcDbLine
10
87.239174918594
20
209.657655862847
30
0.0
11
88.294466345655
21
209.940420348507
31
0.0
0
LINE
5
4c8
100
AcDbEntity
8
0-1
6
CONTINUOUS
62
4
100
AcDbLine
10
87.016820632124
20
207.900000000000
30
0.0
11
87.016820632124
21
209.367878114960
31
0.0
0
ARC
5
4c9
100
AcDbEntity
8
0-1
6
CONTINUOUS
62
4
100
AcDbCircle
10
79.616820632125
20
208.600000000000
30
0.0
40
0.300000000000
100
AcDbArc
50
90.000000000000
51
180.000000000000
0
ARC
5
4ca
100
AcDbEntity
8
0-1
6
CONTINUOUS
62
4
100
AcDbCircle
10
88.216820632124
20
210.230198096394
30
0.0
40
0.300000000000
100
AcDbArc
50
285.000000000000
51
360.000000000000
0
ARC
5
4cb
100
AcDbEntity
8
0-1
6
CONTINUOUS
62
4
100
AcDbCircle
10
87.316820632124
20
209.367878114960
30
0.0
40
0.300000000000
100
AcDbArc
50
105.000000000000
51
180.000000000000
0
ARC
5
4cc
100
AcDbEntity
8
0-1
6
CONTINUOUS
62
4
100
AcDbCircle
10
87.316820632124
20
207.900000000000
30
0.0
40
0.300000000000
100
AcDbArc
50
180.000000000000
51
270.000000000000
0
ARC
5
4cd
100
AcDbEntity
8
0-1
6
CONTINUOUS
62
4
100
AcDbCircle
10
84.192556563412
20
206.800000000000
30
0.0
40
0.300000000000
100
AcDbArc
50
270.000000000000
51
315.000000000000
0
ARC
5
4ce
100
AcDbEntity
8
0-1
6
CONTINUOUS
62
4
100
AcDbCircle
10
81.416820632124
20
206.800000000000
30
0.0
40
0.300000000000
100
AcDbArc
50
180.000000000000
51
270.000000000000
0
ARC
5
4cf
100
AcDbEntity
8
0-1
6
CONTINUOUS
62
4
100
AcDbCircle
10
80.816820632124
20
208.600000000000
30
0.0
40
0.300000000000
100
AcDbArc
50
0.000000000000
51
90.000000000000
0
ARC
5
4d0
100
AcDbEntity
8
0-1
6
CONTINUOUS
62
4
100
AcDbCircle
10
85.216820632124
20
207.824264068712
30
0.0
40
0.300000000000
100
AcDbArc
50
315.000000000000
51
360.000000000000
0
LINE
5
4d1
100
AcDbEntity
8
0-1
6
CONTINUOUS
62
4
100
AcDbLine
10
88.516820632124
20
210.230198096394
30
0.0
11
88.516820632124
21
212.500000000000
31
0.0
0
LINE
5
4d2
100
AcDbEntity
8
0-1
6
CONTINUOUS
62
4
100
AcDbLine
10
96.316820632124
20
207.600000000000
30
0.0
11
87.316820632124
21
207.600000000000
31
0.0
0
ARC
5
4d3
100
AcDbEntity
8
0-1
6
CONTINUOUS
62
4
100
AcDbCircle
10
97.516820632124
20
204.875735931288
30
0.0
40
0.300000000000
100
AcDbArc
50
0.000000000000
51
45.000000000000
0
LINE
5
4d4
100
AcDbEntity
8
0-1
6
CONTINUOUS
62
4
100
AcDbLine
10
97.816820632124
20
204.875735931288
30
0.0
11
97.816820632124
21
202.100000000000
31
0.0
0
LINE
5
4d5
100
AcDbEntity
8
0-1
6
CONTINUOUS
62
4
100
AcDbLine
10
96.704688597768
20
206.112132034356
30
0.0
11
97.728952666480
21
205.087867965644
31
0.0
0
LINE
5
4d6
100
AcDbEntity
8
0-1
6
CONTINUOUS
62
4
100
AcDbLine
10
104.016820632124
20
208.900000000000
30
0.0
11
102.816820632124
21
208.900000000000
31
0.0
0
LINE
5
4d7
100
AcDbEntity
8
0-1
6
CONTINUOUS
62
4
100
AcDbLine
10
102.516820632125
20
208.600000000000
30
0.0
11
102.516820632125
21
206.800000000000
31
0.0
0
LINE
5
4d8
100
AcDbEntity
8
0-1
6
CONTINUOUS
62
4
100
AcDbLine
10
99.228952666480
20
206.587867965644
30
0.0
11
98.204688597768
21
207.612132034356
31
0.0
0
LINE
5
4d9
100
AcDbEntity
8
0-1
6
CONTINUOUS
62
4
100
AcDbLine
10
96.616820632125
20
209.367878114960
30
0.0
11
96.616820632125
21
207.900000000000
31
0.0
0
ARC
5
4da
100
AcDbEntity
8
0-1
6
CONTINUOUS
62
4
100
AcDbCircle
10
104.016820632124
20
208.600000000000
30
0.0
40
0.300000000000
100
AcDbArc
50
0.000000000000
51
90.000000000000
0
ARC
5
4db
100
AcDbEntity
8
0-1
6
CONTINUOUS
62
4
100
AcDbCircle
10
102.816820632124
20
208.600000000000
30
0.0
40
0.300000000000
100
AcDbArc
50
90.000000000000
51
180.000000000000
0
ARC
5
4dc
100
AcDbEntity
8
0-1
6
CONTINUOUS
62
4
100
AcDbCircle
10
102.216820632125
20
206.800000000000
30
0.0
40
0.300000000000
100
AcDbArc
50
270.000000000000
51
360.000000000000
0
ARC
5
4dd
100
AcDbEntity
8
0-1
6
CONTINUOUS
62
4
100
AcDbCircle
10
99.441084700836
20
206.800000000000
30
0.0
40
0.300000000000
100
AcDbArc
50
225.000000000000
51
270.000000000000
0
ARC
5
4de
100
AcDbEntity
8
0-1
6
CONTINUOUS
62
4
100
AcDbCircle
10
98.416820632125
20
207.824264068712
30
0.0
40
0.300000000000
100
AcDbArc
50
180.000000000000
51
225.000000000000
0
LINE
5
4df
100
AcDbEntity
8
0-1
6
CONTINUOUS
62
4
100
AcDbLine
10
102.216820632125
20
206.500000000000
30
0.0
11
99.441084700836
21
206.500000000000
31
0.0
0
ARC
5
4e0
100
AcDbEntity
8
0-1
6
CONTINUOUS
62
4
100
AcDbCircle
10
95.716820632124
20
200.300000000000
30
0.0
40
0.300000000000
100
AcDbArc
50
180.000000000000
51
270.000000000000
0
LINE
5
4e1
100
AcDbEntity
8
0-1
6
CONTINUOUS
62
4
100
AcDbLine
10
95.416820632124
20
201.500000000000
30
0.0
11
95.416820632124
21
200.300000000000
31
0.0
0
ARC
5
4e2
100
AcDbEntity
8
0-1
6
CONTINUOUS
62
4
100
AcDbCircle
10
95.716820632124
20
201.500000000000
30
0.0
40
0.300000000000
100
AcDbArc
50
90.000000000000
51
180.000000000000
0
LINE
5
4e3
100
AcDbEntity
8
0-1
6
CONTINUOUS
62
4
100
AcDbLine
10
97.516820632124
20
201.800000000000
30
0.0
11
95.716820632124
21
201.800000000000
31
0.0
0
ARC
5
4e4
100
AcDbEntity
8
0-1
6
CONTINUOUS
62
4
100
AcDbCircle
10
97.516820632124
20
202.100000000000
30
0.0
40
0.300000000000
100
AcDbArc
50
270.000000000000
51
360.000000000000
0
ARC
5
4e5
100
AcDbEntity
8
0-1
6
CONTINUOUS
62
4
100
AcDbCircle
10
103.316820632124
20
201.000000000000
30
0.0
40
1.000000000000
100
AcDbArc
50
270.000000000000
51
360.000000000000
0
CIRCLE
5
4e6
100
AcDbEntity
8
0-1
6
CONTINUOUS
62
4
100
AcDbCircle
10
101.066820632124
20
203.250000000000
30
0.0
40
2.100000000000
0
LINE
5
4e7
100
AcDbEntity
8
0-1
6
CONTINUOUS
62
4
100
AcDbLine
10
104.316820632124
20
201.000000000000
30
0.0
11
104.316820632124
21
208.600000000000
31
0.0
0
ARC
5
4e8
100
AcDbEntity
8
0-1
6
CONTINUOUS
62
4
100
AcDbCircle
10
86.116820632124
20
202.100000000000
30
0.0
40
0.300000000000
100
AcDbArc
50
180.000000000000
51
270.000000000000
0
CIRCLE
5
4e9
100
AcDbEntity
8
0-1
6
CONTINUOUS
62
4
100
AcDbCircle
10
82.566820632124
20
203.250000000000
30
0.0
40
2.100000000000
0
ARC
5
4ea
100
AcDbEntity
8
0-1
6
CONTINUOUS
62
4
100
AcDbCircle
10
86.116820632124
20
204.875735931288
30
0.0
40
0.300000000000
100
AcDbArc
50
135.000000000000
51
180.000000000000
0
LINE
5
4eb
100
AcDbEntity
8
0-1
6
CONTINUOUS
62
4
100
AcDbLine
10
85.816820632124
20
202.100000000000
30
0.0
11
85.816820632124
21
204.875735931288
31
0.0
0
LINE
5
4ec
100
AcDbEntity
8
0-1
6
CONTINUOUS
62
4
100
AcDbLine
10
87.916820632125
20
201.800000000000
30
0.0
11
86.116820632124
21
201.800000000000
31
0.0
0
ARC
5
4ed
100
AcDbEntity
8
0-1
6
CONTINUOUS
62
4
100
AcDbCircle
10
87.916820632125
20
201.500000000000
30
0.0
40
0.300000000000
100
AcDbArc
50
0.000000000000
51
90.000000000000
0
LINE
5
4ee
100
AcDbEntity
8
0-1
6
CONTINUOUS
62
4
100
AcDbLine
10
88.216820632124
20
200.300000000000
30
0.0
11
88.216820632124
21
201.500000000000
31
0.0
0
ARC
5
4ef
100
AcDbEntity
8
0-1
6
CONTINUOUS
62
4
100
AcDbCircle
10
87.916820632124
20
200.300000000000
30
0.0
40
0.300000000000
100
AcDbArc
50
270.000000000000
51
360.000000000000
0
ARC
5
4f0
100
AcDbEntity
8
0-1
6
CONTINUOUS
62
4
100
AcDbCircle
10
80.316820632124
20
201.000000000000
30
0.0
40
1.000000000000
100
AcDbArc
50
180.000000000000
51
270.000000000000
0
LINE
5
4f1
100
AcDbEntity
8
0-1
6
CONTINUOUS
62
4
100
AcDbLine
10
79.316820632124
20
208.600000000000
30
0.0
11
79.316820632124
21
201.000000000000
31
0.0
0
LINE
5
4f2
100
AcDbEntity
8
0-1
6
CONTINUOUS
62
4
100
AcDbLine
10
85.904688597769
20
205.087867965644
30
0.0
11
86.928952666481
21
206.112132034356
31
0.0
0
ARC
5
4f3
100
AcDbEntity
8
0-1
6
CONTINUOUS
62
4
100
AcDbCircle
10
87.141084700836
20
205.900000000000
30
0.0
40
0.300000000000
100
AcDbArc
50
90.000000000000
51
135.000000000000
0
LINE
5
4f4
100
AcDbEntity
8
0-1
6
CONTINUOUS
62
4
100
AcDbLine
10
87.141084700836
20
206.200000000000
30
0.0
11
96.492556563412
21
206.200000000000
31
0.0
0
LINE
5
4f5
100
AcDbEntity
8
F-F_J_ADD
6
HIDDEN
62
4
100
AcDbLine
10
101.066820632124
20
203.250000000000
30
0.0
11
104.316820632124
21
200.000000000000
31
0.0
0
LINE
5
4f6
100
AcDbEntity
8
F-F_J_ADD
6
HIDDEN
62
4
100
AcDbLine
10
82.566820632124
20
203.250000000000
30
0.0
11
79.316820632124
21
200.000000000000
31
0.0
0
LINE
5
4f7
100
AcDbEntity
8
0-1
6
CONTINUOUS
62
4
100
AcDbLine
10
80.316820632124
20
200.000000000000
30
0.0
11
103.316820632124
21
200.000000000000
31
0.0
0
LINE
5
4f8
100
AcDbEntity
8
0-1
6
PHANTOM
62
4
100
AcDbLine
10
91.816820632124
20
200.000963614359
30
0.0
11
91.816820632124
21
212.500000000000
31
0.0
0
POLYLINE
5
4f9
100
AcDbEntity
8
0-0
6
CONTINUOUS
62
  7
100
AcDb2dPolyline
66
1
10
0.0
20
0.0
30
0.0
70
0
0
VERTEX
5
4fa
100
AcDbEntity
8
0-0
6
CONTINUOUS
62
  7
100
AcDbVertex
100
AcDb2dVertex
10
16.100000000000
20
219.400000000000
30
0.0
0
VERTEX
5
4fb
100
AcDbEntity
8
0-0
6
CONTINUOUS
62
  7
100
AcDbVertex
100
AcDb2dVertex
10
16.100000000000
20
223.700000000000
30
0.0
0
VERTEX
5
4fc
100
AcDbEntity
8
0-0
6
CONTINUOUS
62
  7
100
AcDbVertex
100
AcDb2dVertex
10
15.800000000000
20
224.200000000000
30
0.0
0
VERTEX
5
4fd
100
AcDbEntity
8
0-0
6
CONTINUOUS
62
  7
100
AcDbVertex
100
AcDb2dVertex
10
15.800000000000
20
224.400000000000
30
0.0
0
SEQEND
5
4fe
100
AcDbEntity
8
0-0
0
LINE
5
4ff
100
AcDbEntity
8
0-0
6
CONTINUOUS
62
7
100
AcDbLine
10
15.500000000000
20
224.700000000000
30
0.0
11
9.500000000000
21
224.700000000000
31
0.0
0
POLYLINE
5
500
100
AcDbEntity
8
0-0
6
CONTINUOUS
62
  7
100
AcDb2dPolyline
66
1
10
0.0
20
0.0
30
0.0
70
0
0
VERTEX
5
501
100
AcDbEntity
8
0-0
6
CONTINUOUS
62
  7
100
AcDbVertex
100
AcDb2dVertex
10
9.200000000000
20
224.400000000000
30
0.0
0
VERTEX
5
502
100
AcDbEntity
8
0-0
6
CONTINUOUS
62
  7
100
AcDbVertex
100
AcDb2dVertex
10
9.200000000000
20
224.200000000000
30
0.0
0
VERTEX
5
503
100
AcDbEntity
8
0-0
6
CONTINUOUS
62
  7
100
AcDbVertex
100
AcDb2dVertex
10
8.900000000000
20
223.700000000000
30
0.0
0
VERTEX
5
504
100
AcDbEntity
8
0-0
6
CONTINUOUS
62
  7
100
AcDbVertex
100
AcDb2dVertex
10
8.900000000000
20
219.400000000000
30
0.0
0
SEQEND
5
505
100
AcDbEntity
8
0-0
0
POLYLINE
5
506
100
AcDbEntity
8
0-0
6
CONTINUOUS
62
  7
100
AcDb2dPolyline
66
1
10
0.0
20
0.0
30
0.0
70
0
0
VERTEX
5
507
100
AcDbEntity
8
0-0
6
CONTINUOUS
62
  7
100
AcDbVertex
100
AcDb2dVertex
10
9.700000000000
20
219.965685423674
30
0.0
0
VERTEX
5
508
100
AcDbEntity
8
0-0
6
CONTINUOUS
62
  7
100
AcDbVertex
100
AcDb2dVertex
10
9.700000000000
20
223.478420000000
30
0.0
0
VERTEX
5
509
100
AcDbEntity
8
0-0
6
CONTINUOUS
62
  7
100
AcDbVertex
100
AcDb2dVertex
10
9.952950000000
20
223.900000000000
30
0.0
0
VERTEX
5
50a
100
AcDbEntity
8
0-0
6
CONTINUOUS
62
  7
100
AcDbVertex
100
AcDb2dVertex
10
15.047040000000
20
223.900000000000
30
0.0
0
VERTEX
5
50b
100
AcDbEntity
8
0-0
6
CONTINUOUS
62
  7
100
AcDbVertex
100
AcDb2dVertex
10
15.300000000000
20
223.478420000000
30
0.0
0
VERTEX
5
50c
100
AcDbEntity
8
0-0
6
CONTINUOUS
62
  7
100
AcDbVertex
100
AcDb2dVertex
10
15.300000000000
20
219.965685427164
30
0.0
0
SEQEND
5
50d
100
AcDbEntity
8
0-0
0
ARC
5
50e
100
AcDbEntity
8
0-0
6
CONTINUOUS
62
7
100
AcDbCircle
10
9.500000000000
20
219.400000000000
30
0.0
40
0.600000000000
100
AcDbArc
50
180.000000000000
51
430.528779000000
0
ARC
5
50f
100
AcDbEntity
8
0-0
6
CONTINUOUS
62
7
100
AcDbCircle
10
15.500000000000
20
219.400000000000
30
0.0
40
0.600000000000
100
AcDbArc
50
109.471220000000
51
360.000000000000
0
ARC
5
510
100
AcDbEntity
8
0-0
6
CONTINUOUS
62
7
100
AcDbCircle
10
9.500000000000
20
224.400000000000
30
0.0
40
0.300000000000
100
AcDbArc
50
90.000000000000
51
180.000000000000
0
ARC
5
511
100
AcDbEntity
8
0-0
6
CONTINUOUS
62
7
100
AcDbCircle
10
15.500000000000
20
224.400000000000
30
0.0
40
0.300000000000
100
AcDbArc
50
0.000000000000
51
90.000000000000
0
LINE
5
512
100
AcDbEntity
8
0-1
6
CENTER2
62
4
100
AcDbLine
10
12.500000000000
20
217.499980000000
30
0.0
11
12.500000000000
21
207.499980000000
31
0.0
0
LINE
5
513
100
AcDbEntity
8
0-1
6
CENTER2
62
4
100
AcDbLine
10
7.500030000000
20
212.500000000000
30
0.0
11
17.499980000000
21
212.500000000000
31
0.0
0
LINE
5
514
100
AcDbEntity
8
0-1
6
PHANTOM
62
4
100
AcDbLine
10
0.000000000000
20
201.000000000000
30
0.0
11
0.000000000000
21
208.600000000000
31
0.0
0
LINE
5
515
100
AcDbEntity
8
0-1
6
PHANTOM
62
4
100
AcDbLine
10
0.300000000000
20
208.900000000000
30
0.0
11
1.500000000000
21
208.900000000000
31
0.0
0
LINE
5
516
100
AcDbEntity
8
0-1
6
PHANTOM
62
4
100
AcDbLine
10
1.800000000000
20
208.600000000000
30
0.0
11
1.800000000000
21
206.800000000000
31
0.0
0
LINE
5
517
100
AcDbEntity
8
0-1
6
PHANTOM
62
4
100
AcDbLine
10
2.100000000000
20
206.500000000000
30
0.0
11
4.875735931288
21
206.500000000000
31
0.0
0
LINE
5
518
100
AcDbEntity
8
0-1
6
PHANTOM
62
4
100
AcDbLine
10
5.087867965644
20
206.587867965644
30
0.0
11
6.112132034356
21
207.612132034356
31
0.0
0
LINE
5
519
100
AcDbEntity
8
0-1
6
PHANTOM
62
4
100
AcDbLine
10
6.200000000000
20
207.824264068712
30
0.0
11
6.200000000000
21
217.175735931288
31
0.0
0
LINE
5
51a
100
AcDbEntity
8
0-1
6
PHANTOM
62
4
100
AcDbLine
10
6.112132034356
20
217.387867965644
30
0.0
11
5.087867965644
21
218.412132034356
31
0.0
0
LINE
5
51b
100
AcDbEntity
8
0-1
6
PHANTOM
62
4
100
AcDbLine
10
4.875735931288
20
218.500000000000
30
0.0
11
2.100000000000
21
218.500000000000
31
0.0
0
LINE
5
51c
100
AcDbEntity
8
0-1
6
PHANTOM
62
4
100
AcDbLine
10
1.800000000000
20
218.200000000000
30
0.0
11
1.800000000000
21
216.400000000000
31
0.0
0
LINE
5
51d
100
AcDbEntity
8
0-1
6
PHANTOM
62
4
100
AcDbLine
10
1.500000000000
20
216.100000000000
30
0.0
11
0.300000000000
21
216.100000000000
31
0.0
0
LINE
5
51e
100
AcDbEntity
8
0-1
6
PHANTOM
62
4
100
AcDbLine
10
0.000000000000
20
216.400000000000
30
0.0
11
0.000000000000
21
224.000000000000
31
0.0
0
LINE
5
51f
100
AcDbEntity
8
0-1
6
PHANTOM
62
4
100
AcDbLine
10
8.900000000000
20
224.700000000000
30
0.0
11
8.900000000000
21
223.500000000000
31
0.0
0
LINE
5
520
100
AcDbEntity
8
0-1
6
PHANTOM
62
4
100
AcDbLine
10
8.600000000000
20
223.200000000000
30
0.0
11
6.800000000000
21
223.200000000000
31
0.0
0
LINE
5
521
100
AcDbEntity
8
0-1
6
PHANTOM
62
4
100
AcDbLine
10
6.500000000000
20
222.900000000000
30
0.0
11
6.500000000000
21
220.124264068712
31
0.0
0
LINE
5
522
100
AcDbEntity
8
0-1
6
PHANTOM
62
4
100
AcDbLine
10
6.587867965644
20
219.912132034356
30
0.0
11
7.612132034356
21
218.887867965644
31
0.0
0
LINE
5
523
100
AcDbEntity
8
0-1
6
PHANTOM
62
4
100
AcDbLine
10
17.387867965644
20
218.887867965644
30
0.0
11
18.412132034356
21
219.912132034356
31
0.0
0
LINE
5
524
100
AcDbEntity
8
0-1
6
PHANTOM
62
4
100
AcDbLine
10
18.500000000000
20
220.124264068712
30
0.0
11
18.500000000000
21
222.900000000000
31
0.0
0
LINE
5
525
100
AcDbEntity
8
0-1
6
PHANTOM
62
4
100
AcDbLine
10
18.200000000000
20
223.200000000000
30
0.0
11
16.400000000000
21
223.200000000000
31
0.0
0
LINE
5
526
100
AcDbEntity
8
0-1
6
PHANTOM
62
4
100
AcDbLine
10
16.100000000000
20
223.500000000000
30
0.0
11
16.100000000000
21
224.700000000000
31
0.0
0
LINE
5
527
100
AcDbEntity
8
0-1
6
PHANTOM
62
4
100
AcDbLine
10
25.000000000000
20
224.000000000000
30
0.0
11
25.000000000000
21
216.400000000000
31
0.0
0
LINE
5
528
100
AcDbEntity
8
0-1
6
PHANTOM
62
4
100
AcDbLine
10
24.700000000000
20
216.100000000000
30
0.0
11
23.500000000000
21
216.100000000000
31
0.0
0
LINE
5
529
100
AcDbEntity
8
0-1
6
PHANTOM
62
4
100
AcDbLine
10
23.200000000000
20
216.400000000000
30
0.0
11
23.200000000000
21
218.200000000000
31
0.0
0
LINE
5
52a
100
AcDbEntity
8
0-1
6
PHANTOM
62
4
100
AcDbLine
10
22.900000000000
20
218.500000000000
30
0.0
11
20.124264068712
21
218.500000000000
31
0.0
0
LINE
5
52b
100
AcDbEntity
8
0-1
6
PHANTOM
62
4
100
AcDbLine
10
19.912132034356
20
218.412132034356
30
0.0
11
18.887867965644
21
217.387867965644
31
0.0
0
LINE
5
52c
100
AcDbEntity
8
0-1
6
PHANTOM
62
4
100
AcDbLine
10
18.800000000000
20
217.175735931288
30
0.0
11
18.800000000000
21
207.824264068712
31
0.0
0
LINE
5
52d
100
AcDbEntity
8
0-1
6
PHANTOM
62
4
100
AcDbLine
10
18.887867965644
20
207.612132034356
30
0.0
11
19.912132034356
21
206.587867965644
31
0.0
0
LINE
5
52e
100
AcDbEntity
8
0-1
6
PHANTOM
62
4
100
AcDbLine
10
20.124264068712
20
206.500000000000
30
0.0
11
22.900000000000
21
206.500000000000
31
0.0
0
LINE
5
52f
100
AcDbEntity
8
0-1
6
PHANTOM
62
4
100
AcDbLine
10
23.200000000000
20
206.800000000000
30
0.0
11
23.200000000000
21
208.600000000000
31
0.0
0
LINE
5
530
100
AcDbEntity
8
0-1
6
PHANTOM
62
4
100
AcDbLine
10
23.500000000000
20
208.900000000000
30
0.0
11
24.700000000000
21
208.900000000000
31
0.0
0
LINE
5
531
100
AcDbEntity
8
0-1
6
PHANTOM
62
4
100
AcDbLine
10
25.000000000000
20
208.600000000000
30
0.0
11
25.000000000000
21
201.000000000000
31
0.0
0
LINE
5
532
100
AcDbEntity
8
0-1
6
PHANTOM
62
4
100
AcDbLine
10
24.000000000000
20
200.000000000000
30
0.0
11
16.400000000000
21
200.000000000000
31
0.0
0
LINE
5
533
100
AcDbEntity
8
0-1
6
PHANTOM
62
4
100
AcDbLine
10
16.100000000000
20
200.300000000000
30
0.0
11
16.100000000000
21
201.500000000000
31
0.0
0
LINE
5
534
100
AcDbEntity
8
0-1
6
PHANTOM
62
4
100
AcDbLine
10
16.400000000000
20
201.800000000000
30
0.0
11
18.200000000000
21
201.800000000000
31
0.0
0
LINE
5
535
100
AcDbEntity
8
0-1
6
PHANTOM
62
4
100
AcDbLine
10
18.500000000000
20
202.100000000000
30
0.0
11
18.500000000000
21
204.875735931288
31
0.0
0
LINE
5
536
100
AcDbEntity
8
0-1
6
PHANTOM
62
4
100
AcDbLine
10
18.412132034356
20
205.087867965644
30
0.0
11
17.387867965644
21
206.112132034356
31
0.0
0
LINE
5
537
100
AcDbEntity
8
0-1
6
PHANTOM
62
4
100
AcDbLine
10
7.612132034356
20
206.112132034356
30
0.0
11
6.587867965644
21
205.087867965644
31
0.0
0
LINE
5
538
100
AcDbEntity
8
0-1
6
PHANTOM
62
4
100
AcDbLine
10
6.500000000000
20
204.875735931288
30
0.0
11
6.500000000000
21
202.100000000000
31
0.0
0
LINE
5
539
100
AcDbEntity
8
0-1
6
PHANTOM
62
4
100
AcDbLine
10
6.800000000000
20
201.800000000000
30
0.0
11
8.600000000000
21
201.800000000000
31
0.0
0
LINE
5
53a
100
AcDbEntity
8
0-1
6
PHANTOM
62
4
100
AcDbLine
10
8.900000000000
20
201.500000000000
30
0.0
11
8.900000000000
21
200.300000000000
31
0.0
0
LINE
5
53b
100
AcDbEntity
8
0-1
6
PHANTOM
62
4
100
AcDbLine
10
8.600000000000
20
200.000000000000
30
0.0
11
1.000000000000
21
200.000000000000
31
0.0
0
ARC
5
53c
100
AcDbEntity
8
0-1
6
PHANTOM
62
4
100
AcDbCircle
10
1.000000000000
20
224.000000000000
30
0.0
40
1.000000000000
100
AcDbArc
50
90.000000000000
51
180.000000000000
0
ARC
5
53d
100
AcDbEntity
8
0-1
6
PHANTOM
62
4
100
AcDbCircle
10
24.000000000000
20
224.000000000000
30
0.0
40
1.000000000000
100
AcDbArc
50
0.000000000000
51
90.000000000000
0
ARC
5
53e
100
AcDbEntity
8
0-1
6
PHANTOM
62
4
100
AcDbCircle
10
24.000000000000
20
201.000000000000
30
0.0
40
1.000000000000
100
AcDbArc
50
270.000000000000
51
360.000000000000
0
ARC
5
53f
100
AcDbEntity
8
0-1
6
PHANTOM
62
4
100
AcDbCircle
10
1.000000000000
20
201.000000000000
30
0.0
40
1.000000000000
100
AcDbArc
50
180.000000000000
51
270.000000000000
0
ARC
5
540
100
AcDbEntity
8
0-1
6
PHANTOM
62
4
100
AcDbCircle
10
8.600000000000
20
224.700000000000
30
0.0
40
0.300000000000
100
AcDbArc
50
0.000000000000
51
90.000000000000
0
ARC
5
541
100
AcDbEntity
8
0-1
6
PHANTOM
62
4
100
AcDbCircle
10
16.400000000000
20
224.700000000000
30
0.0
40
0.300000000000
100
AcDbArc
50
90.000000000000
51
180.000000000000
0
ARC
5
542
100
AcDbEntity
8
0-1
6
PHANTOM
62
4
100
AcDbCircle
10
0.300000000000
20
216.400000000000
30
0.0
40
0.300000000000
100
AcDbArc
50
180.000000000000
51
270.000000000000
0
ARC
5
543
100
AcDbEntity
8
0-1
6
PHANTOM
62
4
100
AcDbCircle
10
0.300000000000
20
208.600000000000
30
0.0
40
0.300000000000
100
AcDbArc
50
90.000000000000
51
180.000000000000
0
ARC
5
544
100
AcDbEntity
8
0-1
6
PHANTOM
62
4
100
AcDbCircle
10
24.700000000000
20
216.400000000000
30
0.0
40
0.300000000000
100
AcDbArc
50
270.000000000000
51
360.000000000000
0
ARC
5
545
100
AcDbEntity
8
0-1
6
PHANTOM
62
4
100
AcDbCircle
10
24.700000000000
20
208.600000000000
30
0.0
40
0.300000000000
100
AcDbArc
50
0.000000000000
51
90.000000000000
0
ARC
5
546
100
AcDbEntity
8
0-1
6
PHANTOM
62
4
100
AcDbCircle
10
16.400000000000
20
200.300000000000
30
0.0
40
0.300000000000
100
AcDbArc
50
180.000000000000
51
270.000000000000
0
ARC
5
547
100
AcDbEntity
8
0-1
6
PHANTOM
62
4
100
AcDbCircle
10
8.600000000000
20
200.300000000000
30
0.0
40
0.300000000000
100
AcDbArc
50
270.000000000000
51
360.000000000000
0
ARC
5
548
100
AcDbEntity
8
0-1
6
PHANTOM
62
4
100
AcDbCircle
10
16.400000000000
20
201.500000000000
30
0.0
40
0.300000000000
100
AcDbArc
50
90.000000000000
51
180.000000000000
0
ARC
5
549
100
AcDbEntity
8
0-1
6
PHANTOM
62
4
100
AcDbCircle
10
18.200000000000
20
202.100000000000
30
0.0
40
0.300000000000
100
AcDbArc
50
270.000000000000
51
360.000000000000
0
ARC
5
54a
100
AcDbEntity
8
0-1
6
PHANTOM
62
4
100
AcDbCircle
10
18.200000000000
20
204.875735931288
30
0.0
40
0.300000000000
100
AcDbArc
50
0.000000000000
51
45.000000000000
0
ARC
5
54b
100
AcDbEntity
8
0-1
6
PHANTOM
62
4
100
AcDbCircle
10
17.175735931288
20
205.900000000000
30
0.0
40
0.300000000000
100
AcDbArc
50
45.000000000000
51
90.000000000000
0
ARC
5
54c
100
AcDbEntity
8
0-1
6
PHANTOM
62
4
100
AcDbCircle
10
6.800000000000
20
204.875735931288
30
0.0
40
0.300000000000
100
AcDbArc
50
135.000000000000
51
180.000000000000
0
ARC
5
54d
100
AcDbEntity
8
0-1
6
PHANTOM
62
4
100
AcDbCircle
10
6.800000000000
20
202.100000000000
30
0.0
40
0.300000000000
100
AcDbArc
50
180.000000000000
51
270.000000000000
0
ARC
5
54e
100
AcDbEntity
8
0-1
6
PHANTOM
62
4
100
AcDbCircle
10
8.600000000000
20
201.500000000000
30
0.0
40
0.300000000000
100
AcDbArc
50
0.000000000000
51
90.000000000000
0
ARC
5
54f
100
AcDbEntity
8
0-1
6
PHANTOM
62
4
100
AcDbCircle
10
7.824264068712
20
205.900000000000
30
0.0
40
0.300000000000
100
AcDbArc
50
90.000000000000
51
135.000000000000
0
ARC
5
550
100
AcDbEntity
8
0-1
6
PHANTOM
62
4
100
AcDbCircle
10
23.500000000000
20
216.400000000000
30
0.0
40
0.300000000000
100
AcDbArc
50
180.000000000000
51
270.000000000000
0
ARC
5
551
100
AcDbEntity
8
0-1
6
PHANTOM
62
4
100
AcDbCircle
10
22.900000000000
20
218.200000000000
30
0.0
40
0.300000000000
100
AcDbArc
50
0.000000000000
51
90.000000000000
0
ARC
5
552
100
AcDbEntity
8
0-1
6
PHANTOM
62
4
100
AcDbCircle
10
20.124264068712
20
218.200000000000
30
0.0
40
0.300000000000
100
AcDbArc
50
90.000000000000
51
135.000000000000
0
ARC
5
553
100
AcDbEntity
8
0-1
6
PHANTOM
62
4
100
AcDbCircle
10
19.100000000000
20
217.175735931288
30
0.0
40
0.300000000000
100
AcDbArc
50
135.000000000000
51
180.000000000000
0
ARC
5
554
100
AcDbEntity
8
0-1
6
PHANTOM
62
4
100
AcDbCircle
10
20.124264068712
20
206.800000000000
30
0.0
40
0.300000000000
100
AcDbArc
50
225.000000000000
51
270.000000000000
0
ARC
5
555
100
AcDbEntity
8
0-1
6
PHANTOM
62
4
100
AcDbCircle
10
22.900000000000
20
206.800000000000
30
0.0
40
0.300000000000
100
AcDbArc
50
270.000000000000
51
360.000000000000
0
ARC
5
556
100
AcDbEntity
8
0-1
6
PHANTOM
62
4
100
AcDbCircle
10
23.500000000000
20
208.600000000000
30
0.0
40
0.300000000000
100
AcDbArc
50
90.000000000000
51
180.000000000000
0
ARC
5
557
100
AcDbEntity
8
0-1
6
PHANTOM
62
4
100
AcDbCircle
10
19.100000000000
20
207.824264068712
30
0.0
40
0.300000000000
100
AcDbArc
50
180.000000000000
51
225.000000000000
0
ARC
5
558
100
AcDbEntity
8
0-1
6
PHANTOM
62
4
100
AcDbCircle
10
8.600000000000
20
223.500000000000
30
0.0
40
0.300000000000
100
AcDbArc
50
270.000000000000
51
360.000000000000
0
ARC
5
559
100
AcDbEntity
8
0-1
6
PHANTOM
62
4
100
AcDbCircle
10
6.800000000000
20
222.900000000000
30
0.0
40
0.300000000000
100
AcDbArc
50
90.000000000000
51
180.000000000000
0
ARC
5
55a
100
AcDbEntity
8
0-1
6
PHANTOM
62
4
100
AcDbCircle
10
6.800000000000
20
220.124264068712
30
0.0
40
0.300000000000
100
AcDbArc
50
180.000000000000
51
225.000000000000
0
ARC
5
55b
100
AcDbEntity
8
0-1
6
PHANTOM
62
4
100
AcDbCircle
10
7.824264068712
20
219.100000000000
30
0.0
40
0.300000000000
100
AcDbArc
50
225.000000000000
51
270.000000000000
0
ARC
5
55c
100
AcDbEntity
8
0-1
6
PHANTOM
62
4
100
AcDbCircle
10
18.200000000000
20
220.124264068712
30
0.0
40
0.300000000000
100
AcDbArc
50
315.000000000000
51
360.000000000000
0
ARC
5
55d
100
AcDbEntity
8
0-1
6
PHANTOM
62
4
100
AcDbCircle
10
18.200000000000
20
222.900000000000
30
0.0
40
0.300000000000
100
AcDbArc
50
0.000000000000
51
90.000000000000
0
ARC
5
55e
100
AcDbEntity
8
0-1
6
PHANTOM
62
4
100
AcDbCircle
10
16.400000000000
20
223.500000000000
30
0.0
40
0.300000000000
100
AcDbArc
50
180.000000000000
51
270.000000000000
0
ARC
5
55f
100
AcDbEntity
8
0-1
6
PHANTOM
62
4
100
AcDbCircle
10
17.175735931288
20
219.100000000000
30
0.0
40
0.300000000000
100
AcDbArc
50
270.000000000000
51
315.000000000000
0
ARC
5
560
100
AcDbEntity
8
0-1
6
PHANTOM
62
4
100
AcDbCircle
10
1.500000000000
20
208.600000000000
30
0.0
40
0.300000000000
100
AcDbArc
50
0.000000000000
51
90.000000000000
0
ARC
5
561
100
AcDbEntity
8
0-1
6
PHANTOM
62
4
100
AcDbCircle
10
2.100000000000
20
206.800000000000
30
0.0
40
0.300000000000
100
AcDbArc
50
180.000000000000
51
270.000000000000
0
ARC
5
562
100
AcDbEntity
8
0-1
6
PHANTOM
62
4
100
AcDbCircle
10
4.875735931288
20
206.800000000000
30
0.0
40
0.300000000000
100
AcDbArc
50
270.000000000000
51
315.000000000000
0
ARC
5
563
100
AcDbEntity
8
0-1
6
PHANTOM
62
4
100
AcDbCircle
10
5.900000000000
20
207.824264068712
30
0.0
40
0.300000000000
100
AcDbArc
50
315.000000000000
51
360.000000000000
0
ARC
5
564
100
AcDbEntity
8
0-1
6
PHANTOM
62
4
100
AcDbCircle
10
4.875735931288
20
218.200000000000
30
0.0
40
0.300000000000
100
AcDbArc
50
45.000000000000
51
90.000000000000
0
ARC
5
565
100
AcDbEntity
8
0-1
6
PHANTOM
62
4
100
AcDbCircle
10
2.100000000000
20
218.200000000000
30
0.0
40
0.300000000000
100
AcDbArc
50
90.000000000000
51
180.000000000000
0
ARC
5
566
100
AcDbEntity
8
0-1
6
PHANTOM
62
4
100
AcDbCircle
10
1.500000000000
20
216.400000000000
30
0.0
40
0.300000000000
100
AcDbArc
50
270.000000000000
51
360.000000000000
0
ARC
5
567
100
AcDbEntity
8
0-1
6
PHANTOM
62
4
100
AcDbCircle
10
5.900000000000
20
217.175735931288
30
0.0
40
0.300000000000
100
AcDbArc
50
0.000000000000
51
45.000000000000
0
LINE
5
568
100
AcDbEntity
8
0-1
6
PHANTOM
62
4
100
AcDbLine
10
7.824264068712
20
218.800000000000
30
0.0
11
17.175735931288
21
218.800000000000
31
0.0
0
LINE
5
569
100
AcDbEntity
8
0-1
6
PHANTOM
62
4
100
AcDbLine
10
17.175735931288
20
206.200000000000
30
0.0
11
7.824264068712
21
206.200000000000
31
0.0
0
LINE
5
56a
100
AcDbEntity
8
0-1
6
PHANTOM
62
4
100
AcDbLine
10
1.000000000000
20
225.000000000000
30
0.0
11
24.000000000000
21
225.000000000000
31
0.0
0
LINE
5
56b
100
AcDbEntity
8
0-1
6
PHANTOM
62
4
100
AcDbLine
10
12.500000000000
20
225.000000000000
30
0.0
11
12.500000000000
21
212.097809934432
31
0.0
0
POLYLINE
5
56c
100
AcDbEntity
8
0-0
6
CONTINUOUS
62
  7
100
AcDb2dPolyline
66
1
10
0.0
20
0.0
30
0.0
70
0
0
VERTEX
5
56d
100
AcDbEntity
8
0-0
6
CONTINUOUS
62
  7
100
AcDbVertex
100
AcDb2dVertex
10
285.960000000000
20
225.000000000000
30
0.0
0
VERTEX
5
56e
100
AcDbEntity
8
0-0
6
CONTINUOUS
62
  7
100
AcDbVertex
100
AcDb2dVertex
10
285.960000000000
20
224.000000000000
30
0.0
0
VERTEX
5
56f
100
AcDbEntity
8
0-0
6
CONTINUOUS
62
  7
100
AcDbVertex
100
AcDb2dVertex
10
283.410000000000
20
224.000000000000
30
0.0
0
SEQEND
5
570
100
AcDbEntity
8
0-0
0
LINE
5
571
100
AcDbEntity
8
0-0
6
CONTINUOUS
62
7
100
AcDbLine
10
279.040000000000
20
224.000000000000
30
0.0
11
279.040000000000
21
225.000000000000
31
0.0
0
LINE
5
572
100
AcDbEntity
8
0-0
6
CONTINUOUS
62
7
100
AcDbLine
10
283.540000000002
20
224.000000000000
30
0.0
11
283.540000000002
21
225.000000000000
31
0.0
0
LINE
5
573
100
AcDbEntity
8
0-0
6
CONTINUOUS
62
7
100
AcDbLine
10
279.040000000000
20
224.000000000000
30
0.0
11
281.590000000000
21
224.000000000000
31
0.0
0
LINE
5
574
100
AcDbEntity
8
0-0
6
CONTINUOUS
62
7
100
AcDbLine
10
287.415555555556
20
223.000000000000
30
0.0
11
285.542857142857
21
223.000000000000
31
0.0
0
LINE
5
575
100
AcDbEntity
8
0-0
6
CONTINUOUS
62
7
100
AcDbLine
10
275.500000000000
20
226.410511776652
30
0.0
11
275.500000000000
21
225.000000000000
31
0.0
0
LINE
5
576
100
AcDbEntity
8
0-0
6
CONTINUOUS
62
7
100
AcDbLine
10
289.500000000000
20
225.000000000000
30
0.0
11
289.500000000000
21
226.410511776652
31
0.0
0
POLYLINE
5
577
100
AcDbEntity
8
0-0
6
CONTINUOUS
62
  7
100
AcDb2dPolyline
66
1
10
0.0
20
0.0
30
0.0
70
0
0
VERTEX
5
578
100
AcDbEntity
8
0-0
6
CONTINUOUS
62
  7
100
AcDbVertex
100
AcDb2dVertex
10
279.700000000000
20
227.500000000000
30
0.0
0
VERTEX
5
579
100
AcDbEntity
8
0-0
6
CONTINUOUS
62
  7
100
AcDbVertex
100
AcDb2dVertex
10
279.700000000000
20
226.000000000000
30
0.0
0
VERTEX
5
57a
100
AcDbEntity
8
0-0
6
CONTINUOUS
62
  7
100
AcDbVertex
100
AcDb2dVertex
10
285.300000000000
20
226.000000000000
30
0.0
0
VERTEX
5
57b
100
AcDbEntity
8
0-0
6
CONTINUOUS
62
  7
100
AcDbVertex
100
AcDb2dVertex
10
285.300000000000
20
227.500000000000
30
0.0
0
VERTEX
5
57c
100
AcDbEntity
8
0-0
6
CONTINUOUS
62
  7
100
AcDbVertex
100
AcDb2dVertex
10
279.700000000000
20
227.500000000000
30
0.0
0
SEQEND
5
57d
100
AcDbEntity
8
0-0
0
LINE
5
57e
100
AcDbEntity
8
0-0
6
CONTINUOUS
62
7
100
AcDbLine
10
275.500000000000
20
226.410511776652
30
0.0
11
279.700000000000
21
226.410511776652
31
0.0
0
LINE
5
57f
100
AcDbEntity
8
0-0
6
CONTINUOUS
62
7
100
AcDbLine
10
289.500000000000
20
226.410511776652
30
0.0
11
285.300000000000
21
226.410511776652
31
0.0
0
LINE
5
580
100
AcDbEntity
8
0-0
6
CONTINUOUS
62
7
100
AcDbLine
10
275.500000000000
20
225.000000000000
30
0.0
11
289.500000000000
21
225.000000000000
31
0.0
0
LINE
5
581
100
AcDbEntity
8
0-0
6
CONTINUOUS
62
7
100
AcDbLine
10
289.500000000000
20
226.410511776652
30
0.0
11
287.000000000000
21
227.080384757729
31
0.0
0
POLYLINE
5
582
100
AcDbEntity
8
0-0
6
CONTINUOUS
62
  7
100
AcDb2dPolyline
66
1
10
0.0
20
0.0
30
0.0
70
0
0
VERTEX
5
583
100
AcDbEntity
8
0-0
6
CONTINUOUS
62
  7
100
AcDbVertex
100
AcDb2dVertex
10
275.500000000000
20
226.410511776652
30
0.0
0
VERTEX
5
584
100
AcDbEntity
8
0-0
6
CONTINUOUS
62
  7
100
AcDbVertex
100
AcDb2dVertex
10
278.000000000000
20
227.080384757729
30
0.0
0
VERTEX
5
585
100
AcDbEntity
8
0-0
6
CONTINUOUS
62
  7
100
AcDbVertex
100
AcDb2dVertex
10
279.700000000000
20
227.080384757729
30
0.0
0
SEQEND
5
586
100
AcDbEntity
8
0-0
0
LINE
5
587
100
AcDbEntity
8
0-0
6
CONTINUOUS
62
7
100
AcDbLine
10
287.000000000000
20
227.080384757729
30
0.0
11
285.300000000000
21
227.080384757729
31
0.0
0
LINE
5
588
100
AcDbEntity
8
0-0
6
CONTINUOUS
62
7
100
AcDbLine
10
278.000000000000
20
228.600000000000
30
0.0
11
278.000000000000
21
227.080384757729
31
0.0
0
ARC
5
589
100
AcDbEntity
8
0-0
6
CONTINUOUS
62
7
100
AcDbCircle
10
278.300000000000
20
228.600000000000
30
0.0
40
0.300000000000
100
AcDbArc
50
90.000000000000
51
180.000000000000
0
LINE
5
58a
100
AcDbEntity
8
0-0
6
CONTINUOUS
62
7
100
AcDbLine
10
286.700000000000
20
228.900000000000
30
0.0
11
278.300000000000
21
228.900000000000
31
0.0
0
LINE
5
58b
100
AcDbEntity
8
0-0
6
CONTINUOUS
62
7
100
AcDbLine
10
287.000000000000
20
228.600000000000
30
0.0
11
287.000000000000
21
227.080384757729
31
0.0
0
ARC
5
58c
100
AcDbEntity
8
0-0
6
CONTINUOUS
62
7
100
AcDbCircle
10
286.700000000000
20
228.600000000000
30
0.0
40
0.300000000000
100
AcDbArc
50
0.000000000000
51
90.000000000000
0
POLYLINE
5
58d
100
AcDbEntity
8
0-0
6
CONTINUOUS
62
  7
100
AcDb2dPolyline
66
1
10
0.0
20
0.0
30
0.0
70
0
0
VERTEX
5
58e
100
AcDbEntity
8
0-0
6
CONTINUOUS
62
  7
100
AcDbVertex
100
AcDb2dVertex
10
283.410000000000
20
224.000000000000
30
0.0
0
VERTEX
5
58f
100
AcDbEntity
8
0-0
6
CONTINUOUS
62
  7
100
AcDbVertex
100
AcDb2dVertex
10
283.410000000000
20
222.100000000000
30
0.0
0
VERTEX
5
590
100
AcDbEntity
8
0-0
6
CONTINUOUS
62
  7
100
AcDbVertex
100
AcDb2dVertex
10
283.900000000000
20
222.100000000000
30
0.0
0
SEQEND
5
591
100
AcDbEntity
8
0-0
0
POLYLINE
5
592
100
AcDbEntity
8
0-0
6
CONTINUOUS
62
  7
100
AcDb2dPolyline
66
1
10
0.0
20
0.0
30
0.0
70
0
0
VERTEX
5
593
100
AcDbEntity
8
0-0
6
CONTINUOUS
62
  7
100
AcDbVertex
100
AcDb2dVertex
10
281.590000000000
20
224.000000000000
30
0.0
0
VERTEX
5
594
100
AcDbEntity
8
0-0
6
CONTINUOUS
62
  7
100
AcDbVertex
100
AcDb2dVertex
10
281.590000000000
20
222.100000000000
30
0.0
0
VERTEX
5
595
100
AcDbEntity
8
0-0
6
CONTINUOUS
62
  7
100
AcDbVertex
100
AcDb2dVertex
10
281.100000000000
20
222.100000000000
30
0.0
0
SEQEND
5
596
100
AcDbEntity
8
0-0
0
LINE
5
597
100
AcDbEntity
8
0-0
6
CONTINUOUS
62
7
100
AcDbLine
10
283.900000000000
20
222.100000000000
30
0.0
11
286.400000000000
21
223.500000000000
31
0.0
0
LINE
5
598
100
AcDbEntity
8
0-0
6
CONTINUOUS
62
7
100
AcDbLine
10
281.100000000000
20
222.100000000000
30
0.0
11
278.600000000000
21
223.500000000000
31
0.0
0
LINE
5
599
100
AcDbEntity
8
0-0
6
CONTINUOUS
62
7
100
AcDbLine
10
287.500000000000
20
223.600000000000
30
0.0
11
287.500000000000
21
223.100000000000
31
0.0
0
LINE
5
59a
100
AcDbEntity
8
0-0
6
CONTINUOUS
62
7
100
AcDbLine
10
277.500000000000
20
223.600000000000
30
0.0
11
277.500000000000
21
223.100000000000
31
0.0
0
LINE
5
59b
100
AcDbEntity
8
0-0
6
CONTINUOUS
62
7
100
AcDbLine
10
287.500000000000
20
223.600000000000
30
0.0
11
286.400000000000
21
223.500000000000
31
0.0
0
LINE
5
59c
100
AcDbEntity
8
0-0
6
CONTINUOUS
62
7
100
AcDbLine
10
277.500000000000
20
223.600000000000
30
0.0
11
278.600000000000
21
223.500000000000
31
0.0
0
LINE
5
59d
100
AcDbEntity
8
0-0
6
CONTINUOUS
62
7
100
AcDbLine
10
284.000000000000
20
220.100000000000
30
0.0
11
281.000000000000
21
220.100000000000
31
0.0
0
LINE
5
59e
100
AcDbEntity
8
0-0
6
CONTINUOUS
62
7
100
AcDbLine
10
287.500000000000
20
223.100000000000
30
0.0
11
285.600000000000
21
221.100000000000
31
0.0
0
POLYLINE
5
59f
100
AcDbEntity
8
0-0
6
CONTINUOUS
62
  7
100
AcDb2dPolyline
66
1
10
0.0
20
0.0
30
0.0
70
0
0
VERTEX
5
5a0
100
AcDbEntity
8
0-0
6
CONTINUOUS
62
  7
100
AcDbVertex
100
AcDb2dVertex
10
277.500000000000
20
223.100000000000
30
0.0
0
VERTEX
5
5a1
100
AcDbEntity
8
0-0
6
CONTINUOUS
62
  7
100
AcDbVertex
100
AcDb2dVertex
10
279.400000000000
20
221.100000000000
30
0.0
0
VERTEX
5
5a2
100
AcDbEntity
8
0-0
6
CONTINUOUS
62
  7
100
AcDbVertex
100
AcDb2dVertex
10
281.000000000000
20
220.100000000000
30
0.0
0
SEQEND
5
5a3
100
AcDbEntity
8
0-0
0
LINE
5
5a4
100
AcDbEntity
8
0-0
6
CONTINUOUS
62
7
100
AcDbLine
10
285.600000000000
20
221.100000000000
30
0.0
11
284.000000000000
21
220.100000000000
31
0.0
0
LINE
5
5a5
100
AcDbEntity
8
0-1
6
DASHED
62
4
100
AcDbLine
10
279.700000000000
20
226.000000000000
30
0.0
11
275.500000000000
21
226.000000000000
31
0.0
0
LINE
5
5a6
100
AcDbEntity
8
0-1
6
DASHED
62
4
100
AcDbLine
10
285.300000000000
20
226.000000000000
30
0.0
11
289.500000000000
21
226.000000000000
31
0.0
0
LINE
5
5a7
100
AcDbEntity
8
0-1
6
DASHED
62
4
100
AcDbLine
10
278.000000000000
20
227.500000000000
30
0.0
11
279.700000000000
21
227.500000000000
31
0.0
0
LINE
5
5a8
100
AcDbEntity
8
0-1
6
DASHED
62
4
100
AcDbLine
10
287.000000000000
20
227.500000000000
30
0.0
11
285.300000000000
21
227.500000000000
31
0.0
0
LINE
5
5a9
100
AcDbEntity
8
0-1
6
CENTER
62
4
100
AcDbLine
10
282.500000000000
20
219.056694920639
30
0.0
11
282.500000000000
21
230.523466179080
31
0.0
0
POLYLINE
5
5aa
100
AcDbEntity
8
0-1
6
PHANTOM
62
  4
100
AcDb2dPolyline
66
1
10
0.0
20
0.0
30
0.0
70
0
0
VERTEX
5
5ab
100
AcDbEntity
8
0-1
6
PHANTOM
62
  4
100
AcDbVertex
100
AcDb2dVertex
10
270.000000000000
20
225.000000000000
30
0.0
0
VERTEX
5
5ac
100
AcDbEntity
8
0-1
6
PHANTOM
62
  4
100
AcDbVertex
100
AcDb2dVertex
10
295.000000000000
20
225.000000000000
30
0.0
0
VERTEX
5
5ad
100
AcDbEntity
8
0-1
6
PHANTOM
62
  4
100
AcDbVertex
100
AcDb2dVertex
10
295.000000000000
20
200.000000000000
30
0.0
0
VERTEX
5
5ae
100
AcDbEntity
8
0-1
6
PHANTOM
62
  4
100
AcDbVertex
100
AcDb2dVertex
10
270.000000000000
20
200.000000000000
30
0.0
0
VERTEX
5
5af
100
AcDbEntity
8
0-1
6
PHANTOM
62
  4
100
AcDbVertex
100
AcDb2dVertex
10
270.000000000000
20
225.000000000000
30
0.0
0
SEQEND
5
5b0
100
AcDbEntity
8
0-1
0
POLYLINE
5
5b1
100
AcDbEntity
8
0-0
6
CONTINUOUS
62
  7
100
AcDb2dPolyline
66
1
10
0.0
20
0.0
30
0.0
70
0
0
VERTEX
5
5b2
100
AcDbEntity
8
0-0
6
CONTINUOUS
62
  7
100
AcDbVertex
100
AcDb2dVertex
10
282.500000000000
20
258.738676030433
30
0.0
0
VERTEX
5
5b3
100
AcDbEntity
8
0-0
6
CONTINUOUS
62
  7
100
AcDbVertex
100
AcDb2dVertex
10
275.622185454498
20
258.738676030433
30
0.0
0
VERTEX
5
5b4
100
AcDbEntity
8
0-0
6
CONTINUOUS
62
  7
100
AcDbVertex
100
AcDb2dVertex
10
275.500000000000
20
265.738676030433
30
0.0
0
SEQEND
5
5b5
100
AcDbEntity
8
0-0
0
POLYLINE
5
5b6
100
AcDbEntity
8
0-0
6
CONTINUOUS
62
  7
100
AcDb2dPolyline
66
1
10
0.0
20
0.0
30
0.0
70
0
0
VERTEX
5
5b7
100
AcDbEntity
8
0-0
6
CONTINUOUS
62
  7
100
AcDbVertex
100
AcDb2dVertex
10
282.500000000000
20
261.238676030433
30
0.0
0
VERTEX
5
5b8
100
AcDbEntity
8
0-0
6
CONTINUOUS
62
  7
100
AcDbVertex
100
AcDb2dVertex
10
278.157143462713
20
261.238676030433
30
0.0
0
VERTEX
5
5b9
100
AcDbEntity
8
0-0
6
CONTINUOUS
62
  7
100
AcDbVertex
100
AcDb2dVertex
10
278.000000000000
20
265.738676030433
30
0.0
0
SEQEND
5
5ba
100
AcDbEntity
8
0-0
0
LINE
5
5bb
100
AcDbEntity
8
0-0
6
CONTINUOUS
62
7
100
AcDbLine
10
278.157143462713
20
261.238676030433
30
0.0
11
275.622185454498
21
258.738676030433
31
0.0
0
LINE
5
5bc
100
AcDbEntity
8
0-0
6
CONTINUOUS
62
7
100
AcDbLine
10
279.627552865049
20
258.788182448800
30
0.0
11
279.670326389622
21
261.238676030433
31
0.0
0
LINE
5
5bd
100
AcDbEntity
8
0-0
6
CONTINUOUS
62
7
100
AcDbLine
10
275.549506418368
20
262.866228895481
30
0.0
11
278.098754184835
21
262.910726180763
31
0.0
0
LINE
5
5be
100
AcDbEntity
8
0-0
6
CONTINUOUS
62
7
100
AcDbLine
10
282.500000000000
20
258.738676030433
30
0.0
11
289.377814545503
21
258.738676030433
31
0.0
0
POLYLINE
5
5bf
100
AcDbEntity
8
0-0
6
CONTINUOUS
62
  7
100
AcDb2dPolyline
66
1
10
0.0
20
0.0
30
0.0
70
0
0
VERTEX
5
5c0
100
AcDbEntity
8
0-0
6
CONTINUOUS
62
  7
100
AcDbVertex
100
AcDb2dVertex
10
282.500000000000
20
261.238676030433
30
0.0
0
VERTEX
5
5c1
100
AcDbEntity
8
0-0
6
CONTINUOUS
62
  7
100
AcDbVertex
100
AcDb2dVertex
10
286.842856537287
20
261.238676030433
30
0.0
0
VERTEX
5
5c2
100
AcDbEntity
8
0-0
6
CONTINUOUS
62
  7
100
AcDbVertex
100
AcDb2dVertex
10
287.000000000000
20
265.738676030433
30
0.0
0
SEQEND
5
5c3
100
AcDbEntity
8
0-0
0
LINE
5
5c4
100
AcDbEntity
8
0-0
6
CONTINUOUS
62
7
100
AcDbLine
10
286.842856537287
20
261.238676030433
30
0.0
11
289.377814545503
21
258.738676030433
31
0.0
0
LINE
5
5c5
100
AcDbEntity
8
0-0
6
CONTINUOUS
62
7
100
AcDbLine
10
285.372447134952
20
258.788182448800
30
0.0
11
285.329673610378
21
261.238676030433
31
0.0
0
LINE
5
5c6
100
AcDbEntity
8
0-0
6
CONTINUOUS
62
7
100
AcDbLine
10
289.450493581633
20
262.866228895481
30
0.0
11
286.901245815166
21
262.910726180763
31
0.0
0
POLYLINE
5
5c7
100
AcDbEntity
8
0-0
6
CONTINUOUS
62
  7
100
AcDb2dPolyline
66
1
10
0.0
20
0.0
30
0.0
70
0
0
VERTEX
5
5c8
100
AcDbEntity
8
0-0
6
CONTINUOUS
62
  7
100
AcDbVertex
100
AcDb2dVertex
10
282.500000000000
20
272.738676030433
30
0.0
0
VERTEX
5
5c9
100
AcDbEntity
8
0-0
6
CONTINUOUS
62
  7
100
AcDbVertex
100
AcDb2dVertex
10
275.622185454498
20
272.738676030433
30
0.0
0
VERTEX
5
5ca
100
AcDbEntity
8
0-0
6
CONTINUOUS
62
  7
100
AcDbVertex
100
AcDb2dVertex
10
275.500000000000
20
265.738676030433
30
0.0
0
SEQEND
5
5cb
100
AcDbEntity
8
0-0
0
POLYLINE
5
5cc
100
AcDbEntity
8
0-0
6
CONTINUOUS
62
  7
100
AcDb2dPolyline
66
1
10
0.0
20
0.0
30
0.0
70
0
0
VERTEX
5
5cd
100
AcDbEntity
8
0-0
6
CONTINUOUS
62
  7
100
AcDbVertex
100
AcDb2dVertex
10
282.500000000000
20
270.238676030433
30
0.0
0
VERTEX
5
5ce
100
AcDbEntity
8
0-0
6
CONTINUOUS
62
  7
100
AcDbVertex
100
AcDb2dVertex
10
278.157143462713
20
270.238676030433
30
0.0
0
VERTEX
5
5cf
100
AcDbEntity
8
0-0
6
CONTINUOUS
62
  7
100
AcDbVertex
100
AcDb2dVertex
10
278.000000000000
20
265.738676030433
30
0.0
0
SEQEND
5
5d0
100
AcDbEntity
8
0-0
0
LINE
5
5d1
100
AcDbEntity
8
0-0
6
CONTINUOUS
62
7
100
AcDbLine
10
278.157143462713
20
270.238676030433
30
0.0
11
275.622185454498
21
272.738676030433
31
0.0
0
LINE
5
5d2
100
AcDbEntity
8
0-0
6
CONTINUOUS
62
7
100
AcDbLine
10
279.627552865049
20
272.689169612065
30
0.0
11
279.670326389622
21
270.238676030433
31
0.0
0
LINE
5
5d3
100
AcDbEntity
8
0-0
6
CONTINUOUS
62
7
100
AcDbLine
10
275.549506418368
20
268.611123165384
30
0.0
11
278.098754184835
21
268.566625880103
31
0.0
0
LINE
5
5d4
100
AcDbEntity
8
0-0
6
CONTINUOUS
62
7
100
AcDbLine
10
282.500000000000
20
272.738676030433
30
0.0
11
289.377814545503
21
272.738676030433
31
0.0
0
POLYLINE
5
5d5
100
AcDbEntity
8
0-0
6
CONTINUOUS
62
  7
100
AcDb2dPolyline
66
1
10
0.0
20
0.0
30
0.0
70
0
0
VERTEX
5
5d6
100
AcDbEntity
8
0-0
6
CONTINUOUS
62
  7
100
AcDbVertex
100
AcDb2dVertex
10
282.500000000000
20
270.238676030433
30
0.0
0
VERTEX
5
5d7
100
AcDbEntity
8
0-0
6
CONTINUOUS
62
  7
100
AcDbVertex
100
AcDb2dVertex
10
286.842856537287
20
270.238676030433
30
0.0
0
VERTEX
5
5d8
100
AcDbEntity
8
0-0
6
CONTINUOUS
62
  7
100
AcDbVertex
100
AcDb2dVertex
10
287.000000000000
20
265.738676030433
30
0.0
0
SEQEND
5
5d9
100
AcDbEntity
8
0-0
0
LINE
5
5da
100
AcDbEntity
8
0-0
6
CONTINUOUS
62
7
100
AcDbLine
10
286.842856537287
20
270.238676030433
30
0.0
11
289.377814545503
21
272.738676030433
31
0.0
0
LINE
5
5db
100
AcDbEntity
8
0-0
6
CONTINUOUS
62
7
100
AcDbLine
10
285.372447134952
20
272.689169612065
30
0.0
11
285.329673610378
21
270.238676030433
31
0.0
0
LINE
5
5dc
100
AcDbEntity
8
0-0
6
CONTINUOUS
62
7
100
AcDbLine
10
289.450493581633
20
268.611123165384
30
0.0
11
286.901245815166
21
268.566625880103
31
0.0
0
LINE
5
5dd
100
AcDbEntity
8
0-0
6
CONTINUOUS
62
7
100
AcDbLine
10
289.377814545503
20
272.738676030433
30
0.0
11
289.500000000000
21
265.738676030433
31
0.0
0
LINE
5
5de
100
AcDbEntity
8
0-0
6
CONTINUOUS
62
7
100
AcDbLine
10
289.377814545503
20
258.738676030433
30
0.0
11
289.500000000000
21
265.738676030433
31
0.0
0
LINE
5
5df
100
AcDbEntity
8
0-1
6
CENTER
62
4
100
AcDbLine
10
282.500000000000
20
258.738676030433
30
0.0
11
282.500000000000
21
272.738676030433
31
0.0
0
LINE
5
5e0
100
AcDbEntity
8
0-1
6
CENTER
62
4
100
AcDbLine
10
289.500000000000
20
265.738676030433
30
0.0
11
275.500000000000
21
265.738676030433
31
0.0
0
LINE
5
5e1
100
AcDbEntity
8
0-1
6
DASHED
62
4
100
AcDbLine
10
279.670326389622
20
261.238676030433
30
0.0
11
279.700000000000
21
262.938676030433
31
0.0
0
LINE
5
5e2
100
AcDbEntity
8
0-1
6
DASHED
62
4
100
AcDbLine
10
278.098754184835
20
262.910726180763
30
0.0
11
279.700000000000
21
262.938676030433
31
0.0
0
LINE
5
5e3
100
AcDbEntity
8
0-1
6
DASHED
62
4
100
AcDbLine
10
285.329673610378
20
261.238676030433
30
0.0
11
285.300000000000
21
262.938676030433
31
0.0
0
LINE
5
5e4
100
AcDbEntity
8
0-1
6
DASHED
62
4
100
AcDbLine
10
286.901245815166
20
262.910726180763
30
0.0
11
285.300000000000
21
262.938676030433
31
0.0
0
LINE
5
5e5
100
AcDbEntity
8
0-1
6
DASHED
62
4
100
AcDbLine
10
279.670326389622
20
270.238676030433
30
0.0
11
279.700000000000
21
268.538676030433
31
0.0
0
LINE
5
5e6
100
AcDbEntity
8
0-1
6
DASHED
62
4
100
AcDbLine
10
278.098754184835
20
268.566625880103
30
0.0
11
279.700000000000
21
268.538676030433
31
0.0
0
LINE
5
5e7
100
AcDbEntity
8
0-1
6
DASHED
62
4
100
AcDbLine
10
285.329673610378
20
270.238676030433
30
0.0
11
285.300000000000
21
268.538676030433
31
0.0
0
LINE
5
5e8
100
AcDbEntity
8
0-1
6
DASHED
62
4
100
AcDbLine
10
286.901245815166
20
268.566625880103
30
0.0
11
285.300000000000
21
268.538676030433
31
0.0
0
LINE
5
5e9
100
AcDbEntity
8
0-0
6
CONTINUOUS
62
7
100
AcDbLine
10
107.500000000000
20
95.499996000000
30
0.0
11
107.500000000000
21
113.431975186501
31
0.0
0
LINE
5
5ea
100
AcDbEntity
8
0-0
6
CONTINUOUS
62
7
100
AcDbLine
10
112.500010000000
20
113.431800065540
30
0.0
11
112.500010000000
21
95.499996000000
31
0.0
0
CIRCLE
5
5eb
100
AcDbEntity
8
0-0
6
CONTINUOUS
62
7
100
AcDbCircle
10
110.000000000000
20
105.000000000000
30
0.0
40
16.499999000000
0
CIRCLE
5
5ec
100
AcDbEntity
8
0-0
6
CONTINUOUS
62
7
100
AcDbCircle
10
100.500000000000
20
105.000000000000
30
0.0
40
2.099999800000
0
CIRCLE
5
5ed
100
AcDbEntity
8
0-0
6
CONTINUOUS
62
7
100
AcDbCircle
10
119.500010000000
20
105.000000000000
30
0.0
40
2.099999800000
0
CIRCLE
5
5ee
100
AcDbEntity
8
0-0
6
CONTINUOUS
62
7
100
AcDbCircle
10
100.500000000000
20
105.000000000000
30
0.0
40
3.999999900000
0
CIRCLE
5
5ef
100
AcDbEntity
8
0-0
6
CONTINUOUS
62
7
100
AcDbCircle
10
119.500010000000
20
105.000000000000
30
0.0
40
3.999999900000
0
ARC
5
5f0
100
AcDbEntity
8
0-0
6
CONTINUOUS
62
7
100
AcDbCircle
10
110.000000000000
20
95.499996000000
30
0.0
40
2.500000100000
100
AcDbArc
50
180.000000000000
51
359.999840000000
0
POLYLINE
5
5f1
100
AcDbEntity
8
0-0
6
CONTINUOUS
62
  7
100
AcDb2dPolyline
66
1
10
0.0
20
0.0
30
0.0
70
0
0
VERTEX
5
5f2
100
AcDbEntity
8
0-0
6
CONTINUOUS
62
  7
100
AcDbVertex
100
AcDb2dVertex
10
112.500010000000
20
113.431800065540
30
0.0
0
VERTEX
5
5f3
100
AcDbEntity
8
0-0
6
CONTINUOUS
62
  7
100
AcDbVertex
100
AcDb2dVertex
10
112.433534185217
20
113.928173630833
30
0.0
0
VERTEX
5
5f4
100
AcDbEntity
8
0-0
6
CONTINUOUS
62
  7
100
AcDbVertex
100
AcDb2dVertex
10
112.293116665644
20
114.403731251613
30
0.0
0
VERTEX
5
5f5
100
AcDbEntity
8
0-0
6
CONTINUOUS
62
  7
100
AcDbVertex
100
AcDb2dVertex
10
112.083023956558
20
114.844023350216
30
0.0
0
VERTEX
5
5f6
100
AcDbEntity
8
0-0
6
CONTINUOUS
62
  7
100
AcDbVertex
100
AcDb2dVertex
10
111.809639618614
20
115.235671874026
30
0.0
0
VERTEX
5
5f7
100
AcDbEntity
8
0-0
6
CONTINUOUS
62
  7
100
AcDbVertex
100
AcDb2dVertex
10
111.481270296579
20
115.566776780830
30
0.0
0
VERTEX
5
5f8
100
AcDbEntity
8
0-0
6
CONTINUOUS
62
  7
100
AcDbVertex
100
AcDb2dVertex
10
111.107893326142
20
115.827277615582
30
0.0
0
VERTEX
5
5f9
100
AcDbEntity
8
0-0
6
CONTINUOUS
62
  7
100
AcDbVertex
100
AcDb2dVertex
10
110.700853577611
20
116.009259192238
30
0.0
0
VERTEX
5
5fa
100
AcDbEntity
8
0-0
6
CONTINUOUS
62
  7
100
AcDbVertex
100
AcDb2dVertex
10
110.272518747774
20
116.107192092679
30
0.0
0
VERTEX
5
5fb
100
AcDbEntity
8
0-0
6
CONTINUOUS
62
  7
100
AcDbVertex
100
AcDb2dVertex
10
109.835903573686
20
116.118100675280
30
0.0
0
VERTEX
5
5fc
100
AcDbEntity
8
0-0
6
CONTINUOUS
62
  7
100
AcDbVertex
100
AcDb2dVertex
10
109.404274386476
20
116.041653488279
30
0.0
0
VERTEX
5
5fd
100
AcDbEntity
8
0-0
6
CONTINUOUS
62
  7
100
AcDbVertex
100
AcDb2dVertex
10
108.990746020580
20
115.880173340770
30
0.0
0
VERTEX
5
5fe
100
AcDbEntity
8
0-0
6
CONTINUOUS
62
  7
100
AcDbVertex
100
AcDb2dVertex
10
108.607883326142
20
115.638566725322
30
0.0
0
VERTEX
5
5ff
100
AcDbEntity
8
0-0
6
CONTINUOUS
62
  7
100
AcDbVertex
100
AcDb2dVertex
10
108.267319392394
20
115.324174736685
30
0.0
0
VERTEX
5
600
100
AcDbEntity
8
0-0
6
CONTINUOUS
62
  7
100
AcDbVertex
100
AcDb2dVertex
10
107.979402082130
20
114.946550016346
30
0.0
0
VERTEX
5
601
100
AcDbEntity
8
0-0
6
CONTINUOUS
62
  7
100
AcDbVertex
100
AcDb2dVertex
10
107.752879617128
20
114.517166500343
30
0.0
0
VERTEX
5
602
100
AcDbEntity
8
0-0
6
CONTINUOUS
62
  7
100
AcDbVertex
100
AcDb2dVertex
10
107.594634767862
20
114.049070789533
30
0.0
0
VERTEX
5
603
100
AcDbEntity
8
0-0
6
CONTINUOUS
62
  7
100
AcDbVertex
100
AcDb2dVertex
10
107.509475724001
20
113.556485735220
30
0.0
0
VERTEX
5
604
100
AcDbEntity
8
0-0
6
CONTINUOUS
62
  7
100
AcDbVertex
100
AcDb2dVertex
10
107.500000000000
20
113.431975186501
30
0.0
0
SEQEND
5
605
100
AcDbEntity
8
0-0
0
LINE
5
606
100
AcDbEntity
8
0-1
6
CENTER
62
4
100
AcDbLine
10
126.499999000000
20
105.000000000000
30
0.0
11
93.500001000000
21
105.000000000000
31
0.0
0
LINE
5
607
100
AcDbEntity
8
0-1
6
CENTER
62
4
100
AcDbLine
10
100.500000000000
20
108.999999900000
30
0.0
11
100.500000000000
21
101.000000100000
31
0.0
0
LINE
5
608
100
AcDbEntity
8
0-1
6
CENTER
62
4
100
AcDbLine
10
110.000000000000
20
88.500001000000
30
0.0
11
110.000000000000
21
121.499999000000
31
0.0
0
LINE
5
609
100
AcDbEntity
8
0-1
6
CENTER
62
4
100
AcDbLine
10
119.500010000000
20
108.999999900000
30
0.0
11
119.500010000000
21
101.000000100000
31
0.0
0
POLYLINE
5
60a
100
AcDbEntity
8
0-0
6
CONTINUOUS
62
  7
100
AcDb2dPolyline
66
1
10
0.0
20
0.0
30
0.0
70
0
0
VERTEX
5
60b
100
AcDbEntity
8
0-0
6
CONTINUOUS
62
  7
100
AcDbVertex
100
AcDb2dVertex
10
109.745184196068
20
49.659555325831
30
0.0
0
VERTEX
5
60c
100
AcDbEntity
8
0-0
6
CONTINUOUS
62
  7
100
AcDbVertex
100
AcDb2dVertex
10
110.269999953699
20
49.658100682969
30
0.0
0
VERTEX
5
60d
100
AcDbEntity
8
0-0
6
CONTINUOUS
62
  7
100
AcDbVertex
100
AcDb2dVertex
10
110.786611899363
20
49.556877175984
30
0.0
0
VERTEX
5
60e
100
AcDbEntity
8
0-0
6
CONTINUOUS
62
  7
100
AcDbVertex
100
AcDb2dVertex
10
111.279323040509
20
49.358960429915
30
0.0
0
VERTEX
5
60f
100
AcDbEntity
8
0-0
6
CONTINUOUS
62
  7
100
AcDbVertex
100
AcDb2dVertex
10
111.733162598439
20
49.070364044941
30
0.0
0
VERTEX
5
610
100
AcDbEntity
8
0-0
6
CONTINUOUS
62
  7
100
AcDbVertex
100
AcDb2dVertex
10
112.134340887837
20
48.699856876181
30
0.0
0
VERTEX
5
611
100
AcDbEntity
8
0-0
6
CONTINUOUS
62
  7
100
AcDbVertex
100
AcDb2dVertex
10
112.470668309387
20
48.258696596473
30
0.0
0
VERTEX
5
612
100
AcDbEntity
8
0-0
6
CONTINUOUS
62
  7
100
AcDbVertex
100
AcDb2dVertex
10
112.731925724575
20
47.760287637678
30
0.0
0
VERTEX
5
613
100
AcDbEntity
8
0-0
6
CONTINUOUS
62
  7
100
AcDbVertex
100
AcDb2dVertex
10
112.910174959043
20
47.219773903802
30
0.0
0
VERTEX
5
614
100
AcDbEntity
8
0-0
6
CONTINUOUS
62
  7
100
AcDbVertex
100
AcDb2dVertex
10
113.000000000000
20
46.653578631136
30
0.0
0
VERTEX
5
615
100
AcDbEntity
8
0-0
6
CONTINUOUS
62
  7
100
AcDbVertex
100
AcDb2dVertex
10
113.000000000000
20
22.499991000000
30
0.0
0
SEQEND
5
616
100
AcDbEntity
8
0-0
0
POLYLINE
5
617
100
AcDbEntity
8
0-0
6
CONTINUOUS
62
  7
100
AcDb2dPolyline
66
1
10
0.0
20
0.0
30
0.0
70
0
0
VERTEX
5
618
100
AcDbEntity
8
0-0
6
CONTINUOUS
62
  7
100
AcDbVertex
100
AcDb2dVertex
10
106.999990000000
20
22.499991000000
30
0.0
0
VERTEX
5
619
100
AcDbEntity
8
0-0
6
CONTINUOUS
62
  7
100
AcDbVertex
100
AcDb2dVertex
10
106.999990000000
20
46.653449684475
30
0.0
0
VERTEX
5
61a
100
AcDbEntity
8
0-0
6
CONTINUOUS
62
  7
100
AcDbVertex
100
AcDb2dVertex
10
107.001328440970
20
46.670205275131
30
0.0
0
VERTEX
5
61b
100
AcDbEntity
8
0-0
6
CONTINUOUS
62
  7
100
AcDbVertex
100
AcDb2dVertex
10
107.093769999860
20
47.235895355633
30
0.0
0
VERTEX
5
61c
100
AcDbEntity
8
0-0
6
CONTINUOUS
62
  7
100
AcDbVertex
100
AcDb2dVertex
10
107.274515886681
20
47.775414055189
30
0.0
0
VERTEX
5
61d
100
AcDbEntity
8
0-0
6
CONTINUOUS
62
  7
100
AcDbVertex
100
AcDb2dVertex
10
107.538074229123
20
48.272368371122
30
0.0
0
VERTEX
5
61e
100
AcDbEntity
8
0-0
6
CONTINUOUS
62
  7
100
AcDbVertex
100
AcDb2dVertex
10
107.876436940320
20
48.711658598013
30
0.0
0
VERTEX
5
61f
100
AcDbEntity
8
0-0
6
CONTINUOUS
62
  7
100
AcDbVertex
100
AcDb2dVertex
10
108.279323040509
20
49.079937124610
30
0.0
0
VERTEX
5
620
100
AcDbEntity
8
0-0
6
CONTINUOUS
62
  7
100
AcDbVertex
100
AcDb2dVertex
10
108.734491039409
20
49.366013994241
30
0.0
0
VERTEX
5
621
100
AcDbEntity
8
0-0
6
CONTINUOUS
62
  7
100
AcDbVertex
100
AcDb2dVertex
10
109.228110887697
20
49.561196905983
30
0.0
0
VERTEX
5
622
100
AcDbEntity
8
0-0
6
CONTINUOUS
62
  7
100
AcDbVertex
100
AcDb2dVertex
10
109.745184196068
20
49.659555325831
30
0.0
0
SEQEND
5
623
100
AcDbEntity
8
0-0
0
CIRCLE
5
624
100
AcDbEntity
8
0-0
6
CONTINUOUS
62
7
100
AcDbCircle
10
110.000000000000
20
35.000000000000
30
0.0
40
20.000000000000
0
CIRCLE
5
625
100
AcDbEntity
8
0-0
6
CONTINUOUS
62
7
100
AcDbCircle
10
98.500000000000
20
35.000000000000
30
0.0
40
2.599999800000
0
CIRCLE
5
626
100
AcDbEntity
8
0-0
6
CONTINUOUS
62
7
100
AcDbCircle
10
121.500000000000
20
35.000000000000
30
0.0
40
2.599999800000
0
CIRCLE
5
627
100
AcDbEntity
8
0-0
6
CONTINUOUS
62
7
100
AcDbCircle
10
98.500000000000
20
35.000000000000
30
0.0
40
4.500000000000
0
CIRCLE
5
628
100
AcDbEntity
8
0-0
6
CONTINUOUS
62
7
100
AcDbCircle
10
121.500000000000
20
35.000000000000
30
0.0
40
4.500000000000
0
ARC
5
629
100
AcDbEntity
8
0-0
6
CONTINUOUS
62
7
100
AcDbCircle
10
110.000000000000
20
22.499991000000
30
0.0
40
2.999999900000
100
AcDbArc
50
180.000000000000
51
360.000000000000
0
LINE
5
62a
100
AcDbEntity
8
0-1
6
CENTER
62
4
100
AcDbLine
10
110.000000000000
20
15.000000000000
30
0.0
11
110.000000000000
21
55.000000000000
31
0.0
0
LINE
5
62b
100
AcDbEntity
8
0-1
6
CENTER
62
4
100
AcDbLine
10
98.500000000000
20
41.731238590518
30
0.0
11
98.500000000000
21
28.268761409482
31
0.0
0
LINE
5
62c
100
AcDbEntity
8
0-1
6
CENTER
62
4
100
AcDbLine
10
90.000000000000
20
35.000000000000
30
0.0
11
130.000000000000
21
35.000000000000
31
0.0
0
LINE
5
62d
100
AcDbEntity
8
0-1
6
CENTER
62
4
100
AcDbLine
10
121.500000000000
20
28.268761409482
30
0.0
11
121.500000000000
21
41.731238590518
31
0.0
0
LINE
5
62e
100
AcDbEntity
8
0-0
6
CONTINUOUS
62
7
100
AcDbLine
10
207.500000000000
20
114.499995000000
30
0.0
11
207.500000000000
21
95.500013000000
31
0.0
0
LINE
5
62f
100
AcDbEntity
8
0-0
6
CONTINUOUS
62
7
100
AcDbLine
10
212.500000000000
20
95.500004000000
30
0.0
11
212.500000000000
21
114.499995000000
31
0.0
0
CIRCLE
5
630
100
AcDbEntity
8
0-0
6
CONTINUOUS
62
7
100
AcDbCircle
10
219.500010000000
20
105.000000000000
30
0.0
40
3.699999800000
0
CIRCLE
5
631
100
AcDbEntity
8
0-0
6
CONTINUOUS
62
7
100
AcDbCircle
10
200.500000000000
20
105.000000000000
30
0.0
40
3.699999800000
0
CIRCLE
5
632
100
AcDbEntity
8
0-0
6
CONTINUOUS
62
7
100
AcDbCircle
10
219.500010000000
20
105.000000000000
30
0.0
40
2.099999800000
0
CIRCLE
5
633
100
AcDbEntity
8
0-0
6
CONTINUOUS
62
7
100
AcDbCircle
10
200.500000000000
20
105.000000000000
30
0.0
40
2.099999800000
0
CIRCLE
5
634
100
AcDbEntity
8
0-0
6
CONTINUOUS
62
7
100
AcDbCircle
10
210.000000000000
20
105.000000000000
30
0.0
40
16.499999000000
0
ARC
5
635
100
AcDbEntity
8
0-0
6
CONTINUOUS
62
7
100
AcDbCircle
10
210.000000000000
20
95.500004000000
30
0.0
40
2.500000100000
100
AcDbArc
50
180.000150000000
51
360.000000000000
0
ARC
5
636
100
AcDbEntity
8
0-0
6
CONTINUOUS
62
7
100
AcDbCircle
10
210.000000000000
20
114.499995000000
30
0.0
40
2.500000100000
100
AcDbArc
50
0.000000000000
51
179.999840000000
0
LINE
5
637
100
AcDbEntity
8
0-1
6
CENTER
62
4
100
AcDbLine
10
226.499999000000
20
105.000000000000
30
0.0
11
193.500001000000
21
105.000000000000
31
0.0
0
LINE
5
638
100
AcDbEntity
8
0-1
6
CENTER
62
4
100
AcDbLine
10
200.499990000000
20
99.243913623046
30
0.0
11
200.499990000000
21
110.756086376955
31
0.0
0
LINE
5
639
100
AcDbEntity
8
0-1
6
CENTER
62
4
100
AcDbLine
10
210.000000000000
20
121.499999000000
30
0.0
11
210.000000000000
21
88.500001000000
31
0.0
0
LINE
5
63a
100
AcDbEntity
8
0-1
6
CENTER
62
4
100
AcDbLine
10
219.500010000000
20
99.243913623046
30
0.0
11
219.500010000000
21
110.756086376955
31
0.0
0
LINE
5
63b
100
AcDbEntity
8
0-0
6
CONTINUOUS
62
7
100
AcDbLine
10
213.000010000000
20
22.500001000000
30
0.0
11
213.000010000000
21
47.499994000000
31
0.0
0
LINE
5
63c
100
AcDbEntity
8
0-0
6
CONTINUOUS
62
7
100
AcDbLine
10
207.000000000000
20
47.500004000000
30
0.0
11
207.000000000000
21
22.499992000000
31
0.0
0
CIRCLE
5
63d
100
AcDbEntity
8
0-0
6
CONTINUOUS
62
7
100
AcDbCircle
10
210.000000000000
20
35.000000000000
30
0.0
40
20.000000000000
0
ARC
5
63e
100
AcDbEntity
8
0-0
6
CONTINUOUS
62
7
100
AcDbCircle
10
210.000000000000
20
47.499994000000
30
0.0
40
2.999999900000
100
AcDbArc
50
0.000000000000
51
179.999840000000
0
ARC
5
63f
100
AcDbEntity
8
0-0
6
CONTINUOUS
62
7
100
AcDbCircle
10
210.000000000000
20
22.500001000000
30
0.0
40
2.999999900000
100
AcDbArc
50
180.000150000000
51
360.000000000000
0
CIRCLE
5
640
100
AcDbEntity
8
0-0
6
CONTINUOUS
62
7
100
AcDbCircle
10
198.500000000000
20
35.000000000000
30
0.0
40
2.599999800000
0
CIRCLE
5
641
100
AcDbEntity
8
0-0
6
CONTINUOUS
62
7
100
AcDbCircle
10
221.500000000000
20
35.000000000000
30
0.0
40
2.599999800000
0
CIRCLE
5
642
100
AcDbEntity
8
0-0
6
CONTINUOUS
62
7
100
AcDbCircle
10
198.500000000000
20
35.000000000000
30
0.0
40
4.449999700000
0
CIRCLE
5
643
100
AcDbEntity
8
0-0
6
CONTINUOUS
62
7
100
AcDbCircle
10
221.500000000000
20
35.000000000000
30
0.0
40
4.449999700000
0
LINE
5
644
100
AcDbEntity
8
0-1
6
CENTER
62
4
100
AcDbLine
10
190.000000000000
20
35.000000000000
30
0.0
11
230.000000000000
21
35.000000000000
31
0.0
0
LINE
5
645
100
AcDbEntity
8
0-1
6
CENTER
62
4
100
AcDbLine
10
221.500000000000
20
42.671803861507
30
0.0
11
221.500000000000
21
27.328196138493
31
0.0
0
LINE
5
646
100
AcDbEntity
8
0-1
6
CENTER
62
4
100
AcDbLine
10
210.000000000000
20
15.000000000000
30
0.0
11
210.000000000000
21
55.000000000000
31
0.0
0
LINE
5
647
100
AcDbEntity
8
0-1
6
CENTER
62
4
100
AcDbLine
10
198.500000000000
20
42.671803861507
30
0.0
11
198.500000000000
21
27.328196138493
31
0.0
0
LINE
5
648
100
AcDbEntity
8
0-0
6
CONTINUOUS
62
7
100
AcDbLine
10
262.500010000000
20
25.499992500000
30
0.0
11
254.500000000000
21
25.499992500000
31
0.0
0
LINE
5
649
100
AcDbEntity
8
0-0
6
CONTINUOUS
62
7
100
AcDbLine
10
254.500000000000
20
19.499993500000
30
0.0
11
262.500010000000
21
19.499993500000
31
0.0
0
POLYLINE
5
64a
100
AcDbEntity
8
0-0
6
CONTINUOUS
62
  7
100
AcDb2dPolyline
66
1
10
0.0
20
0.0
30
0.0
70
0
0
VERTEX
5
64b
100
AcDbEntity
8
0-0
6
CONTINUOUS
62
  7
100
AcDbVertex
100
AcDb2dVertex
10
262.500010000000
20
15.064999500000
30
0.0
0
VERTEX
5
64c
100
AcDbEntity
8
0-0
6
CONTINUOUS
62
  7
100
AcDbVertex
100
AcDb2dVertex
10
265.000000000000
20
15.064999500000
30
0.0
0
VERTEX
5
64d
100
AcDbEntity
8
0-0
6
CONTINUOUS
62
  7
100
AcDbVertex
100
AcDb2dVertex
10
265.000000000000
20
54.935000500000
30
0.0
0
VERTEX
5
64e
100
AcDbEntity
8
0-0
6
CONTINUOUS
62
  7
100
AcDbVertex
100
AcDb2dVertex
10
262.500010000000
20
54.935000500000
30
0.0
0
VERTEX
5
64f
100
AcDbEntity
8
0-0
6
CONTINUOUS
62
  7
100
AcDbVertex
100
AcDb2dVertex
10
262.500010000000
20
15.064999500000
30
0.0
0
SEQEND
5
650
100
AcDbEntity
8
0-0
0
LINE
5
651
100
AcDbEntity
8
0-0
6
CONTINUOUS
62
7
100
AcDbLine
10
262.500010000000
20
44.500000500000
30
0.0
11
254.500000000000
21
44.500000500000
31
0.0
0
LINE
5
652
100
AcDbEntity
8
0-0
6
CONTINUOUS
62
7
100
AcDbLine
10
254.500000000000
20
50.500000500000
30
0.0
11
262.500010000000
21
50.500000500000
31
0.0
0
ARC
5
653
100
AcDbEntity
8
0-0
6
CONTINUOUS
62
7
100
AcDbCircle
10
255.000010000000
20
34.999996500000
30
0.0
40
9.499999700000
100
AcDbArc
50
93.013001000000
51
266.982990000000
0
ARC
5
654
100
AcDbEntity
8
0-0
6
CONTINUOUS
62
7
100
AcDbCircle
10
255.000010000000
20
34.999996500000
30
0.0
40
15.499999000000
100
AcDbArc
50
91.847794000000
51
268.151400000000
0
LINE
5
655
100
AcDbEntity
8
0-1
6
CENTER
62
4
100
AcDbLine
10
239.500011000000
20
34.999996500000
30
0.0
11
265.000000000000
21
34.999996500000
31
0.0
0
POLYLINE
5
656
100
AcDbEntity
8
0-1
6
DASHED
62
  4
100
AcDb2dPolyline
66
1
10
0.0
20
0.0
30
0.0
70
0
0
VERTEX
5
657
100
AcDbEntity
8
0-1
6
DASHED
62
  4
100
AcDbVertex
100
AcDb2dVertex
10
265.000000000000
20
32.449994500000
30
0.0
0
VERTEX
5
658
100
AcDbEntity
8
0-1
6
DASHED
62
  4
100
AcDbVertex
100
AcDb2dVertex
10
264.243850000000
20
32.449994500000
30
0.0
0
VERTEX
5
659
100
AcDbEntity
8
0-1
6
DASHED
62
  4
100
AcDbVertex
100
AcDb2dVertex
10
264.243850000000
20
37.549999500000
30
0.0
0
VERTEX
5
65a
100
AcDbEntity
8
0-1
6
DASHED
62
  4
100
AcDbVertex
100
AcDb2dVertex
10
262.500010000000
20
39.450003500000
30
0.0
0
SEQEND
5
65b
100
AcDbEntity
8
0-1
0
LINE
5
65c
100
AcDbEntity
8
0-1
6
DASHED
62
4
100
AcDbLine
10
264.243850000000
20
37.549999500000
30
0.0
11
265.000000000000
21
37.549999500000
31
0.0
0
LINE
5
65d
100
AcDbEntity
8
0-1
6
DASHED
62
4
100
AcDbLine
10
264.243850000000
20
32.449994500000
30
0.0
11
262.500010000000
21
30.549990500000
31
0.0
0
LINE
5
65e
100
AcDbEntity
8
0-0
6
CONTINUOUS
62
7
100
AcDbLine
10
162.500000000000
20
25.500003500000
30
0.0
11
154.500010000000
21
25.500003500000
31
0.0
0
LINE
5
65f
100
AcDbEntity
8
0-0
6
CONTINUOUS
62
7
100
AcDbLine
10
154.500010000000
20
19.499994500000
30
0.0
11
162.500000000000
21
19.499994500000
31
0.0
0
POLYLINE
5
660
100
AcDbEntity
8
0-0
6
CONTINUOUS
62
  7
100
AcDb2dPolyline
66
1
10
0.0
20
0.0
30
0.0
70
0
0
VERTEX
5
661
100
AcDbEntity
8
0-0
6
CONTINUOUS
62
  7
100
AcDbVertex
100
AcDb2dVertex
10
162.500000000000
20
15.000006500000
30
0.0
0
VERTEX
5
662
100
AcDbEntity
8
0-0
6
CONTINUOUS
62
  7
100
AcDbVertex
100
AcDb2dVertex
10
165.000000000000
20
15.000006500000
30
0.0
0
VERTEX
5
663
100
AcDbEntity
8
0-0
6
CONTINUOUS
62
  7
100
AcDbVertex
100
AcDb2dVertex
10
165.000000000000
20
54.999993500000
30
0.0
0
VERTEX
5
664
100
AcDbEntity
8
0-0
6
CONTINUOUS
62
  7
100
AcDbVertex
100
AcDb2dVertex
10
162.500000000000
20
54.999993500000
30
0.0
0
VERTEX
5
665
100
AcDbEntity
8
0-0
6
CONTINUOUS
62
  7
100
AcDbVertex
100
AcDb2dVertex
10
162.500000000000
20
15.000006500000
30
0.0
0
SEQEND
5
666
100
AcDbEntity
8
0-0
0
LINE
5
667
100
AcDbEntity
8
0-0
6
CONTINUOUS
62
7
100
AcDbLine
10
149.500000000000
20
43.077733500000
30
0.0
11
149.500000000000
21
49.671383500000
31
0.0
0
ARC
5
668
100
AcDbEntity
8
0-0
6
CONTINUOUS
62
7
100
AcDbCircle
10
154.500010000000
20
35.000007500000
30
0.0
40
15.499999000000
100
AcDbArc
50
108.819245000000
51
270.000000000000
0
ARC
5
669
100
AcDbEntity
8
0-0
6
CONTINUOUS
62
7
100
AcDbCircle
10
154.500010000000
20
35.000007500000
30
0.0
40
9.499999700000
100
AcDbArc
50
121.757096000000
51
270.000000000000
0
LINE
5
66a
100
AcDbEntity
8
0-1
6
CENTER
62
4
100
AcDbLine
10
139.000011000000
20
35.000007500000
30
0.0
11
165.000000000000
21
35.000007500000
31
0.0
0
LINE
5
66b
100
AcDbEntity
8
0-0
6
CONTINUOUS
62
7
100
AcDbLine
10
157.000030000000
20
93.000005500000
30
0.0
11
162.499990000000
21
93.000005500000
31
0.0
0
POLYLINE
5
66c
100
AcDbEntity
8
0-0
6
CONTINUOUS
62
  7
100
AcDb2dPolyline
66
1
10
0.0
20
0.0
30
0.0
70
0
0
VERTEX
5
66d
100
AcDbEntity
8
0-0
6
CONTINUOUS
62
  7
100
AcDbVertex
100
AcDb2dVertex
10
162.499990000000
20
88.500008500000
30
0.0
0
VERTEX
5
66e
100
AcDbEntity
8
0-0
6
CONTINUOUS
62
  7
100
AcDbVertex
100
AcDb2dVertex
10
165.000000000000
20
88.500008500000
30
0.0
0
VERTEX
5
66f
100
AcDbEntity
8
0-0
6
CONTINUOUS
62
  7
100
AcDbVertex
100
AcDb2dVertex
10
165.000000000000
20
121.499991500000
30
0.0
0
VERTEX
5
670
100
AcDbEntity
8
0-0
6
CONTINUOUS
62
  7
100
AcDbVertex
100
AcDb2dVertex
10
162.499990000000
20
121.499991500000
30
0.0
0
VERTEX
5
671
100
AcDbEntity
8
0-0
6
CONTINUOUS
62
  7
100
AcDbVertex
100
AcDb2dVertex
10
162.499990000000
20
88.500008500000
30
0.0
0
SEQEND
5
672
100
AcDbEntity
8
0-0
0
LINE
5
673
100
AcDbEntity
8
0-0
6
CONTINUOUS
62
7
100
AcDbLine
10
162.499990000000
20
98.000012500000
30
0.0
11
157.000030000000
21
98.000012500000
31
0.0
0
LINE
5
674
100
AcDbEntity
8
0-0
6
CONTINUOUS
62
7
100
AcDbLine
10
152.500000000000
20
110.361895500000
30
0.0
11
152.500000000000
21
116.124281500000
31
0.0
0
ARC
5
675
100
AcDbEntity
8
0-0
6
CONTINUOUS
62
7
100
AcDbCircle
10
157.000030000000
20
105.000004500000
30
0.0
40
12.000000000000
100
AcDbArc
50
112.024445000000
51
270.000000000000
0
ARC
5
676
100
AcDbEntity
8
0-0
6
CONTINUOUS
62
7
100
AcDbCircle
10
157.000030000000
20
105.000004500000
30
0.0
40
6.999999600000
100
AcDbArc
50
130.005417000000
51
270.000000000000
0
LINE
5
677
100
AcDbEntity
8
0-1
6
DASHED
62
4
100
AcDbLine
10
162.500010000000
20
100.999999500000
30
0.0
11
165.000000000000
21
102.900003500000
31
0.0
0
LINE
5
678
100
AcDbEntity
8
0-1
6
CENTER
62
4
100
AcDbLine
10
165.000000000000
20
105.000004500000
30
0.0
11
145.000030000000
21
105.000004500000
31
0.0
0
LINE
5
679
100
AcDbEntity
8
0-1
6
DASHED
62
4
100
AcDbLine
10
162.500010000000
20
109.000009500000
30
0.0
11
165.000000000000
21
107.100005500000
31
0.0
0
POLYLINE
5
67a
100
AcDbEntity
8
0-0
6
CONTINUOUS
62
  7
100
AcDb2dPolyline
66
1
10
0.0
20
0.0
30
0.0
70
0
0
VERTEX
5
67b
100
AcDbEntity
8
0-0
6
CONTINUOUS
62
  7
100
AcDbVertex
100
AcDb2dVertex
10
265.000000000000
20
88.550004000000
30
0.0
0
VERTEX
5
67c
100
AcDbEntity
8
0-0
6
CONTINUOUS
62
  7
100
AcDbVertex
100
AcDb2dVertex
10
262.500000000000
20
88.550004000000
30
0.0
0
VERTEX
5
67d
100
AcDbEntity
8
0-0
6
CONTINUOUS
62
  7
100
AcDbVertex
100
AcDb2dVertex
10
262.500000000000
20
121.449996000000
30
0.0
0
VERTEX
5
67e
100
AcDbEntity
8
0-0
6
CONTINUOUS
62
  7
100
AcDbVertex
100
AcDb2dVertex
10
265.000000000000
20
121.449996000000
30
0.0
0
VERTEX
5
67f
100
AcDbEntity
8
0-0
6
CONTINUOUS
62
  7
100
AcDbVertex
100
AcDb2dVertex
10
265.000000000000
20
88.550004000000
30
0.0
0
SEQEND
5
680
100
AcDbEntity
8
0-0
0
LINE
5
681
100
AcDbEntity
8
0-0
6
CONTINUOUS
62
7
100
AcDbLine
10
262.500000000000
20
93.000002000000
30
0.0
11
256.999990000000
21
93.000002000000
31
0.0
0
LINE
5
682
100
AcDbEntity
8
0-0
6
CONTINUOUS
62
7
100
AcDbLine
10
256.999990000000
20
98.000000000000
30
0.0
11
262.500000000000
21
98.000000000000
31
0.0
0
LINE
5
683
100
AcDbEntity
8
0-0
6
CONTINUOUS
62
7
100
AcDbLine
10
256.999970000000
20
111.999996000000
30
0.0
11
262.500000000000
21
111.999996000000
31
0.0
0
LINE
5
684
100
AcDbEntity
8
0-0
6
CONTINUOUS
62
7
100
AcDbLine
10
262.500000000000
20
116.999996000000
30
0.0
11
256.999950000000
21
116.999996000000
31
0.0
0
ARC
5
685
100
AcDbEntity
8
0-0
6
CONTINUOUS
62
7
100
AcDbCircle
10
256.999990000000
20
105.000001000000
30
0.0
40
6.999999600000
100
AcDbArc
50
90.000168000000
51
270.000000000000
0
ARC
5
686
100
AcDbEntity
8
0-0
6
CONTINUOUS
62
7
100
AcDbCircle
10
256.999990000000
20
105.000001000000
30
0.0
40
11.999999000000
100
AcDbArc
50
90.000168000000
51
270.000000000000
0
ARC
5
687
100
AcDbEntity
8
0-0
6
CONTINUOUS
62
7
100
AcDbCircle
10
256.999990000000
20
105.000001000000
30
0.0
40
11.999999000000
100
AcDbArc
50
90.000153000000
51
90.000168000000
0
POLYLINE
5
688
100
AcDbEntity
8
0-1
6
DASHED
62
  4
100
AcDb2dPolyline
66
1
10
0.0
20
0.0
30
0.0
70
0
0
VERTEX
5
689
100
AcDbEntity
8
0-1
6
DASHED
62
  4
100
AcDbVertex
100
AcDb2dVertex
10
262.500000000000
20
101.300001200000
30
0.0
0
VERTEX
5
68a
100
AcDbEntity
8
0-1
6
DASHED
62
  4
100
AcDbVertex
100
AcDb2dVertex
10
264.099997800000
20
102.899999000000
30
0.0
0
VERTEX
5
68b
100
AcDbEntity
8
0-1
6
DASHED
62
  4
100
AcDbVertex
100
AcDb2dVertex
10
264.100000000000
20
107.100000800000
30
0.0
0
VERTEX
5
68c
100
AcDbEntity
8
0-1
6
DASHED
62
  4
100
AcDbVertex
100
AcDb2dVertex
10
262.500000000000
20
108.700000800000
30
0.0
0
SEQEND
5
68d
100
AcDbEntity
8
0-1
0
LINE
5
68e
100
AcDbEntity
8
0-1
6
DASHED
62
4
100
AcDbLine
10
264.100000000000
20
107.104210000000
30
0.0
11
265.000000000000
21
107.104210000000
31
0.0
0
LINE
5
68f
100
AcDbEntity
8
0-1
6
CENTER
62
4
100
AcDbLine
10
265.000000000000
20
105.000001000000
30
0.0
11
244.999991000000
21
105.000001000000
31
0.0
0
LINE
5
690
100
AcDbEntity
8
0-1
6
DASHED
62
4
100
AcDbLine
10
264.099997800000
20
102.895783000000
30
0.0
11
265.000000000000
21
102.895783000000
31
0.0
0
LINE
5
691
100
AcDbEntity
8
0-0
6
CONTINUOUS
62
7
100
AcDbLine
10
320.000000000000
20
15.000007500000
30
0.0
11
320.000000000000
21
55.000006500000
31
0.0
0
LINE
5
692
100
AcDbEntity
8
0-0
6
CONTINUOUS
62
7
100
AcDbLine
10
300.000000000000
20
55.000006500000
30
0.0
11
300.000000000000
21
15.000007500000
31
0.0
0
LINE
5
693
100
AcDbEntity
8
0-0
6
CONTINUOUS
62
7
100
AcDbLine
10
307.000000000000
20
23.000001500000
30
0.0
11
307.000000000000
21
47.477422004315
31
0.0
0
LINE
5
694
100
AcDbEntity
8
0-0
6
CONTINUOUS
62
7
100
AcDbLine
10
313.000000000000
20
47.477422004315
30
0.0
11
313.000000000000
21
23.000001500000
31
0.0
0
POLYLINE
5
695
100
AcDbEntity
8
0-0
6
CONTINUOUS
62
  7
100
AcDb2dPolyline
66
1
10
0.0
20
0.0
30
0.0
70
0
0
VERTEX
5
696
100
AcDbEntity
8
0-0
6
CONTINUOUS
62
  7
100
AcDbVertex
100
AcDb2dVertex
10
307.000000000000
20
47.477422004315
30
0.0
0
VERTEX
5
697
100
AcDbEntity
8
0-0
6
CONTINUOUS
62
  7
100
AcDbVertex
100
AcDb2dVertex
10
307.045576740964
20
47.769150942796
30
0.0
0
VERTEX
5
698
100
AcDbEntity
8
0-0
6
CONTINUOUS
62
  7
100
AcDbVertex
100
AcDb2dVertex
10
307.180922137642
20
48.052015845102
30
0.0
0
VERTEX
5
699
100
AcDbEntity
8
0-0
6
CONTINUOUS
62
  7
100
AcDbVertex
100
AcDb2dVertex
10
307.401923788647
20
48.317422004315
30
0.0
0
VERTEX
5
69a
100
AcDbEntity
8
0-0
6
CONTINUOUS
62
  7
100
AcDbVertex
100
AcDb2dVertex
10
307.701866670643
20
48.557305188589
30
0.0
0
VERTEX
5
69b
100
AcDbEntity
8
0-0
6
CONTINUOUS
62
  7
100
AcDbVertex
100
AcDb2dVertex
10
308.071637170941
20
48.764376668755
30
0.0
0
VERTEX
5
69c
100
AcDbEntity
8
0-0
6
CONTINUOUS
62
  7
100
AcDbVertex
100
AcDb2dVertex
10
308.500000000000
20
48.932344682673
30
0.0
0
VERTEX
5
69d
100
AcDbEntity
8
0-0
6
CONTINUOUS
62
  7
100
AcDbVertex
100
AcDb2dVertex
10
308.973939570023
20
49.056105607236
30
0.0
0
VERTEX
5
69e
100
AcDbEntity
8
0-0
6
CONTINUOUS
62
  7
100
AcDbVertex
100
AcDb2dVertex
10
309.479055467000
20
49.131899029376
30
0.0
0
VERTEX
5
69f
100
AcDbEntity
8
0-0
6
CONTINUOUS
62
  7
100
AcDbVertex
100
AcDb2dVertex
10
310.000000000000
20
49.157422004315
30
0.0
0
VERTEX
5
6a0
100
AcDbEntity
8
0-0
6
CONTINUOUS
62
  7
100
AcDbVertex
100
AcDb2dVertex
10
310.520944533001
20
49.131899029376
30
0.0
0
VERTEX
5
6a1
100
AcDbEntity
8
0-0
6
CONTINUOUS
62
  7
100
AcDbVertex
100
AcDb2dVertex
10
311.026060429977
20
49.056105607236
30
0.0
0
VERTEX
5
6a2
100
AcDbEntity
8
0-0
6
CONTINUOUS
62
  7
100
AcDbVertex
100
AcDb2dVertex
10
311.500000000000
20
48.932344682673
30
0.0
0
VERTEX
5
6a3
100
AcDbEntity
8
0-0
6
CONTINUOUS
62
  7
100
AcDbVertex
100
AcDb2dVertex
10
311.928362829060
20
48.764376668755
30
0.0
0
VERTEX
5
6a4
100
AcDbEntity
8
0-0
6
CONTINUOUS
62
  7
100
AcDbVertex
100
AcDb2dVertex
10
312.298133329357
20
48.557305188589
30
0.0
0
VERTEX
5
6a5
100
AcDbEntity
8
0-0
6
CONTINUOUS
62
  7
100
AcDbVertex
100
AcDb2dVertex
10
312.598076211353
20
48.317422004315
30
0.0
0
VERTEX
5
6a6
100
AcDbEntity
8
0-0
6
CONTINUOUS
62
  7
100
AcDbVertex
100
AcDb2dVertex
10
312.819077862358
20
48.052015845102
30
0.0
0
VERTEX
5
6a7
100
AcDbEntity
8
0-0
6
CONTINUOUS
62
  7
100
AcDbVertex
100
AcDb2dVertex
10
312.954423259037
20
47.769150942796
30
0.0
0
VERTEX
5
6a8
100
AcDbEntity
8
0-0
6
CONTINUOUS
62
  7
100
AcDbVertex
100
AcDb2dVertex
10
313.000000000000
20
47.477422004315
30
0.0
0
SEQEND
5
6a9
100
AcDbEntity
8
0-0
0
ARC
5
6aa
100
AcDbEntity
8
0-0
6
CONTINUOUS
62
7
100
AcDbCircle
10
310.000000000000
20
23.000001500000
30
0.0
40
2.999999900000
100
AcDbArc
50
180.000150000000
51
360.000000000000
0
CIRCLE
5
6ab
100
AcDbEntity
8
0-0
6
CONTINUOUS
62
7
100
AcDbCircle
10
310.000000000000
20
57.999996500000
30
0.0
40
4.500000000000
0
CIRCLE
5
6ac
100
AcDbEntity
8
0-0
6
CONTINUOUS
62
7
100
AcDbCircle
10
310.000000000000
20
12.000003500000
30
0.0
40
4.500000000000
0
CIRCLE
5
6ad
100
AcDbEntity
8
0-0
6
CONTINUOUS
62
7
100
AcDbCircle
10
310.000000000000
20
57.999996500000
30
0.0
40
2.599999800000
0
CIRCLE
5
6ae
100
AcDbEntity
8
0-0
6
CONTINUOUS
62
7
100
AcDbCircle
10
310.000000000000
20
12.000003500000
30
0.0
40
2.599999800000
0
ARC
5
6af
100
AcDbEntity
8
0-0
6
CONTINUOUS
62
7
100
AcDbCircle
10
310.000000000000
20
15.000007500000
30
0.0
40
10.000000000000
100
AcDbArc
50
180.000000000000
51
359.999840000000
0
ARC
5
6b0
100
AcDbEntity
8
0-0
6
CONTINUOUS
62
7
100
AcDbCircle
10
310.000000000000
20
55.000006500000
30
0.0
40
10.000000000000
100
AcDbArc
50
0.000152500000
51
180.000000000000
0
LINE
5
6b1
100
AcDbEntity
8
0-1
6
CENTER
62
4
100
AcDbLine
10
310.000000000000
20
65.000006500000
30
0.0
11
310.000000000000
21
5.000007500000
31
0.0
0
LINE
5
6b2
100
AcDbEntity
8
0-1
6
CENTER
62
4
100
AcDbLine
10
304.015266179320
20
12.000003500000
30
0.0
11
315.984733820681
21
12.000003500000
31
0.0
0
LINE
5
6b3
100
AcDbEntity
8
0-1
6
CENTER
62
4
100
AcDbLine
10
315.984733820681
20
57.999996500000
30
0.0
11
304.015266179320
21
57.999996500000
31
0.0
0
LINE
5
6b4
100
AcDbEntity
8
0-1
6
CENTER
62
4
100
AcDbLine
10
319.918978370040
20
35.000000000000
30
0.0
11
300.000000000000
21
35.000000000000
31
0.0
0
LINE
5
6b5
100
AcDbEntity
8
0-0
6
CONTINUOUS
62
7
100
AcDbLine
10
317.500000000000
20
90.000000000000
30
0.0
11
317.500000000000
21
120.000000000000
31
0.0
0
LINE
5
6b6
100
AcDbEntity
8
0-0
6
CONTINUOUS
62
7
100
AcDbLine
10
302.500000000000
20
120.000000000000
30
0.0
11
302.500000000000
21
90.000000000000
31
0.0
0
LINE
5
6b7
100
AcDbEntity
8
0-0
6
CONTINUOUS
62
7
100
AcDbLine
10
312.500000000000
20
95.000000000000
30
0.0
11
312.500000000000
21
114.014428408133
31
0.0
0
LINE
5
6b8
100
AcDbEntity
8
0-0
6
CONTINUOUS
62
7
100
AcDbLine
10
307.500000000000
20
114.014428408133
30
0.0
11
307.500000000000
21
95.000000000000
31
0.0
0
ARC
5
6b9
100
AcDbEntity
8
0-0
6
CONTINUOUS
62
7
100
AcDbCircle
10
310.000000000000
20
120.000000000000
30
0.0
40
7.500000000000
100
AcDbArc
50
0.000000000000
51
180.000000000000
0
ARC
5
6ba
100
AcDbEntity
8
0-0
6
CONTINUOUS
62
7
100
AcDbCircle
10
310.000000000000
20
90.000000000000
30
0.0
40
7.500000000000
100
AcDbArc
50
180.000000000000
51
360.000000000000
0
CIRCLE
5
6bb
100
AcDbEntity
8
0-0
6
CONTINUOUS
62
7
100
AcDbCircle
10
310.000000000000
20
122.500000000000
30
0.0
40
2.100000000000
0
CIRCLE
5
6bc
100
AcDbEntity
8
0-0
6
CONTINUOUS
62
7
100
AcDbCircle
10
310.000000000000
20
87.500000000000
30
0.0
40
2.100000000000
0
CIRCLE
5
6bd
100
AcDbEntity
8
0-0
6
CONTINUOUS
62
7
100
AcDbCircle
10
310.000000000000
20
122.500000000000
30
0.0
40
4.000000000000
0
CIRCLE
5
6be
100
AcDbEntity
8
0-0
6
CONTINUOUS
62
7
100
AcDbCircle
10
310.000000000000
20
87.500000000000
30
0.0
40
4.000000000000
0
ARC
5
6bf
100
AcDbEntity
8
0-0
6
CONTINUOUS
62
7
100
AcDbCircle
10
310.000000000000
20
95.000000000000
30
0.0
40
2.500000000000
100
AcDbArc
50
180.000000000000
51
360.000000000000
0
POLYLINE
5
6c0
100
AcDbEntity
8
0-0
6
CONTINUOUS
62
  7
100
AcDb2dPolyline
66
1
10
0.0
20
0.0
30
0.0
70
0
0
VERTEX
5
6c1
100
AcDbEntity
8
0-0
6
CONTINUOUS
62
  7
100
AcDbVertex
100
AcDb2dVertex
10
312.500000000000
20
114.014428408133
30
0.0
0
VERTEX
5
6c2
100
AcDbEntity
8
0-0
6
CONTINUOUS
62
  7
100
AcDbVertex
100
AcDb2dVertex
10
312.433824371754
20
114.502197089536
30
0.0
0
VERTEX
5
6c3
100
AcDbEntity
8
0-0
6
CONTINUOUS
62
  7
100
AcDbVertex
100
AcDb2dVertex
10
312.293698221547
20
114.969570325365
30
0.0
0
VERTEX
5
6c4
100
AcDbEntity
8
0-0
6
CONTINUOUS
62
  7
100
AcDbVertex
100
AcDb2dVertex
10
312.083879211546
20
115.402347216351
30
0.0
0
VERTEX
5
6c5
100
AcDbEntity
8
0-0
6
CONTINUOUS
62
  7
100
AcDbVertex
100
AcDb2dVertex
10
311.810742586196
20
115.787378055657
30
0.0
0
VERTEX
5
6c6
100
AcDbEntity
8
0-0
6
CONTINUOUS
62
  7
100
AcDbVertex
100
AcDb2dVertex
10
311.482587463644
20
116.112963876067
30
0.0
0
VERTEX
5
6c7
100
AcDbEntity
8
0-0
6
CONTINUOUS
62
  7
100
AcDbVertex
100
AcDb2dVertex
10
311.109384671234
20
116.369211917181
30
0.0
0
VERTEX
5
6c8
100
AcDbEntity
8
0-0
6
CONTINUOUS
62
  7
100
AcDbVertex
100
AcDb2dVertex
10
310.702473786965
20
116.548336211937
30
0.0
0
VERTEX
5
6c9
100
AcDbEntity
8
0-0
6
CONTINUOUS
62
  7
100
AcDbVertex
100
AcDb2dVertex
10
310.274218592148
20
116.644894159282
30
0.0
0
VERTEX
5
6ca
100
AcDbEntity
8
0-0
6
CONTINUOUS
62
  7
100
AcDbVertex
100
AcDb2dVertex
10
309.837631404170
20
116.655951894845
30
0.0
0
VERTEX
5
6cb
100
AcDbEntity
8
0-0
6
CONTINUOUS
62
  7
100
AcDbVertex
100
AcDb2dVertex
10
309.405977703813
20
116.581173434928
30
0.0
0
VERTEX
5
6cc
100
AcDbEntity
8
0-0
6
CONTINUOUS
62
  7
100
AcDbVertex
100
AcDb2dVertex
10
308.992373070337
20
116.422830885194
30
0.0
0
VERTEX
5
6cd
100
AcDbEntity
8
0-0
6
CONTINUOUS
62
  7
100
AcDbVertex
100
AcDb2dVertex
10
308.609384671234
20
116.185735403892
30
0.0
0
VERTEX
5
6ce
100
AcDbEntity
8
0-0
6
CONTINUOUS
62
  7
100
AcDbVertex
100
AcDb2dVertex
10
308.268649415211
20
115.877091017246
30
0.0
0
VERTEX
5
6cf
100
AcDbEntity
8
0-0
6
CONTINUOUS
62
  7
100
AcDbVertex
100
AcDb2dVertex
10
307.980520370601
20
115.506275728763
30
0.0
0
VERTEX
5
6d0
100
AcDbEntity
8
0-0
6
CONTINUOUS
62
  7
100
AcDbVertex
100
AcDb2dVertex
10
307.753752192624
20
115.084556573340
30
0.0
0
VERTEX
5
6d1
100
AcDbEntity
8
0-0
6
CONTINUOUS
62
  7
100
AcDbVertex
100
AcDb2dVertex
10
307.595235117618
20
114.624747274116
30
0.0
0
VERTEX
5
6d2
100
AcDbEntity
8
0-0
6
CONTINUOUS
62
  7
100
AcDbVertex
100
AcDb2dVertex
10
307.509785606693
20
114.140818903973
30
0.0
0
VERTEX
5
6d3
100
AcDbEntity
8
0-0
6
CONTINUOUS
62
  7
100
AcDbVertex
100
AcDb2dVertex
10
307.500000000000
20
114.014428408133
30
0.0
0
SEQEND
5
6d4
100
AcDbEntity
8
0-0
0
LINE
5
6d5
100
AcDbEntity
8
0-1
6
CENTER
62
4
100
AcDbLine
10
314.000000000000
20
122.500000000000
30
0.0
11
306.000000000000
21
122.500000000000
31
0.0
0
LINE
5
6d6
100
AcDbEntity
8
0-1
6
CENTER
62
4
100
AcDbLine
10
306.000000000000
20
87.500000000000
30
0.0
11
314.000000000000
21
87.500000000000
31
0.0
0
LINE
5
6d7
100
AcDbEntity
8
0-1
6
CENTER
62
4
100
AcDbLine
10
310.000000000000
20
82.500000000000
30
0.0
11
310.000000000000
21
127.500000000000
31
0.0
0
LINE
5
6d8
100
AcDbEntity
8
0-1
6
CENTER
62
4
100
AcDbLine
10
302.500000000000
20
105.000000000000
30
0.0
11
317.500000000000
21
105.000000000000
31
0.0
0
POLYLINE
5
6d9
100
AcDbEntity
8
0-0
6
CONTINUOUS
62
  7
100
AcDb2dPolyline
66
1
10
0.0
20
0.0
30
0.0
70
0
0
VERTEX
5
6da
100
AcDbEntity
8
0-0
6
CONTINUOUS
62
  7
100
AcDbVertex
100
AcDb2dVertex
10
365.000000000000
20
127.500000000000
30
0.0
0
VERTEX
5
6db
100
AcDbEntity
8
0-0
6
CONTINUOUS
62
  7
100
AcDbVertex
100
AcDb2dVertex
10
365.000000000000
20
82.500000000000
30
0.0
0
VERTEX
5
6dc
100
AcDbEntity
8
0-0
6
CONTINUOUS
62
  7
100
AcDbVertex
100
AcDb2dVertex
10
363.000000000000
20
82.500000000000
30
0.0
0
VERTEX
5
6dd
100
AcDbEntity
8
0-0
6
CONTINUOUS
62
  7
100
AcDbVertex
100
AcDb2dVertex
10
363.000000000000
20
127.500000000000
30
0.0
0
VERTEX
5
6de
100
AcDbEntity
8
0-0
6
CONTINUOUS
62
  7
100
AcDbVertex
100
AcDb2dVertex
10
365.000000000000
20
127.500000000000
30
0.0
0
SEQEND
5
6df
100
AcDbEntity
8
0-0
0
LINE
5
6e0
100
AcDbEntity
8
0-0
6
CONTINUOUS
62
7
100
AcDbLine
10
353.000000000000
20
116.661903789690
30
0.0
11
353.000000000000
21
111.000000000000
31
0.0
0
LINE
5
6e1
100
AcDbEntity
8
0-0
6
CONTINUOUS
62
7
100
AcDbLine
10
363.000000000000
20
97.500000000000
30
0.0
11
357.500000000000
21
97.500000000000
31
0.0
0
LINE
5
6e2
100
AcDbEntity
8
0-0
6
CONTINUOUS
62
7
100
AcDbLine
10
357.500000000000
20
92.500000000000
30
0.0
11
363.000000000000
21
92.500000000000
31
0.0
0
ARC
5
6e3
100
AcDbEntity
8
0-0
6
CONTINUOUS
62
7
100
AcDbCircle
10
357.500000000000
20
105.000000000000
30
0.0
40
12.500000000000
100
AcDbArc
50
111.100196024093
51
270.000000000000
0
ARC
5
6e4
100
AcDbEntity
8
0-0
6
CONTINUOUS
62
7
100
AcDbCircle
10
357.500000000000
20
105.000000000000
30
0.0
40
7.500000000000
100
AcDbArc
50
126.869897645844
51
270.000000000000
0
POLYLINE
5
6e5
100
AcDbEntity
8
0-1
6
DASHED
62
  4
100
AcDb2dPolyline
66
1
10
0.0
20
0.0
30
0.0
70
0
0
VERTEX
5
6e6
100
AcDbEntity
8
0-1
6
DASHED
62
  4
100
AcDbVertex
100
AcDb2dVertex
10
365.000000000000
20
124.600000000000
30
0.0
0
VERTEX
5
6e7
100
AcDbEntity
8
0-1
6
DASHED
62
  4
100
AcDbVertex
100
AcDb2dVertex
10
364.900000000000
20
124.600000000000
30
0.0
0
VERTEX
5
6e8
100
AcDbEntity
8
0-1
6
DASHED
62
  4
100
AcDbVertex
100
AcDb2dVertex
10
364.900000000000
20
120.400000000000
30
0.0
0
VERTEX
5
6e9
100
AcDbEntity
8
0-1
6
DASHED
62
  4
100
AcDbVertex
100
AcDb2dVertex
10
363.000000000000
20
118.500000000000
30
0.0
0
SEQEND
5
6ea
100
AcDbEntity
8
0-1
0
LINE
5
6eb
100
AcDbEntity
8
0-1
6
DASHED
62
4
100
AcDbLine
10
364.900000000000
20
120.400000000000
30
0.0
11
365.000000000000
21
120.400000000000
31
0.0
0
LINE
5
6ec
100
AcDbEntity
8
0-1
6
CENTER
62
4
100
AcDbLine
10
365.000000000000
20
122.500000000000
30
0.0
11
363.000000000000
21
122.500000000000
31
0.0
0
LINE
5
6ed
100
AcDbEntity
8
0-1
6
DASHED
62
4
100
AcDbLine
10
364.900000000000
20
124.600000000000
30
0.0
11
363.000000000000
21
126.500000000000
31
0.0
0
LINE
5
6ee
100
AcDbEntity
8
0-1
6
CENTER
62
4
100
AcDbLine
10
345.000000000000
20
105.000000000000
30
0.0
11
365.000000000000
21
105.000000000000
31
0.0
0
POLYLINE
5
6ef
100
AcDbEntity
8
0-1
6
DASHED
62
  4
100
AcDb2dPolyline
66
1
10
0.0
20
0.0
30
0.0
70
0
0
VERTEX
5
6f0
100
AcDbEntity
8
0-1
6
DASHED
62
  4
100
AcDbVertex
100
AcDb2dVertex
10
363.000000000000
20
91.500000000000
30
0.0
0
VERTEX
5
6f1
100
AcDbEntity
8
0-1
6
DASHED
62
  4
100
AcDbVertex
100
AcDb2dVertex
10
364.900000000000
20
89.600000000000
30
0.0
0
VERTEX
5
6f2
100
AcDbEntity
8
0-1
6
DASHED
62
  4
100
AcDbVertex
100
AcDb2dVertex
10
364.900000000000
20
85.400000000000
30
0.0
0
VERTEX
5
6f3
100
AcDbEntity
8
0-1
6
DASHED
62
  4
100
AcDbVertex
100
AcDb2dVertex
10
363.000000000000
20
83.500000000000
30
0.0
0
SEQEND
5
6f4
100
AcDbEntity
8
0-1
0
LINE
5
6f5
100
AcDbEntity
8
0-1
6
DASHED
62
4
100
AcDbLine
10
364.900000000000
20
85.400000000000
30
0.0
11
365.000000000000
21
85.400000000000
31
0.0
0
LINE
5
6f6
100
AcDbEntity
8
0-1
6
CENTER
62
4
100
AcDbLine
10
365.000000000000
20
87.500000000000
30
0.0
11
363.000000000000
21
87.500000000000
31
0.0
0
LINE
5
6f7
100
AcDbEntity
8
0-1
6
DASHED
62
4
100
AcDbLine
10
364.900000000000
20
89.600000000000
30
0.0
11
365.000000000000
21
89.600000000000
31
0.0
0
LINE
5
6f8
100
AcDbEntity
8
0-0
6
CONTINUOUS
62
7
100
AcDbLine
10
349.000000000000
20
42.483316500000
30
0.0
11
349.000000000000
21
49.142126500000
31
0.0
0
POLYLINE
5
6f9
100
AcDbEntity
8
0-0
6
CONTINUOUS
62
  7
100
AcDb2dPolyline
66
1
10
0.0
20
0.0
30
0.0
70
0
0
VERTEX
5
6fa
100
AcDbEntity
8
0-0
6
CONTINUOUS
62
  7
100
AcDbVertex
100
AcDb2dVertex
10
363.000000000000
20
64.999996500000
30
0.0
0
VERTEX
5
6fb
100
AcDbEntity
8
0-0
6
CONTINUOUS
62
  7
100
AcDbVertex
100
AcDb2dVertex
10
365.000000000000
20
64.999996500000
30
0.0
0
VERTEX
5
6fc
100
AcDbEntity
8
0-0
6
CONTINUOUS
62
  7
100
AcDbVertex
100
AcDb2dVertex
10
365.000000000000
20
5.000003500000
30
0.0
0
VERTEX
5
6fd
100
AcDbEntity
8
0-0
6
CONTINUOUS
62
  7
100
AcDbVertex
100
AcDb2dVertex
10
363.000000000000
20
5.000003500000
30
0.0
0
VERTEX
5
6fe
100
AcDbEntity
8
0-0
6
CONTINUOUS
62
  7
100
AcDbVertex
100
AcDb2dVertex
10
363.000000000000
20
64.999996500000
30
0.0
0
SEQEND
5
6ff
100
AcDbEntity
8
0-0
0
LINE
5
700
100
AcDbEntity
8
0-0
6
CONTINUOUS
62
7
100
AcDbLine
10
363.000000000000
20
25.999996500000
30
0.0
11
353.999980000000
21
25.999996500000
31
0.0
0
LINE
5
701
100
AcDbEntity
8
0-0
6
CONTINUOUS
62
7
100
AcDbLine
10
353.999980000000
20
19.999997500000
30
0.0
11
363.000000000000
21
19.999997500000
31
0.0
0
ARC
5
702
100
AcDbEntity
8
0-0
6
CONTINUOUS
62
7
100
AcDbCircle
10
353.999980000000
20
34.999986500000
30
0.0
40
9.000000100000
100
AcDbArc
50
123.748887000000
51
270.000000000000
0
ARC
5
703
100
AcDbEntity
8
0-0
6
CONTINUOUS
62
7
100
AcDbCircle
10
353.999980000000
20
34.999986500000
30
0.0
40
15.000000000000
100
AcDbArc
50
109.471177000000
51
270.000000000000
0
LINE
5
704
100
AcDbEntity
8
0-1
6
CENTER
62
4
100
AcDbLine
10
365.000000000000
20
35.000000000000
30
0.0
11
338.999980000006
21
35.000000000000
31
0.0
0
LINE
5
705
100
AcDbEntity
8
0-1
6
DASHED
62
4
100
AcDbLine
10
363.000000000000
20
53.499996500000
30
0.0
11
365.000000000000
21
55.399996500000
31
0.0
0
LINE
5
706
100
AcDbEntity
8
0-1
6
DASHED
62
4
100
AcDbLine
10
365.000000000000
20
60.599986500000
30
0.0
11
363.000000000000
21
62.499986500000
31
0.0
0
LINE
5
707
100
AcDbEntity
8
0-1
6
CENTER
62
4
100
AcDbLine
10
359.807561494539
20
57.999996500000
30
0.0
11
368.250290432936
21
57.999996500000
31
0.0
0
LINE
5
708
100
AcDbEntity
8
0-1
6
DASHED
62
4
100
AcDbLine
10
363.000000000000
20
16.500001500000
30
0.0
11
365.000000000000
21
14.600005500000
31
0.0
0
LINE
5
709
100
AcDbEntity
8
0-1
6
DASHED
62
4
100
AcDbLine
10
365.000000000000
20
9.400002500000
30
0.0
11
363.000000000000
21
7.500006500000
31
0.0
0
LINE
5
70a
100
AcDbEntity
8
0-1
6
CENTER
62
4
100
AcDbLine
10
358.694234601564
20
12.000003500000
30
0.0
11
367.879181468611
21
12.000003500000
31
0.0
0
LINE
5
70b
100
AcDbEntity
8
0-0
6
CONTINUOUS
62
7
100
AcDbLine
10
425.000000000000
20
15.000000000000
30
0.0
11
425.000000000000
21
55.000000000000
31
0.0
0
LINE
5
70c
100
AcDbEntity
8
0-0
6
CONTINUOUS
62
7
100
AcDbLine
10
405.000000000000
20
55.000000000000
30
0.0
11
405.000000000000
21
15.000000000000
31
0.0
0
LINE
5
70d
100
AcDbEntity
8
0-0
6
CONTINUOUS
62
7
100
AcDbLine
10
412.000000000000
20
23.000000000000
30
0.0
11
412.000000000000
21
47.000000000000
31
0.0
0
LINE
5
70e
100
AcDbEntity
8
0-0
6
CONTINUOUS
62
7
100
AcDbLine
10
418.000000000000
20
47.000000000000
30
0.0
11
418.000000000000
21
23.000000000000
31
0.0
0
CIRCLE
5
70f
100
AcDbEntity
8
0-0
6
CONTINUOUS
62
7
100
AcDbCircle
10
415.000000000000
20
12.000000000000
30
0.0
40
4.500000000000
0
CIRCLE
5
710
100
AcDbEntity
8
0-0
6
CONTINUOUS
62
7
100
AcDbCircle
10
415.000000000000
20
58.000000000000
30
0.0
40
4.500000000000
0
CIRCLE
5
711
100
AcDbEntity
8
0-0
6
CONTINUOUS
62
7
100
AcDbCircle
10
415.000000000000
20
58.000000000000
30
0.0
40
2.600000000000
0
ARC
5
712
100
AcDbEntity
8
0-0
6
CONTINUOUS
62
7
100
AcDbCircle
10
415.000000000000
20
47.000000000000
30
0.0
40
3.000000000000
100
AcDbArc
50
0.000000000000
51
180.000000000000
0
ARC
5
713
100
AcDbEntity
8
0-0
6
CONTINUOUS
62
7
100
AcDbCircle
10
415.000000000000
20
23.000000000000
30
0.0
40
3.000000000000
100
AcDbArc
50
180.000000000000
51
360.000000000000
0
ARC
5
714
100
AcDbEntity
8
0-0
6
CONTINUOUS
62
7
100
AcDbCircle
10
415.000000000000
20
15.000000000000
30
0.0
40
10.000000000000
100
AcDbArc
50
180.000000000000
51
360.000000000000
0
CIRCLE
5
715
100
AcDbEntity
8
0-0
6
CONTINUOUS
62
7
100
AcDbCircle
10
415.000000000000
20
12.000000000000
30
0.0
40
2.600000000000
0
ARC
5
716
100
AcDbEntity
8
0-0
6
CONTINUOUS
62
7
100
AcDbCircle
10
415.000000000000
20
55.000000000000
30
0.0
40
10.000000000000
100
AcDbArc
50
0.000000000000
51
180.000000000000
0
LINE
5
717
100
AcDbEntity
8
0-1
6
CENTER
62
4
100
AcDbLine
10
415.000000000000
20
65.000000000000
30
0.0
11
415.000000000000
21
5.000000000000
31
0.0
0
LINE
5
718
100
AcDbEntity
8
0-1
6
CENTER
62
4
100
AcDbLine
10
410.500000000000
20
12.000000000000
30
0.0
11
419.500000000000
21
12.000000000000
31
0.0
0
LINE
5
719
100
AcDbEntity
8
0-1
6
CENTER
62
4
100
AcDbLine
10
419.500000000000
20
58.000000000000
30
0.0
11
410.500000000000
21
58.000000000000
31
0.0
0
LINE
5
71a
100
AcDbEntity
8
0-1
6
CENTER
62
4
100
AcDbLine
10
425.000000000000
20
35.000000000000
30
0.0
11
405.000000000000
21
35.000000000000
31
0.0
0
POLYLINE
5
71b
100
AcDbEntity
8
0-0
6
CONTINUOUS
62
  7
100
AcDb2dPolyline
66
1
10
0.0
20
0.0
30
0.0
70
0
0
VERTEX
5
71c
100
AcDbEntity
8
0-0
6
CONTINUOUS
62
  7
100
AcDbVertex
100
AcDb2dVertex
10
470.000000000000
20
5.000000000000
30
0.0
0
VERTEX
5
71d
100
AcDbEntity
8
0-0
6
CONTINUOUS
62
  7
100
AcDbVertex
100
AcDb2dVertex
10
470.000000000000
20
65.000000000000
30
0.0
0
VERTEX
5
71e
100
AcDbEntity
8
0-0
6
CONTINUOUS
62
  7
100
AcDbVertex
100
AcDb2dVertex
10
468.000000000000
20
65.000000000000
30
0.0
0
VERTEX
5
71f
100
AcDbEntity
8
0-0
6
CONTINUOUS
62
  7
100
AcDbVertex
100
AcDb2dVertex
10
468.000000000000
20
5.000000000000
30
0.0
0
VERTEX
5
720
100
AcDbEntity
8
0-0
6
CONTINUOUS
62
  7
100
AcDbVertex
100
AcDb2dVertex
10
470.000000000000
20
5.000000000000
30
0.0
0
SEQEND
5
721
100
AcDbEntity
8
0-0
0
LINE
5
722
100
AcDbEntity
8
0-0
6
CONTINUOUS
62
7
100
AcDbLine
10
468.000000000000
20
20.000000000000
30
0.0
11
460.000000000000
21
20.000000000000
31
0.0
0
LINE
5
723
100
AcDbEntity
8
0-0
6
CONTINUOUS
62
7
100
AcDbLine
10
460.000000000000
20
26.000000000000
30
0.0
11
468.000000000000
21
26.000000000000
31
0.0
0
LINE
5
724
100
AcDbEntity
8
0-0
6
CONTINUOUS
62
7
100
AcDbLine
10
460.000000000000
20
44.000000000000
30
0.0
11
468.000000000000
21
44.000000000000
31
0.0
0
LINE
5
725
100
AcDbEntity
8
0-0
6
CONTINUOUS
62
7
100
AcDbLine
10
468.000000000000
20
50.000000000000
30
0.0
11
460.000000000000
21
50.000000000000
31
0.0
0
ARC
5
726
100
AcDbEntity
8
0-0
6
CONTINUOUS
62
7
100
AcDbCircle
10
460.000000000000
20
35.000000000000
30
0.0
40
9.000000000000
100
AcDbArc
50
90.000000000000
51
270.000000000000
0
ARC
5
727
100
AcDbEntity
8
0-0
6
CONTINUOUS
62
7
100
AcDbCircle
10
460.000000000000
20
35.000000000000
30
0.0
40
15.000000000000
100
AcDbArc
50
90.000000000000
51
270.000000000000
0
LINE
5
728
100
AcDbEntity
8
0-1
6
DASHED
62
4
100
AcDbLine
10
470.000000000000
20
9.400000000000
30
0.0
11
468.000000000000
21
7.500000000000
31
0.0
0
LINE
5
729
100
AcDbEntity
8
0-1
6
CENTER
62
4
100
AcDbLine
10
468.000000000000
20
12.000000000000
30
0.0
11
470.000000000000
21
12.000000000000
31
0.0
0
LINE
5
72a
100
AcDbEntity
8
0-1
6
DASHED
62
4
100
AcDbLine
10
470.000000000000
20
14.600000000000
30
0.0
11
468.000000000000
21
16.500000000000
31
0.0
0
LINE
5
72b
100
AcDbEntity
8
0-1
6
CENTER
62
4
100
AcDbLine
10
470.000000000000
20
35.000000000000
30
0.0
11
445.000000000000
21
35.000000000000
31
0.0
0
LINE
5
72c
100
AcDbEntity
8
0-1
6
DASHED
62
4
100
AcDbLine
10
468.000000000000
20
53.500000000000
30
0.0
11
470.000000000000
21
55.400000000000
31
0.0
0
LINE
5
72d
100
AcDbEntity
8
0-1
6
CENTER
62
4
100
AcDbLine
10
470.000000000000
20
58.000000000000
30
0.0
11
468.000000000000
21
58.000000000000
31
0.0
0
LINE
5
72e
100
AcDbEntity
8
0-1
6
DASHED
62
4
100
AcDbLine
10
468.000000000000
20
62.500000000000
30
0.0
11
470.000000000000
21
60.600000000000
31
0.0
0
LINE
5
72f
100
AcDbEntity
8
0-0
6
CONTINUOUS
62
7
100
AcDbLine
10
422.500000000000
20
90.000000000000
30
0.0
11
422.500000000000
21
120.000000000000
31
0.0
0
LINE
5
730
100
AcDbEntity
8
0-0
6
CONTINUOUS
62
7
100
AcDbLine
10
407.500000000000
20
120.000000000000
30
0.0
11
407.500000000000
21
90.000000000000
31
0.0
0
LINE
5
731
100
AcDbEntity
8
0-0
6
CONTINUOUS
62
7
100
AcDbLine
10
417.500000000000
20
115.000000000000
30
0.0
11
417.500000000000
21
95.000000000000
31
0.0
0
LINE
5
732
100
AcDbEntity
8
0-0
6
CONTINUOUS
62
7
100
AcDbLine
10
412.500000000000
20
95.000000000000
30
0.0
11
412.500000000000
21
115.000000000000
31
0.0
0
ARC
5
733
100
AcDbEntity
8
0-0
6
CONTINUOUS
62
7
100
AcDbCircle
10
415.000000000000
20
120.000000000000
30
0.0
40
7.500000000000
100
AcDbArc
50
0.000000000000
51
180.000000000000
0
ARC
5
734
100
AcDbEntity
8
0-0
6
CONTINUOUS
62
7
100
AcDbCircle
10
415.000000000000
20
90.000000000000
30
0.0
40
7.500000000000
100
AcDbArc
50
180.000000000000
51
360.000000000000
0
CIRCLE
5
735
100
AcDbEntity
8
0-0
6
CONTINUOUS
62
7
100
AcDbCircle
10
415.000000000000
20
122.500000000000
30
0.0
40
2.100000000000
0
CIRCLE
5
736
100
AcDbEntity
8
0-0
6
CONTINUOUS
62
7
100
AcDbCircle
10
415.000000000000
20
87.500000000000
30
0.0
40
2.100000000000
0
CIRCLE
5
737
100
AcDbEntity
8
0-0
6
CONTINUOUS
62
7
100
AcDbCircle
10
415.000000000000
20
122.500000000000
30
0.0
40
4.000000000000
0
CIRCLE
5
738
100
AcDbEntity
8
0-0
6
CONTINUOUS
62
7
100
AcDbCircle
10
415.000000000000
20
87.500000000000
30
0.0
40
4.000000000000
0
ARC
5
739
100
AcDbEntity
8
0-0
6
CONTINUOUS
62
7
100
AcDbCircle
10
415.000000000000
20
95.000000000000
30
0.0
40
2.500000000000
100
AcDbArc
50
180.000000000000
51
360.000000000000
0
ARC
5
73a
100
AcDbEntity
8
0-0
6
CONTINUOUS
62
7
100
AcDbCircle
10
415.000000000000
20
115.000000000000
30
0.0
40
2.500000000000
100
AcDbArc
50
0.000000000000
51
180.000000000000
0
LINE
5
73b
100
AcDbEntity
8
0-1
6
CENTER
62
4
100
AcDbLine
10
419.000000000000
20
122.500000000000
30
0.0
11
411.000000000000
21
122.500000000000
31
0.0
0
LINE
5
73c
100
AcDbEntity
8
0-1
6
CENTER
62
4
100
AcDbLine
10
411.000000000000
20
87.500000000000
30
0.0
11
419.000000000000
21
87.500000000000
31
0.0
0
LINE
5
73d
100
AcDbEntity
8
0-1
6
CENTER
62
4
100
AcDbLine
10
415.000000000000
20
82.500000000000
30
0.0
11
415.000000000000
21
127.500000000000
31
0.0
0
LINE
5
73e
100
AcDbEntity
8
0-1
6
CENTER
62
4
100
AcDbLine
10
407.500000000000
20
105.000000000000
30
0.0
11
422.500000000000
21
105.000000000000
31
0.0
0
POLYLINE
5
73f
100
AcDbEntity
8
0-0
6
CONTINUOUS
62
  7
100
AcDb2dPolyline
66
1
10
0.0
20
0.0
30
0.0
70
0
0
VERTEX
5
740
100
AcDbEntity
8
0-0
6
CONTINUOUS
62
  7
100
AcDbVertex
100
AcDb2dVertex
10
470.000000000000
20
82.500000000000
30
0.0
0
VERTEX
5
741
100
AcDbEntity
8
0-0
6
CONTINUOUS
62
  7
100
AcDbVertex
100
AcDb2dVertex
10
468.000000000000
20
82.500000000000
30
0.0
0
VERTEX
5
742
100
AcDbEntity
8
0-0
6
CONTINUOUS
62
  7
100
AcDbVertex
100
AcDb2dVertex
10
468.000000000000
20
127.500000000000
30
0.0
0
VERTEX
5
743
100
AcDbEntity
8
0-0
6
CONTINUOUS
62
  7
100
AcDbVertex
100
AcDb2dVertex
10
470.000000000000
20
127.500000000000
30
0.0
0
VERTEX
5
744
100
AcDbEntity
8
0-0
6
CONTINUOUS
62
  7
100
AcDbVertex
100
AcDb2dVertex
10
470.000000000000
20
82.500000000000
30
0.0
0
SEQEND
5
745
100
AcDbEntity
8
0-0
0
LINE
5
746
100
AcDbEntity
8
0-0
6
CONTINUOUS
62
7
100
AcDbLine
10
468.000000000000
20
92.500000000000
30
0.0
11
462.500000000000
21
92.500000000000
31
0.0
0
LINE
5
747
100
AcDbEntity
8
0-0
6
CONTINUOUS
62
7
100
AcDbLine
10
462.500000000000
20
117.500000000000
30
0.0
11
468.000000000000
21
117.500000000000
31
0.0
0
LINE
5
748
100
AcDbEntity
8
0-0
6
CONTINUOUS
62
7
100
AcDbLine
10
468.000000000000
20
112.500000000000
30
0.0
11
462.500000000000
21
112.500000000000
31
0.0
0
LINE
5
749
100
AcDbEntity
8
0-0
6
CONTINUOUS
62
7
100
AcDbLine
10
462.500000000000
20
97.500000000000
30
0.0
11
468.000000000000
21
97.500000000000
31
0.0
0
ARC
5
74a
100
AcDbEntity
8
0-0
6
CONTINUOUS
62
7
100
AcDbCircle
10
462.500000000000
20
105.000000000000
30
0.0
40
7.500000000000
100
AcDbArc
50
90.000000000000
51
270.000000000000
0
ARC
5
74b
100
AcDbEntity
8
0-0
6
CONTINUOUS
62
7
100
AcDbCircle
10
462.500000000000
20
105.000000000000
30
0.0
40
12.500000000000
100
AcDbArc
50
90.000000000000
51
270.000000000000
0
POLYLINE
5
74c
100
AcDbEntity
8
0-1
6
DASHED
62
  4
100
AcDb2dPolyline
66
1
10
0.0
20
0.0
30
0.0
70
0
0
VERTEX
5
74d
100
AcDbEntity
8
0-1
6
DASHED
62
  4
100
AcDbVertex
100
AcDb2dVertex
10
470.000000000000
20
85.400000000000
30
0.0
0
VERTEX
5
74e
100
AcDbEntity
8
0-1
6
DASHED
62
  4
100
AcDbVertex
100
AcDb2dVertex
10
469.900000000000
20
85.400000000000
30
0.0
0
VERTEX
5
74f
100
AcDbEntity
8
0-1
6
DASHED
62
  4
100
AcDbVertex
100
AcDb2dVertex
10
469.900000000000
20
89.600000000000
30
0.0
0
VERTEX
5
750
100
AcDbEntity
8
0-1
6
DASHED
62
  4
100
AcDbVertex
100
AcDb2dVertex
10
468.000000000000
20
91.500000000000
30
0.0
0
SEQEND
5
751
100
AcDbEntity
8
0-1
0
LINE
5
752
100
AcDbEntity
8
0-1
6
CENTER
62
4
100
AcDbLine
10
462.500000000000
20
92.500000000000
30
0.0
11
462.500000000000
21
117.500000000000
31
0.0
0
POLYLINE
5
753
100
AcDbEntity
8
0-1
6
DASHED
62
  4
100
AcDb2dPolyline
66
1
10
0.0
20
0.0
30
0.0
70
0
0
VERTEX
5
754
100
AcDbEntity
8
0-1
6
DASHED
62
  4
100
AcDbVertex
100
AcDb2dVertex
10
468.000000000000
20
118.500000000000
30
0.0
0
VERTEX
5
755
100
AcDbEntity
8
0-1
6
DASHED
62
  4
100
AcDbVertex
100
AcDb2dVertex
10
469.900000000000
20
120.400000000000
30
0.0
0
VERTEX
5
756
100
AcDbEntity
8
0-1
6
DASHED
62
  4
100
AcDbVertex
100
AcDb2dVertex
10
469.900000000000
20
124.600000000000
30
0.0
0
VERTEX
5
757
100
AcDbEntity
8
0-1
6
DASHED
62
  4
100
AcDbVertex
100
AcDb2dVertex
10
470.000000000000
20
124.600000000000
30
0.0
0
SEQEND
5
758
100
AcDbEntity
8
0-1
0
LINE
5
759
100
AcDbEntity
8
0-1
6
DASHED
62
4
100
AcDbLine
10
469.900000000000
20
124.600000000000
30
0.0
11
468.000000000000
21
126.500000000000
31
0.0
0
LINE
5
75a
100
AcDbEntity
8
0-1
6
CENTER
62
4
100
AcDbLine
10
468.000000000000
20
122.500000000000
30
0.0
11
470.000000000000
21
122.500000000000
31
0.0
0
LINE
5
75b
100
AcDbEntity
8
0-1
6
DASHED
62
4
100
AcDbLine
10
470.000000000000
20
120.400000000000
30
0.0
11
469.900000000000
21
120.400000000000
31
0.0
0
LINE
5
75c
100
AcDbEntity
8
0-1
6
CENTER
62
4
100
AcDbLine
10
470.000000000000
20
105.000000000000
30
0.0
11
450.000000000000
21
105.000000000000
31
0.0
0
LINE
5
75d
100
AcDbEntity
8
0-1
6
DASHED
62
4
100
AcDbLine
10
469.900000000000
20
89.600000000000
30
0.0
11
470.000000000000
21
89.600000000000
31
0.0
0
LINE
5
75e
100
AcDbEntity
8
0-1
6
CENTER
62
4
100
AcDbLine
10
470.000000000000
20
87.500000000000
30
0.0
11
468.000000000000
21
87.500000000000
31
0.0
0
LINE
5
75f
100
AcDbEntity
8
0-1
6
DASHED
62
4
100
AcDbLine
10
469.900000000000
20
85.400000000000
30
0.0
11
468.000000000000
21
83.500000000000
31
0.0
0
LINE
5
760
100
AcDbEntity
8
F-F_J_ADD
6
HIDDEN
62
253
100
AcDbLine
10
480.000000000000
20
70.000000000000
30
0.0
11
0.000000000000
21
70.000000000000
31
0.0
0
LINE
5
761
100
AcDbEntity
8
F-F_J_ADD
6
HIDDEN
62
253
100
AcDbLine
10
480.000000000000
20
0.000000000000
30
0.0
11
0.000000000000
21
0.000000000000
31
0.0
0
TEXT
5
762
100
AcDbEntity
8
0-0
62
7
370
-3
100
AcDbText
10
280.200
20
0.768
30
0.0
40
4.208
1
OPD-6
41
0.515
50
0.000
100
AcDbText
0
TEXT
5
763
100
AcDbEntity
8
0-0
62
7
370
-3
100
AcDbText
10
280.200
20
70.767
30
0.0
40
4.208
1
OPD-5
41
0.515
50
0.000
100
AcDbText
0
TEXT
5
764
100
AcDbEntity
8
0-0
62
7
370
-3
100
AcDbText
10
380.200
20
0.768
30
0.0
40
4.208
1
PD-6
41
0.513
50
0.000
100
AcDbText
0
TEXT
5
765
100
AcDbEntity
8
0-0
62
7
370
-3
100
AcDbText
10
380.200
20
70.767
30
0.0
40
4.208
1
PD-5
41
0.512
50
0.000
100
AcDbText
0
TEXT
5
766
100
AcDbEntity
8
0-0
62
7
370
-3
100
AcDbText
10
180.200
20
70.767
30
0.0
40
4.208
1
RI-5
41
0.562
50
0.000
100
AcDbText
0
TEXT
5
767
100
AcDbEntity
8
0-0
62
7
370
-3
100
AcDbText
10
180.200
20
0.768
30
0.0
40
4.208
1
RI-6
41
0.563
50
0.000
100
AcDbText
0
TEXT
5
768
100
AcDbEntity
8
0-0
62
7
370
-3
100
AcDbText
10
80.200
20
0.768
30
0.0
40
4.208
1
ORI-6
41
0.555
50
0.000
100
AcDbText
0
TEXT
5
769
100
AcDbEntity
8
0-0
62
7
370
-3
100
AcDbText
10
80.200
20
70.767
30
0.0
40
4.208
1
ORI-5
41
0.554
50
0.000
100
AcDbText
0
TEXT
5
76a
100
AcDbEntity
8
0-0
62
7
370
-3
100
AcDbText
10
0.200
20
0.768
30
0.0
40
4.208
1
SH-6
41
0.512
50
0.000
100
AcDbText
0
TEXT
5
76b
100
AcDbEntity
8
0-0
62
7
370
-3
100
AcDbText
10
0.200
20
70.767
30
0.0
40
4.208
1
SH-5
41
0.511
50
0.000
100
AcDbText
0
LINE
5
76c
100
AcDbEntity
8
0-0
6
CONTINUOUS
62
7
100
AcDbLine
10
54.500010000000
20
93.500012000000
30
0.0
11
25.499990000000
21
93.500012000000
31
0.0
0
LINE
5
76d
100
AcDbEntity
8
0-0
6
CONTINUOUS
62
7
100
AcDbLine
10
54.500010000000
20
98.500010000000
30
0.0
11
25.499990000000
21
98.500010000000
31
0.0
0
LINE
5
76e
100
AcDbEntity
8
0-0
6
CONTINUOUS
62
7
100
AcDbLine
10
25.499990000000
20
111.500000000000
30
0.0
11
26.299970000000
21
111.500000000000
31
0.0
0
POLYLINE
5
76f
100
AcDbEntity
8
0-0
6
CONTINUOUS
62
  7
100
AcDb2dPolyline
66
1
10
0.0
20
0.0
30
0.0
70
0
0
VERTEX
5
770
100
AcDbEntity
8
0-0
6
CONTINUOUS
62
  7
100
AcDbVertex
100
AcDb2dVertex
10
26.299970000000
20
111.300000000000
30
0.0
0
VERTEX
5
771
100
AcDbEntity
8
0-0
6
CONTINUOUS
62
  7
100
AcDbVertex
100
AcDb2dVertex
10
26.299970000000
20
116.700000000000
30
0.0
0
VERTEX
5
772
100
AcDbEntity
8
0-0
6
CONTINUOUS
62
  7
100
AcDbVertex
100
AcDb2dVertex
10
30.699980000000
20
116.700000000000
30
0.0
0
VERTEX
5
773
100
AcDbEntity
8
0-0
6
CONTINUOUS
62
  7
100
AcDbVertex
100
AcDb2dVertex
10
30.699980000000
20
111.300000000000
30
0.0
0
VERTEX
5
774
100
AcDbEntity
8
0-0
6
CONTINUOUS
62
  7
100
AcDbVertex
100
AcDb2dVertex
10
26.299970000000
20
111.300000000000
30
0.0
0
SEQEND
5
775
100
AcDbEntity
8
0-0
0
LINE
5
776
100
AcDbEntity
8
0-0
6
CONTINUOUS
62
7
100
AcDbLine
10
26.299970000000
20
116.500000000000
30
0.0
11
25.499990000000
21
116.500000000000
31
0.0
0
LINE
5
777
100
AcDbEntity
8
0-0
6
CONTINUOUS
62
7
100
AcDbLine
10
38.499980000000
20
114.000000000000
30
0.0
11
39.199990000000
21
114.000000000000
31
0.0
0
LINE
5
778
100
AcDbEntity
8
0-0
6
CONTINUOUS
62
7
100
AcDbLine
10
40.499990000000
20
114.000000000000
30
0.0
11
53.200000000000
21
114.000000000000
31
0.0
0
POLYLINE
5
779
100
AcDbEntity
8
0-0
6
CONTINUOUS
62
  7
100
AcDb2dPolyline
66
1
10
0.0
20
0.0
30
0.0
70
0
0
VERTEX
5
77a
100
AcDbEntity
8
0-0
6
CONTINUOUS
62
  7
100
AcDbVertex
100
AcDb2dVertex
10
54.499980000000
20
117.500000000000
30
0.0
0
VERTEX
5
77b
100
AcDbEntity
8
0-0
6
CONTINUOUS
62
  7
100
AcDbVertex
100
AcDb2dVertex
10
54.499980000000
20
118.000000000000
30
0.0
0
VERTEX
5
77c
100
AcDbEntity
8
0-0
6
CONTINUOUS
62
  7
100
AcDbVertex
100
AcDb2dVertex
10
39.199990000000
20
118.000000000000
30
0.0
0
VERTEX
5
77d
100
AcDbEntity
8
0-0
6
CONTINUOUS
62
  7
100
AcDbVertex
100
AcDb2dVertex
10
39.199990000000
20
110.000000000000
30
0.0
0
VERTEX
5
77e
100
AcDbEntity
8
0-0
6
CONTINUOUS
62
  7
100
AcDbVertex
100
AcDb2dVertex
10
54.499980000000
20
110.000000000000
30
0.0
0
VERTEX
5
77f
100
AcDbEntity
8
0-0
6
CONTINUOUS
62
  7
100
AcDbVertex
100
AcDb2dVertex
10
54.499980000000
20
110.500000000000
30
0.0
0
VERTEX
5
780
100
AcDbEntity
8
0-0
6
CONTINUOUS
62
  7
100
AcDbVertex
100
AcDb2dVertex
10
56.499980000000
20
110.500000000000
30
0.0
0
VERTEX
5
781
100
AcDbEntity
8
0-0
6
CONTINUOUS
62
  7
100
AcDbVertex
100
AcDb2dVertex
10
56.499980000000
20
117.500000000000
30
0.0
0
VERTEX
5
782
100
AcDbEntity
8
0-0
6
CONTINUOUS
62
  7
100
AcDbVertex
100
AcDb2dVertex
10
54.499980000000
20
117.500000000000
30
0.0
0
VERTEX
5
783
100
AcDbEntity
8
0-0
6
CONTINUOUS
62
  7
100
AcDbVertex
100
AcDb2dVertex
10
54.499980000000
20
110.500000000000
30
0.0
0
SEQEND
5
784
100
AcDbEntity
8
0-0
0
ARC
5
785
100
AcDbEntity
8
0-0
6
CONTINUOUS
62
7
100
AcDbCircle
10
40.499990000000
20
116.700010000000
30
0.0
40
1.299999900000
100
AcDbArc
50
90.000000000000
51
180.000000000000
0
ARC
5
786
100
AcDbEntity
8
0-0
6
CONTINUOUS
62
7
100
AcDbCircle
10
40.499990000000
20
115.300010000000
30
0.0
40
1.299999900000
100
AcDbArc
50
180.000000000000
51
270.000000000000
0
ARC
5
787
100
AcDbEntity
8
0-0
6
CONTINUOUS
62
7
100
AcDbCircle
10
40.499990000000
20
112.700000000000
30
0.0
40
1.299999900000
100
AcDbArc
50
90.000000000000
51
180.000000000000
0
ARC
5
788
100
AcDbEntity
8
0-0
6
CONTINUOUS
62
7
100
AcDbCircle
10
40.499990000000
20
111.300000000000
30
0.0
40
1.299999900000
100
AcDbArc
50
180.000000000000
51
270.000000000000
0
ARC
5
789
100
AcDbEntity
8
0-0
6
CONTINUOUS
62
7
100
AcDbCircle
10
53.200000000000
20
111.300000000000
30
0.0
40
1.299999900000
100
AcDbArc
50
270.000000000000
51
360.000000000000
0
ARC
5
78a
100
AcDbEntity
8
0-0
6
CONTINUOUS
62
7
100
AcDbCircle
10
53.200000000000
20
112.700000000000
30
0.0
40
1.299999900000
100
AcDbArc
50
0.000000000000
51
90.000000000000
0
ARC
5
78b
100
AcDbEntity
8
0-0
6
CONTINUOUS
62
7
100
AcDbCircle
10
53.200000000000
20
115.300010000000
30
0.0
40
1.299999900000
100
AcDbArc
50
270.000000000000
51
360.000000000000
0
ARC
5
78c
100
AcDbEntity
8
0-0
6
CONTINUOUS
62
7
100
AcDbCircle
10
53.200000000000
20
116.700010000000
30
0.0
40
1.299999900000
100
AcDbArc
50
0.000000000000
51
90.000000000000
0
ARC
5
78d
100
AcDbEntity
8
0-0
6
CONTINUOUS
62
7
100
AcDbCircle
10
25.499990000000
20
105.000000000000
30
0.0
40
6.500000000000
100
AcDbArc
50
90.000000000000
51
270.000000000000
0
ARC
5
78e
100
AcDbEntity
8
0-0
6
CONTINUOUS
62
7
100
AcDbCircle
10
25.499990000000
20
105.000000000000
30
0.0
40
11.499998000000
100
AcDbArc
50
90.000000000000
51
270.000000000000
0
ARC
5
78f
100
AcDbEntity
8
0-0
6
CONTINUOUS
62
7
100
AcDbCircle
10
54.500010000000
20
105.000000000000
30
0.0
40
6.500000000000
100
AcDbArc
50
270.000000000000
51
432.079895000000
0
ARC
5
790
100
AcDbEntity
8
0-0
6
CONTINUOUS
62
7
100
AcDbCircle
10
54.500010000000
20
105.000000000000
30
0.0
40
11.499998000000
100
AcDbArc
50
270.000000000000
51
439.984649000000
0
LINE
5
791
100
AcDbEntity
8
0-1
6
CENTER
62
4
100
AcDbLine
10
25.499990000000
20
96.000000000000
30
0.0
11
54.500010000000
21
96.000000000000
31
0.0
0
LINE
5
792
100
AcDbEntity
8
0-1
6
CONTINUOUS
62
4
100
AcDbLine
10
26.299970000000
20
111.700000000000
30
0.0
11
30.699980000000
21
111.700000000000
31
0.0
0
LINE
5
793
100
AcDbEntity
8
0-1
6
CONTINUOUS
62
4
100
AcDbLine
10
30.699980000000
20
116.300000000000
30
0.0
11
26.299970000000
21
116.300000000000
31
0.0
0
LINE
5
794
100
AcDbEntity
8
0-1
6
CENTER
62
4
100
AcDbLine
10
25.499990000000
20
114.000000000000
30
0.0
11
38.499980000000
21
114.000000000000
31
0.0
0
ARC
5
795
100
AcDbEntity
8
0-1
6
CENTER
62
4
100
AcDbCircle
10
25.499990000000
20
105.000000000000
30
0.0
40
9.000000000000
100
AcDbArc
50
90.000000000000
51
270.000000000000
0
ARC
5
796
100
AcDbEntity
8
0-1
6
CENTER
62
4
100
AcDbCircle
10
54.500010000000
20
105.000000000000
30
0.0
40
9.000000000000
100
AcDbArc
50
270.000000000000
51
450.000000000000
0
LINE
5
797
100
AcDbEntity
8
0-0
6
CONTINUOUS
62
7
100
AcDbLine
10
57.000005000000
20
21.499999000000
30
0.0
11
22.999995000000
21
21.499999000000
31
0.0
0
LINE
5
798
100
AcDbEntity
8
0-0
6
CONTINUOUS
62
7
100
AcDbLine
10
57.000005000000
20
27.499998000000
30
0.0
11
22.999995000000
21
27.499998000000
31
0.0
0
LINE
5
799
100
AcDbEntity
8
0-0
6
CONTINUOUS
62
7
100
AcDbLine
10
22.999995000000
20
42.500000000000
30
0.0
11
25.199995000000
21
42.500000000000
31
0.0
0
LINE
5
79a
100
AcDbEntity
8
0-0
6
CONTINUOUS
62
7
100
AcDbLine
10
30.199995000000
20
42.250000000000
30
0.0
11
30.199995000000
21
48.750000000000
31
0.0
0
LINE
5
79b
100
AcDbEntity
8
0-0
6
CONTINUOUS
62
7
100
AcDbLine
10
25.199995000000
20
48.500000000000
30
0.0
11
22.999995000000
21
48.500000000000
31
0.0
0
LINE
5
79c
100
AcDbEntity
8
0-0
6
CONTINUOUS
62
7
100
AcDbLine
10
25.199995000000
20
48.750000000000
30
0.0
11
25.199995000000
21
42.250000000000
31
0.0
0
LINE
5
79d
100
AcDbEntity
8
0-0
6
CONTINUOUS
62
7
100
AcDbLine
10
56.200015000000
20
45.486250000000
30
0.0
11
41.199975000000
21
45.486250000000
31
0.0
0
POLYLINE
5
79e
100
AcDbEntity
8
0-0
6
CONTINUOUS
62
  7
100
AcDb2dPolyline
66
1
10
0.0
20
0.0
30
0.0
70
0
0
VERTEX
5
79f
100
AcDbEntity
8
0-0
6
CONTINUOUS
62
  7
100
AcDbVertex
100
AcDb2dVertex
10
39.699985000000
20
40.999990000000
30
0.0
0
VERTEX
5
7a0
100
AcDbEntity
8
0-0
6
CONTINUOUS
62
  7
100
AcDbVertex
100
AcDb2dVertex
10
57.700015000000
20
40.999990000000
30
0.0
0
VERTEX
5
7a1
100
AcDbEntity
8
0-0
6
CONTINUOUS
62
  7
100
AcDbVertex
100
AcDb2dVertex
10
57.700015000000
20
50.000000000000
30
0.0
0
VERTEX
5
7a2
100
AcDbEntity
8
0-0
6
CONTINUOUS
62
  7
100
AcDbVertex
100
AcDb2dVertex
10
39.699985000000
20
50.000000000000
30
0.0
0
VERTEX
5
7a3
100
AcDbEntity
8
0-0
6
CONTINUOUS
62
  7
100
AcDbVertex
100
AcDb2dVertex
10
39.699985000000
20
40.999990000000
30
0.0
0
SEQEND
5
7a4
100
AcDbEntity
8
0-0
0
POLYLINE
5
7a5
100
AcDbEntity
8
0-0
6
CONTINUOUS
62
  7
100
AcDb2dPolyline
66
1
10
0.0
20
0.0
30
0.0
70
0
0
VERTEX
5
7a6
100
AcDbEntity
8
0-0
6
CONTINUOUS
62
  7
100
AcDbVertex
100
AcDb2dVertex
10
57.700015000000
20
41.500000000000
30
0.0
0
VERTEX
5
7a7
100
AcDbEntity
8
0-0
6
CONTINUOUS
62
  7
100
AcDbVertex
100
AcDb2dVertex
10
59.700015000000
20
41.500000000000
30
0.0
0
VERTEX
5
7a8
100
AcDbEntity
8
0-0
6
CONTINUOUS
62
  7
100
AcDbVertex
100
AcDb2dVertex
10
59.700015000000
20
49.500000000000
30
0.0
0
VERTEX
5
7a9
100
AcDbEntity
8
0-0
6
CONTINUOUS
62
  7
100
AcDbVertex
100
AcDb2dVertex
10
57.700015000000
20
49.500000000000
30
0.0
0
SEQEND
5
7aa
100
AcDbEntity
8
0-0
0
ARC
5
7ab
100
AcDbEntity
8
0-0
6
CONTINUOUS
62
7
100
AcDbCircle
10
22.999995000000
20
35.000000000000
30
0.0
40
13.499999000000
100
AcDbArc
50
90.000152000000
51
270.000000000000
0
ARC
5
7ac
100
AcDbEntity
8
0-0
6
CONTINUOUS
62
7
100
AcDbCircle
10
22.999995000000
20
35.000000000000
30
0.0
40
7.499999200000
100
AcDbArc
50
90.000152000000
51
270.000000000000
0
ARC
5
7ad
100
AcDbEntity
8
0-0
6
CONTINUOUS
62
7
100
AcDbCircle
10
57.000005000000
20
35.000000000000
30
0.0
40
7.499999200000
100
AcDbArc
50
270.000000000000
51
428.899734000000
0
ARC
5
7ae
100
AcDbEntity
8
0-0
6
CONTINUOUS
62
7
100
AcDbCircle
10
57.000005000000
20
35.000000000000
30
0.0
40
13.499999000000
100
AcDbArc
50
270.000150000000
51
438.462997000000
0
ARC
5
7af
100
AcDbEntity
8
0-0
6
CONTINUOUS
62
7
100
AcDbCircle
10
55.252175000000
20
47.743120000000
30
0.0
40
2.447832800000
100
AcDbArc
50
292.781400000000
51
427.218597000000
0
ARC
5
7b0
100
AcDbEntity
8
0-0
6
CONTINUOUS
62
7
100
AcDbCircle
10
55.272785000000
20
43.243120000000
30
0.0
40
2.427209500000
100
AcDbArc
50
292.458120000000
51
427.541946000000
0
ARC
5
7b1
100
AcDbEntity
8
0-0
6
CONTINUOUS
62
7
100
AcDbCircle
10
42.147825000000
20
47.743120000000
30
0.0
40
2.447832800000
100
AcDbArc
50
112.781400000000
51
247.218590000000
0
ARC
5
7b2
100
AcDbEntity
8
0-0
6
CONTINUOUS
62
7
100
AcDbCircle
10
42.127205000000
20
43.243120000000
30
0.0
40
2.427209500000
100
AcDbArc
50
112.458050000000
51
247.541870000000
0
LINE
5
7b3
100
AcDbEntity
8
0-0
6
CONTINUOUS
62
7
100
AcDbLine
10
25.199995000000
20
42.250000000000
30
0.0
11
30.199995000000
21
42.250000000000
31
0.0
0
LINE
5
7b4
100
AcDbEntity
8
0-0
6
CONTINUOUS
62
7
100
AcDbLine
10
25.199995000000
20
48.750000000000
30
0.0
11
30.199995000000
21
48.750000000000
31
0.0
0
LINE
5
7b5
100
AcDbEntity
8
0-1
6
CENTER
62
4
100
AcDbLine
10
22.999995000000
20
24.500000000000
30
0.0
11
57.000005000000
21
24.500000000000
31
0.0
0
LINE
5
7b6
100
AcDbEntity
8
0-1
6
CONTINUOUS
62
4
100
AcDbLine
10
25.199995000000
20
42.750000000000
30
0.0
11
30.199995000000
21
42.750000000000
31
0.0
0
LINE
5
7b7
100
AcDbEntity
8
0-1
6
CONTINUOUS
62
4
100
AcDbLine
10
30.199995000000
20
48.250000000000
30
0.0
11
25.199995000000
21
48.250000000000
31
0.0
0
LINE
5
7b8
100
AcDbEntity
8
0-1
6
CENTER
62
4
100
AcDbLine
10
22.999995000000
20
45.500000000000
30
0.0
11
57.000005000000
21
45.500000000000
31
0.0
0
ARC
5
7b9
100
AcDbEntity
8
0-1
6
CENTER
62
4
100
AcDbCircle
10
22.999995000000
20
35.000000000000
30
0.0
40
10.500000000000
100
AcDbArc
50
90.000000000000
51
270.000000000000
0
ARC
5
7ba
100
AcDbEntity
8
0-1
6
CENTER
62
4
100
AcDbCircle
10
57.000005000000
20
35.000000000000
30
0.0
40
10.500000000000
100
AcDbArc
50
270.000000000000
51
450.000000000000
0
TEXT
5
7bb
100
AcDbEntity
8
0-0
62
7
370
-3
100
AcDbText
10
0.172
20
190.660
30
0.0
40
3.618
1
SC2S,G,B
41
0.430
50
0.000
100
AcDbText
0
TEXT
5
7bc
100
AcDbEntity
8
0-0
62
7
370
-3
100
AcDbText
10
40.172
20
190.660
30
0.0
40
3.618
1
KP2S,Y,B
41
0.429
50
0.000
100
AcDbText
0
LINE
5
7bd
100
AcDbEntity
8
F-F_J_ADD
6
HIDDEN
62
253
100
AcDbLine
10
480.000000000000
20
0.000000000000
30
0.0
11
480.000000000000
21
140.000000000000
31
0.0
0
LINE
5
7be
100
AcDbEntity
8
F-F_J_ADD
6
HIDDEN
62
253
100
AcDbLine
10
180.000000000000
20
0.000000000000
30
0.0
11
180.000000000000
21
140.000000000000
31
0.0
0
LINE
5
7bf
100
AcDbEntity
8
F-F_J_ADD
6
HIDDEN
62
253
100
AcDbLine
10
280.000000000000
20
0.000000000000
30
0.0
11
280.000000000000
21
140.000000000000
31
0.0
0
LINE
5
7c0
100
AcDbEntity
8
F-F_J_ADD
6
HIDDEN
62
253
100
AcDbLine
10
380.000000000000
20
0.000000000000
30
0.0
11
380.000000000000
21
140.000000000000
31
0.0
0
LINE
5
7c1
100
AcDbEntity
8
F-F_J_ADD
6
HIDDEN
62
253
100
AcDbLine
10
365.000000000000
20
0.000000000000
30
0.0
11
365.000000000000
21
140.000000000000
31
0.0
0
LINE
5
7c2
100
AcDbEntity
8
F-F_J_ADD
6
HIDDEN
62
253
100
AcDbLine
10
80.000000000000
20
0.000000000000
30
0.0
11
80.000000000000
21
140.000000000000
31
0.0
0
LINE
5
7c3
100
AcDbEntity
8
F-F_J_ADD
6
HIDDEN
62
253
100
AcDbLine
10
0.000000000000
20
0.000000000000
30
0.0
11
0.000000000000
21
140.000000000000
31
0.0
0
LINE
5
7c4
100
AcDbEntity
8
F-F_J_ADD
6
HIDDEN
62
253
100
AcDbLine
10
480.000000000000
20
140.000000000000
30
0.0
11
0.000000000000
21
140.000000000000
31
0.0
0
LINE
5
7c5
100
AcDbEntity
8
F-F_J_ADD
6
HIDDEN
62
253
100
AcDbLine
10
415.000000000000
20
190.000000000000
30
0.0
11
0.000000000000
21
190.000000000000
31
0.0
0
LINE
5
7c6
100
AcDbEntity
8
F-F_J_ADD
6
HIDDEN
62
253
100
AcDbLine
10
80.000000000000
20
190.000000000000
30
0.0
11
80.000000000000
21
250.000000000000
31
0.0
0
LINE
5
7c7
100
AcDbEntity
8
F-F_J_ADD
6
HIDDEN
62
253
100
AcDbLine
10
110.000000000000
20
190.000000000000
30
0.0
11
110.000000000000
21
250.000000000000
31
0.0
0
LINE
5
7c8
100
AcDbEntity
8
F-F_J_ADD
6
HIDDEN
62
253
100
AcDbLine
10
40.000000000000
20
190.000000000000
30
0.0
11
40.000000000000
21
250.000000000000
31
0.0
0
LINE
5
7c9
100
AcDbEntity
8
F-F_J_ADD
6
HIDDEN
62
253
100
AcDbLine
10
0.000000000000
20
190.000000000000
30
0.0
11
0.000000000000
21
250.000000000000
31
0.0
0
LINE
5
7ca
100
AcDbEntity
8
0-0
6
CONTINUOUS
62
7
100
AcDbLine
10
179.500000000000
20
202.000000000000
30
0.0
11
179.500000000000
21
227.000000000000
31
0.0
0
LINE
5
7cb
100
AcDbEntity
8
0-0
6
CONTINUOUS
62
7
100
AcDbLine
10
177.500000000000
20
229.000000000000
30
0.0
11
152.500000000000
21
229.000000000000
31
0.0
0
LINE
5
7cc
100
AcDbEntity
8
0-0
6
CONTINUOUS
62
7
100
AcDbLine
10
150.500000000000
20
227.000000000000
30
0.0
11
150.500000000000
21
202.000000000000
31
0.0
0
LINE
5
7cd
100
AcDbEntity
8
0-0
6
CONTINUOUS
62
7
100
AcDbLine
10
152.500000000000
20
200.000000000000
30
0.0
11
177.500000000000
21
200.000000000000
31
0.0
0
ARC
5
7ce
100
AcDbEntity
8
0-0
6
CONTINUOUS
62
7
100
AcDbCircle
10
177.500000000000
20
227.000000000000
30
0.0
40
2.000000000000
100
AcDbArc
50
0.000000000000
51
90.000000000000
0
ARC
5
7cf
100
AcDbEntity
8
0-0
6
CONTINUOUS
62
7
100
AcDbCircle
10
177.500000000000
20
202.000000000000
30
0.0
40
2.000000000000
100
AcDbArc
50
270.000000000000
51
360.000000000000
0
ARC
5
7d0
100
AcDbEntity
8
0-0
6
CONTINUOUS
62
7
100
AcDbCircle
10
152.500000000000
20
202.000000000000
30
0.0
40
2.000000000000
100
AcDbArc
50
180.000000000000
51
270.000000000000
0
ARC
5
7d1
100
AcDbEntity
8
0-0
6
CONTINUOUS
62
7
100
AcDbCircle
10
152.500000000000
20
227.000000000000
30
0.0
40
2.000000000000
100
AcDbArc
50
90.000000000000
51
180.000000000000
0
CIRCLE
5
7d2
100
AcDbEntity
8
0-0
6
CONTINUOUS
62
7
100
AcDbCircle
10
165.000000000000
20
214.500000000000
30
0.0
40
5.250000000000
0
LINE
5
7d3
100
AcDbEntity
8
0-1
6
CENTER
62
4
100
AcDbLine
10
165.000000000000
20
200.000000000000
30
0.0
11
165.000000000000
21
229.000000000000
31
0.0
0
LINE
5
7d4
100
AcDbEntity
8
0-1
6
CENTER
62
4
100
AcDbLine
10
179.500000000000
20
214.500000000000
30
0.0
11
150.500000000000
21
214.500000000000
31
0.0
0
LINE
5
7d5
100
AcDbEntity
8
0-1
6
DASHED
62
4
100
AcDbLine
10
153.000000000000
20
227.000000000000
30
0.0
11
177.000000000000
21
227.000000000000
31
0.0
0
LINE
5
7d6
100
AcDbEntity
8
0-1
6
DASHED
62
4
100
AcDbLine
10
152.500000000000
20
202.500000000000
30
0.0
11
152.500000000000
21
226.500000000000
31
0.0
0
ARC
5
7d7
100
AcDbEntity
8
0-1
6
DASHED
62
4
100
AcDbCircle
10
153.000000000000
20
226.500000000000
30
0.0
40
0.500000000000
100
AcDbArc
50
90.000000000000
51
180.000000000000
0
ARC
5
7d8
100
AcDbEntity
8
0-1
6
DASHED
62
4
100
AcDbCircle
10
177.000000000000
20
226.500000000000
30
0.0
40
0.500000000000
100
AcDbArc
50
0.000000000000
51
90.000000000000
0
LINE
5
7d9
100
AcDbEntity
8
0-1
6
DASHED
62
4
100
AcDbLine
10
177.500000000000
20
226.500000000000
30
0.0
11
177.500000000000
21
202.500000000000
31
0.0
0
LINE
5
7da
100
AcDbEntity
8
0-1
6
DASHED
62
4
100
AcDbLine
10
177.000000000000
20
202.000000000000
30
0.0
11
153.000000000000
21
202.000000000000
31
0.0
0
ARC
5
7db
100
AcDbEntity
8
0-1
6
DASHED
62
4
100
AcDbCircle
10
153.000000000000
20
202.500000000000
30
0.0
40
0.500000000000
100
AcDbArc
50
180.000000000000
51
270.000000000000
0
ARC
5
7dc
100
AcDbEntity
8
0-1
6
DASHED
62
4
100
AcDbCircle
10
177.000000000000
20
202.500000000000
30
0.0
40
0.500000000000
100
AcDbArc
50
270.000000000000
51
360.000000000000
0
LINE
5
7dd
100
AcDbEntity
8
0-0
6
CONTINUOUS
62
7
100
AcDbLine
10
231.908670135101
20
200.000000000000
30
0.0
11
206.908670135101
21
200.000000000000
31
0.0
0
LINE
5
7de
100
AcDbEntity
8
0-0
6
CONTINUOUS
62
7
100
AcDbLine
10
204.908670135101
20
202.000000000000
30
0.0
11
204.908670135101
21
227.000000000000
31
0.0
0
LINE
5
7df
100
AcDbEntity
8
0-0
6
CONTINUOUS
62
7
100
AcDbLine
10
206.908670135101
20
229.000000000000
30
0.0
11
231.908670135101
21
229.000000000000
31
0.0
0
LINE
5
7e0
100
AcDbEntity
8
0-0
6
CONTINUOUS
62
7
100
AcDbLine
10
233.908670135101
20
227.000000000000
30
0.0
11
233.908670135101
21
202.000000000000
31
0.0
0
ARC
5
7e1
100
AcDbEntity
8
0-0
6
CONTINUOUS
62
7
100
AcDbCircle
10
231.908670135101
20
227.000000000000
30
0.0
40
2.000000000000
100
AcDbArc
50
0.000000000000
51
90.000000000000
0
ARC
5
7e2
100
AcDbEntity
8
0-0
6
CONTINUOUS
62
7
100
AcDbCircle
10
231.908670135101
20
202.000000000000
30
0.0
40
2.000000000000
100
AcDbArc
50
270.000000000000
51
360.000000000000
0
ARC
5
7e3
100
AcDbEntity
8
0-0
6
CONTINUOUS
62
7
100
AcDbCircle
10
206.908670135101
20
202.000000000000
30
0.0
40
2.000000000000
100
AcDbArc
50
180.000000000000
51
270.000000000000
0
ARC
5
7e4
100
AcDbEntity
8
0-0
6
CONTINUOUS
62
7
100
AcDbCircle
10
206.908670135101
20
227.000000000000
30
0.0
40
2.000000000000
100
AcDbArc
50
90.000000000000
51
180.000000000000
0
LINE
5
7e5
100
AcDbEntity
8
0-1
6
CENTER
62
4
100
AcDbLine
10
204.908670135101
20
214.500000000000
30
0.0
11
233.908670135101
21
214.500000000000
31
0.0
0
LINE
5
7e6
100
AcDbEntity
8
0-1
6
CENTER
62
4
100
AcDbLine
10
219.408670135101
20
229.000000000000
30
0.0
11
219.408670135101
21
200.000000000000
31
0.0
0
LINE
5
7e7
100
AcDbEntity
8
0-1
6
DASHED
62
4
100
AcDbLine
10
206.908670135101
20
226.500000000000
30
0.0
11
206.908670135101
21
202.500000000000
31
0.0
0
ARC
5
7e8
100
AcDbEntity
8
0-1
6
DASHED
62
4
100
AcDbCircle
10
207.408670135101
20
226.500000000000
30
0.0
40
0.500000000000
100
AcDbArc
50
90.000000000000
51
180.000000000000
0
LINE
5
7e9
100
AcDbEntity
8
0-1
6
DASHED
62
4
100
AcDbLine
10
231.408670135101
20
227.000000000000
30
0.0
11
207.408670135101
21
227.000000000000
31
0.0
0
ARC
5
7ea
100
AcDbEntity
8
0-1
6
DASHED
62
4
100
AcDbCircle
10
231.408670135101
20
226.500000000000
30
0.0
40
0.500000000000
100
AcDbArc
50
0.000000000000
51
90.000000000000
0
LINE
5
7eb
100
AcDbEntity
8
0-1
6
DASHED
62
4
100
AcDbLine
10
231.908670135101
20
202.500000000000
30
0.0
11
231.908670135101
21
226.500000000000
31
0.0
0
LINE
5
7ec
100
AcDbEntity
8
0-1
6
DASHED
62
4
100
AcDbLine
10
207.408670135101
20
202.000000000000
30
0.0
11
231.408670135101
21
202.000000000000
31
0.0
0
ARC
5
7ed
100
AcDbEntity
8
0-1
6
DASHED
62
4
100
AcDbCircle
10
207.408670135101
20
202.500000000000
30
0.0
40
0.500000000000
100
AcDbArc
50
180.000000000000
51
270.000000000000
0
ARC
5
7ee
100
AcDbEntity
8
0-1
6
DASHED
62
4
100
AcDbCircle
10
231.408670135101
20
202.500000000000
30
0.0
40
0.500000000000
100
AcDbArc
50
270.000000000000
51
360.000000000000
0
TEXT
5
7ef
100
AcDbEntity
8
0-0
62
7
370
-3
100
AcDbText
10
145.172
20
190.660
30
0.0
40
3.618
1
EC25-H10
41
0.403
50
0.000
100
AcDbText
0
TEXT
5
7f0
100
AcDbEntity
8
0-0
62
7
370
-3
100
AcDbText
10
199.581
20
190.660
30
0.0
40
3.618
1
EC25
41
0.368
50
0.000
100
AcDbText
0
LINE
5
7f1
100
AcDbEntity
8
F-F_J_ADD
6
HIDDEN
62
253
100
AcDbLine
10
145.000000000000
20
320.000000000000
30
0.0
11
145.000000000000
21
190.000000000000
31
0.0
0
LINE
5
7f2
100
AcDbEntity
8
F-F_J_ADD
6
HIDDEN
62
253
100
AcDbLine
10
265.000000000000
20
320.000000000000
30
0.0
11
265.000000000000
21
190.000000000000
31
0.0
0
TEXT
5
7f3
100
AcDbEntity
8
0-0
62
7
370
-3
100
AcDbText
10
265.172
20
190.660
30
0.0
40
3.618
1
T25K
41
0.368
50
0.000
100
AcDbText
0
LINE
5
7f4
100
AcDbEntity
8
0-0
6
CONTINUOUS
62
7
100
AcDbLine
10
152.500000000000
20
241.719364436865
30
0.0
11
177.500000000000
21
241.719364436865
31
0.0
0
ARC
5
7f5
100
AcDbEntity
8
0-0
6
CONTINUOUS
62
7
100
AcDbCircle
10
177.500000000000
20
243.719364436865
30
0.0
40
2.000000000000
100
AcDbArc
50
270.000000000000
51
360.000000000000
0
ARC
5
7f6
100
AcDbEntity
8
0-0
6
CONTINUOUS
62
7
100
AcDbCircle
10
152.500000000000
20
243.719364436865
30
0.0
40
2.000000000000
100
AcDbArc
50
180.000000000000
51
270.000000000000
0
LINE
5
7f7
100
AcDbEntity
8
0-1
6
DASHED
62
4
100
AcDbLine
10
153.000000000000
20
243.719364436865
30
0.0
11
177.000000000000
21
243.719364436865
31
0.0
0
LINE
5
7f8
100
AcDbEntity
8
0-1
6
DASHED
62
4
100
AcDbLine
10
170.250000000000
20
241.719364436865
30
0.0
11
170.250000000000
21
243.719364436865
31
0.0
0
LINE
5
7f9
100
AcDbEntity
8
0-1
6
DASHED
62
4
100
AcDbLine
10
159.750000000000
20
243.719364436865
30
0.0
11
159.750000000000
21
241.719364436865
31
0.0
0
ARC
5
7fa
100
AcDbEntity
8
0-1
6
DASHED
62
4
100
AcDbCircle
10
177.000000000000
20
244.219364436865
30
0.0
40
0.500000000000
100
AcDbArc
50
270.000000000000
51
360.000000000000
0
ARC
5
7fb
100
AcDbEntity
8
0-1
6
DASHED
62
4
100
AcDbCircle
10
153.000000000000
20
244.219364436865
30
0.0
40
0.500000000000
100
AcDbArc
50
180.000000000000
51
270.000000000000
0
LINE
5
7fc
100
AcDbEntity
8
0-0
6
CONTINUOUS
62
7
100
AcDbLine
10
206.908670135101
20
241.719364436865
30
0.0
11
231.908670135101
21
241.719364436865
31
0.0
0
ARC
5
7fd
100
AcDbEntity
8
0-0
6
CONTINUOUS
62
7
100
AcDbCircle
10
231.908670135101
20
243.719364436865
30
0.0
40
2.000000000000
100
AcDbArc
50
270.000000000000
51
360.000000000000
0
ARC
5
7fe
100
AcDbEntity
8
0-0
6
CONTINUOUS
62
7
100
AcDbCircle
10
206.908670135101
20
243.719364436865
30
0.0
40
2.000000000000
100
AcDbArc
50
180.000000000000
51
270.000000000000
0
LINE
5
7ff
100
AcDbEntity
8
0-1
6
DASHED
62
4
100
AcDbLine
10
207.408670135101
20
243.719364436865
30
0.0
11
231.408670135101
21
243.719364436865
31
0.0
0
ARC
5
800
100
AcDbEntity
8
0-1
6
DASHED
62
4
100
AcDbCircle
10
231.408670135101
20
244.219364436865
30
0.0
40
0.500000000000
100
AcDbArc
50
270.000000000000
51
360.000000000000
0
ARC
5
801
100
AcDbEntity
8
0-1
6
DASHED
62
4
100
AcDbCircle
10
207.408670135101
20
244.219364436865
30
0.0
40
0.500000000000
100
AcDbArc
50
180.000000000000
51
270.000000000000
0
POLYLINE
5
802
100
AcDbEntity
8
0-0
6
CONTINUOUS
62
  7
100
AcDb2dPolyline
66
1
10
0.0
20
0.0
30
0.0
70
0
0
VERTEX
5
803
100
AcDbEntity
8
0-0
6
CONTINUOUS
62
  7
100
AcDbVertex
100
AcDb2dVertex
10
179.500000000000
20
263.719364436865
30
0.0
0
VERTEX
5
804
100
AcDbEntity
8
0-0
6
CONTINUOUS
62
  7
100
AcDbVertex
100
AcDb2dVertex
10
150.500000000000
20
263.719364436865
30
0.0
0
VERTEX
5
805
100
AcDbEntity
8
0-0
6
CONTINUOUS
62
  7
100
AcDbVertex
100
AcDb2dVertex
10
150.500000000000
20
243.719364436865
30
0.0
0
SEQEND
5
806
100
AcDbEntity
8
0-0
0
LINE
5
807
100
AcDbEntity
8
0-0
6
CONTINUOUS
62
7
100
AcDbLine
10
179.500000000000
20
243.719364436865
30
0.0
11
179.500000000000
21
263.719364436865
31
0.0
0
LINE
5
808
100
AcDbEntity
8
0-1
6
DASHED
62
4
100
AcDbLine
10
177.500000000000
20
244.219364436865
30
0.0
11
177.500000000000
21
263.719364436865
31
0.0
0
LINE
5
809
100
AcDbEntity
8
0-1
6
CENTER
62
4
100
AcDbLine
10
165.000000000000
20
263.719364436865
30
0.0
11
165.000000000000
21
241.719364436865
31
0.0
0
LINE
5
80a
100
AcDbEntity
8
0-1
6
DASHED
62
4
100
AcDbLine
10
152.500000000000
20
244.219364436865
30
0.0
11
152.500000000000
21
263.719364436865
31
0.0
0
POLYLINE
5
80b
100
AcDbEntity
8
0-0
6
CONTINUOUS
62
  7
100
AcDb2dPolyline
66
1
10
0.0
20
0.0
30
0.0
70
0
0
VERTEX
5
80c
100
AcDbEntity
8
0-0
6
CONTINUOUS
62
  7
100
AcDbVertex
100
AcDb2dVertex
10
233.908670135101
20
243.719364436865
30
0.0
0
VERTEX
5
80d
100
AcDbEntity
8
0-0
6
CONTINUOUS
62
  7
100
AcDbVertex
100
AcDb2dVertex
10
233.908670135101
20
263.719364436865
30
0.0
0
VERTEX
5
80e
100
AcDbEntity
8
0-0
6
CONTINUOUS
62
  7
100
AcDbVertex
100
AcDb2dVertex
10
204.908670135101
20
263.719364436865
30
0.0
0
VERTEX
5
80f
100
AcDbEntity
8
0-0
6
CONTINUOUS
62
  7
100
AcDbVertex
100
AcDb2dVertex
10
204.908670135101
20
243.719364436865
30
0.0
0
SEQEND
5
810
100
AcDbEntity
8
0-0
0
LINE
5
811
100
AcDbEntity
8
0-1
6
CENTER
62
4
100
AcDbLine
10
219.408670135101
20
263.719364436865
30
0.0
11
219.408670135101
21
241.719364436865
31
0.0
0
LINE
5
812
100
AcDbEntity
8
0-1
6
DASHED
62
4
100
AcDbLine
10
231.908670135101
20
244.219364436865
30
0.0
11
231.908670135101
21
263.719364436865
31
0.0
0
LINE
5
813
100
AcDbEntity
8
0-1
6
DASHED
62
4
100
AcDbLine
10
206.908670135101
20
263.719364436865
30
0.0
11
206.908670135101
21
244.219364436865
31
0.0
0
LINE
5
814
100
AcDbEntity
8
0-0
6
CONTINUOUS
62
7
100
AcDbLine
10
153.806402658636
20
281.230580653000
30
0.0
11
160.414762149581
21
278.851571236260
31
0.0
0
LINE
5
815
100
AcDbEntity
8
0-0
6
CONTINUOUS
62
7
100
AcDbLine
10
163.983841595182
20
279.692355476738
30
0.0
11
154.483841595182
21
283.112355476737
31
0.0
0
LINE
5
816
100
AcDbEntity
8
0-0
6
CONTINUOUS
62
7
100
AcDbLine
10
152.500000000000
20
285.935017712344
30
0.0
11
152.500000000000
21
303.826538451003
31
0.0
0
LINE
5
817
100
AcDbEntity
8
0-0
6
CONTINUOUS
62
7
100
AcDbLine
10
177.500000000000
20
303.826538451003
30
0.0
11
177.500000000000
21
285.935017712344
31
0.0
0
POLYLINE
5
818
100
AcDbEntity
8
0-0
6
CONTINUOUS
62
  7
100
AcDb2dPolyline
66
1
10
0.0
20
0.0
30
0.0
70
0
0
VERTEX
5
819
100
AcDbEntity
8
0-0
6
CONTINUOUS
62
  7
100
AcDbVertex
100
AcDb2dVertex
10
179.500000000000
20
285.935017712344
30
0.0
0
VERTEX
5
81a
100
AcDbEntity
8
0-0
6
CONTINUOUS
62
  7
100
AcDbVertex
100
AcDb2dVertex
10
179.500000000000
20
303.826538451003
30
0.0
0
VERTEX
5
81b
100
AcDbEntity
8
0-0
6
CONTINUOUS
62
  7
100
AcDbVertex
100
AcDb2dVertex
10
150.500000000000
20
303.826538451003
30
0.0
0
VERTEX
5
81c
100
AcDbEntity
8
0-0
6
CONTINUOUS
62
  7
100
AcDbVertex
100
AcDb2dVertex
10
150.500000000000
20
285.935017712344
30
0.0
0
SEQEND
5
81d
100
AcDbEntity
8
0-0
0
LINE
5
81e
100
AcDbEntity
8
0-0
6
CONTINUOUS
62
7
100
AcDbLine
10
175.516158404818
20
283.112355476737
30
0.0
11
166.016158404818
21
279.692355476738
31
0.0
0
LINE
5
81f
100
AcDbEntity
8
0-0
6
CONTINUOUS
62
7
100
AcDbLine
10
169.585237850419
20
278.851571236260
30
0.0
11
176.193597341364
21
281.230580653000
31
0.0
0
LINE
5
820
100
AcDbEntity
8
0-0
6
CENTER
62
4
100
AcDbLine
10
165.000000000000
20
273.719364436865
30
0.0
11
165.000000000000
21
307.467812192764
31
0.0
0
ARC
5
821
100
AcDbEntity
8
0-0
6
CONTINUOUS
62
7
100
AcDbCircle
10
174.500000000000
20
285.935017712344
30
0.0
40
3.000000000000
100
AcDbArc
50
289.798876354525
51
360.000000000000
0
ARC
5
822
100
AcDbEntity
8
0-0
6
CONTINUOUS
62
7
100
AcDbCircle
10
174.500000000000
20
285.935017712344
30
0.0
40
5.000000000000
100
AcDbArc
50
289.798876354525
51
360.000000000000
0
ARC
5
823
100
AcDbEntity
8
0-0
6
CONTINUOUS
62
7
100
AcDbCircle
10
170.601396255238
20
276.028909000654
30
0.0
40
3.000000000000
100
AcDbArc
50
109.798876354524
51
149.514013586351
0
ARC
5
824
100
AcDbEntity
8
0-0
6
CONTINUOUS
62
7
100
AcDbCircle
10
155.500000000000
20
285.935017712344
30
0.0
40
3.000000000000
100
AcDbArc
50
180.000000000000
51
250.201123645475
0
ARC
5
825
100
AcDbEntity
8
0-0
6
CONTINUOUS
62
7
100
AcDbCircle
10
155.500000000000
20
285.935017712344
30
0.0
40
5.000000000000
100
AcDbArc
50
180.000000000000
51
250.201123645475
0
ARC
5
826
100
AcDbEntity
8
0-0
6
CONTINUOUS
62
7
100
AcDbCircle
10
165.000000000000
20
279.326538451003
30
0.0
40
3.500000000000
100
AcDbArc
50
210.485986413650
51
329.514013586350
0
ARC
5
827
100
AcDbEntity
8
0-0
6
CONTINUOUS
62
7
100
AcDbCircle
10
159.398603744762
20
276.028909000654
30
0.0
40
3.000000000000
100
AcDbArc
50
30.485986413649
51
70.201123645476
0
ARC
5
828
100
AcDbEntity
8
0-0
6
CONTINUOUS
62
7
100
AcDbCircle
10
165.000000000000
20
282.515017712344
30
0.0
40
3.000000000000
100
AcDbArc
50
250.201123645475
51
289.798876354525
0
TEXT
5
829
100
AcDbEntity
8
0-F
62
7
370
-3
100
AcDbText
10
165.172
20
308.128
30
0.0
40
3.618
1
自由形状
41
0.637
50
0.000
100
AcDbText
0
LINE
5
82a
100
AcDbEntity
8
0-0
6
CONTINUOUS
62
7
100
AcDbLine
10
208.215072793737
20
281.230580653000
30
0.0
11
214.823432284681
21
278.851571236260
31
0.0
0
LINE
5
82b
100
AcDbEntity
8
0-0
6
CONTINUOUS
62
7
100
AcDbLine
10
218.392511730283
20
279.692355476738
30
0.0
11
208.892511730283
21
283.112355476737
31
0.0
0
LINE
5
82c
100
AcDbEntity
8
0-0
6
CONTINUOUS
62
7
100
AcDbLine
10
206.908670135101
20
285.935017712344
30
0.0
11
206.908670135101
21
303.826538451003
31
0.0
0
LINE
5
82d
100
AcDbEntity
8
0-0
6
CONTINUOUS
62
7
100
AcDbLine
10
231.908670135101
20
303.826538451003
30
0.0
11
231.908670135101
21
285.935017712344
31
0.0
0
POLYLINE
5
82e
100
AcDbEntity
8
0-0
6
CONTINUOUS
62
  7
100
AcDb2dPolyline
66
1
10
0.0
20
0.0
30
0.0
70
0
0
VERTEX
5
82f
100
AcDbEntity
8
0-0
6
CONTINUOUS
62
  7
100
AcDbVertex
100
AcDb2dVertex
10
233.908670135101
20
285.935017712344
30
0.0
0
VERTEX
5
830
100
AcDbEntity
8
0-0
6
CONTINUOUS
62
  7
100
AcDbVertex
100
AcDb2dVertex
10
233.908670135101
20
303.826538451003
30
0.0
0
VERTEX
5
831
100
AcDbEntity
8
0-0
6
CONTINUOUS
62
  7
100
AcDbVertex
100
AcDb2dVertex
10
204.908670135101
20
303.826538451003
30
0.0
0
VERTEX
5
832
100
AcDbEntity
8
0-0
6
CONTINUOUS
62
  7
100
AcDbVertex
100
AcDb2dVertex
10
204.908670135101
20
285.935017712344
30
0.0
0
SEQEND
5
833
100
AcDbEntity
8
0-0
0
LINE
5
834
100
AcDbEntity
8
0-0
6
CONTINUOUS
62
7
100
AcDbLine
10
229.924828539919
20
283.112355476737
30
0.0
11
220.424828539919
21
279.692355476738
31
0.0
0
LINE
5
835
100
AcDbEntity
8
0-0
6
CONTINUOUS
62
7
100
AcDbLine
10
223.993907985520
20
278.851571236260
30
0.0
11
230.602267476465
21
281.230580653000
31
0.0
0
LINE
5
836
100
AcDbEntity
8
0-0
6
CENTER
62
4
100
AcDbLine
10
219.408670135101
20
273.719364436865
30
0.0
11
219.408670135101
21
307.467812192764
31
0.0
0
ARC
5
837
100
AcDbEntity
8
0-0
6
CONTINUOUS
62
7
100
AcDbCircle
10
228.908670135101
20
285.935017712344
30
0.0
40
3.000000000000
100
AcDbArc
50
289.798876354525
51
360.000000000000
0
ARC
5
838
100
AcDbEntity
8
0-0
6
CONTINUOUS
62
7
100
AcDbCircle
10
228.908670135101
20
285.935017712344
30
0.0
40
5.000000000000
100
AcDbArc
50
289.798876354525
51
360.000000000000
0
ARC
5
839
100
AcDbEntity
8
0-0
6
CONTINUOUS
62
7
100
AcDbCircle
10
225.010066390338
20
276.028909000654
30
0.0
40
3.000000000000
100
AcDbArc
50
109.798876354524
51
149.514013586351
0
ARC
5
83a
100
AcDbEntity
8
0-0
6
CONTINUOUS
62
7
100
AcDbCircle
10
209.908670135101
20
285.935017712344
30
0.0
40
3.000000000000
100
AcDbArc
50
180.000000000000
51
250.201123645475
0
ARC
5
83b
100
AcDbEntity
8
0-0
6
CONTINUOUS
62
7
100
AcDbCircle
10
209.908670135101
20
285.935017712344
30
0.0
40
5.000000000000
100
AcDbArc
50
180.000000000000
51
250.201123645475
0
ARC
5
83c
100
AcDbEntity
8
0-0
6
CONTINUOUS
62
7
100
AcDbCircle
10
219.408670135101
20
279.326538451003
30
0.0
40
3.500000000000
100
AcDbArc
50
210.485986413650
51
329.514013586350
0
ARC
5
83d
100
AcDbEntity
8
0-0
6
CONTINUOUS
62
7
100
AcDbCircle
10
213.807273879863
20
276.028909000654
30
0.0
40
3.000000000000
100
AcDbArc
50
30.485986413649
51
70.201123645476
0
ARC
5
83e
100
AcDbEntity
8
0-0
6
CONTINUOUS
62
7
100
AcDbCircle
10
219.408670135101
20
282.515017712344
30
0.0
40
3.000000000000
100
AcDbArc
50
250.201123645475
51
289.798876354525
0
TEXT
5
83f
100
AcDbEntity
8
0-F
62
7
370
-3
100
AcDbText
10
219.581
20
308.128
30
0.0
40
3.618
1
自由形状
41
0.637
50
0.000
100
AcDbText
0
LINE
5
840
100
AcDbEntity
8
F-F_J_ADD
6
HIDDEN
62
253
100
AcDbLine
10
145.000000000000
20
250.000000000000
30
0.0
11
0.000000000000
21
250.000000000000
31
0.0
0
LINE
5
841
100
AcDbEntity
8
F-F_J_ADD
6
HIDDEN
62
253
100
AcDbLine
10
199.408670135101
20
190.000000000000
30
0.0
11
199.408670135101
21
320.000000000000
31
0.0
0
LINE
5
842
100
AcDbEntity
8
0-1
6
PHANTOM
62
4
100
AcDbLine
10
340.881994135751
20
227.275938979507
30
0.0
11
349.118018331442
21
196.538678228823
31
0.0
0
LINE
5
843
100
AcDbEntity
8
0-1
6
PHANTOM
62
4
100
AcDbLine
10
297.918980413380
20
226.684837811224
30
0.0
11
305.996619528384
21
196.538678228823
31
0.0
0
LINE
5
844
100
AcDbEntity
8
0-1
6
PHANTOM
62
4
100
AcDbLine
10
305.069161155053
20
200.000000000000
30
0.0
11
348.190559958111
21
200.000000000000
31
0.0
0
LINE
5
845
100
AcDbEntity
8
0-1
6
PHANTOM
62
4
100
AcDbLine
10
298.370431344275
20
225.000000000000
30
0.0
11
341.491830147333
21
225.000000000000
31
0.0
0
LINE
5
846
100
AcDbEntity
8
0-1
6
CENTER
62
4
100
AcDbLine
10
322.500000000000
20
230.721265539255
30
0.0
11
322.500000000000
21
218.856694920639
31
0.0
0
LINE
5
847
100
AcDbEntity
8
0-1
6
DASHED
62
4
100
AcDbLine
10
327.000000000000
20
227.500000000000
30
0.0
11
325.300000000000
21
227.500000000000
31
0.0
0
LINE
5
848
100
AcDbEntity
8
0-1
6
DASHED
62
4
100
AcDbLine
10
318.000000000000
20
227.500000000000
30
0.0
11
319.700000000000
21
227.500000000000
31
0.0
0
LINE
5
849
100
AcDbEntity
8
0-1
6
DASHED
62
4
100
AcDbLine
10
325.300000000000
20
226.000000000000
30
0.0
11
329.500000000000
21
226.000000000000
31
0.0
0
LINE
5
84a
100
AcDbEntity
8
0-1
6
DASHED
62
4
100
AcDbLine
10
319.700000000000
20
226.000000000000
30
0.0
11
315.500000000000
21
226.000000000000
31
0.0
0
LINE
5
84b
100
AcDbEntity
8
0-0
6
CONTINUOUS
62
7
100
AcDbLine
10
325.900000000000
20
219.900000000000
30
0.0
11
325.900000000000
21
225.000000000000
31
0.0
0
LINE
5
84c
100
AcDbEntity
8
0-0
6
CONTINUOUS
62
7
100
AcDbLine
10
319.100000000000
20
219.900000000000
30
0.0
11
325.900000000000
21
219.900000000000
31
0.0
0
LINE
5
84d
100
AcDbEntity
8
0-0
6
CONTINUOUS
62
7
100
AcDbLine
10
319.100000000000
20
225.000000000000
30
0.0
11
319.100000000000
21
219.900000000000
31
0.0
0
LINE
5
84e
100
AcDbEntity
8
0-0
6
CONTINUOUS
62
7
100
AcDbLine
10
319.100000000000
20
221.000000000000
30
0.0
11
325.900000000000
21
221.000000000000
31
0.0
0
LINE
5
84f
100
AcDbEntity
8
0-0
6
CONTINUOUS
62
7
100
AcDbLine
10
319.160969608189
20
223.000000000000
30
0.0
11
325.900000000000
21
223.000000000000
31
0.0
0
LINE
5
850
100
AcDbEntity
8
0-0
6
CONTINUOUS
62
7
100
AcDbLine
10
319.100000000000
20
222.983663242723
30
0.0
11
321.400200092730
21
223.600000000000
31
0.0
0
LINE
5
851
100
AcDbEntity
8
0-0
6
CONTINUOUS
62
7
100
AcDbLine
10
325.900000000000
20
223.600000000000
30
0.0
11
321.400200092730
21
223.600000000000
31
0.0
0
LINE
5
852
100
AcDbEntity
8
0-0
6
CONTINUOUS
62
7
100
AcDbLine
10
319.100000000000
20
224.000000000000
30
0.0
11
325.900000000000
21
224.000000000000
31
0.0
0
ARC
5
853
100
AcDbEntity
8
0-0
6
CONTINUOUS
62
7
100
AcDbCircle
10
326.700000000000
20
228.600000000000
30
0.0
40
0.300000000000
100
AcDbArc
50
0.000000000000
51
90.000000000000
0
LINE
5
854
100
AcDbEntity
8
0-0
6
CONTINUOUS
62
7
100
AcDbLine
10
327.000000000000
20
228.600000000000
30
0.0
11
327.000000000000
21
227.080384757729
31
0.0
0
LINE
5
855
100
AcDbEntity
8
0-0
6
CONTINUOUS
62
7
100
AcDbLine
10
326.700000000000
20
228.900000000000
30
0.0
11
318.300000000000
21
228.900000000000
31
0.0
0
ARC
5
856
100
AcDbEntity
8
0-0
6
CONTINUOUS
62
7
100
AcDbCircle
10
318.300000000000
20
228.600000000000
30
0.0
40
0.300000000000
100
AcDbArc
50
90.000000000000
51
180.000000000000
0
LINE
5
857
100
AcDbEntity
8
0-0
6
CONTINUOUS
62
7
100
AcDbLine
10
318.000000000000
20
228.600000000000
30
0.0
11
318.000000000000
21
227.080384757729
31
0.0
0
LINE
5
858
100
AcDbEntity
8
0-0
6
CONTINUOUS
62
7
100
AcDbLine
10
327.000000000000
20
227.080384757729
30
0.0
11
325.300000000000
21
227.080384757729
31
0.0
0
LINE
5
859
100
AcDbEntity
8
0-0
6
CONTINUOUS
62
7
100
AcDbLine
10
318.000000000000
20
227.080384757729
30
0.0
11
319.700000000000
21
227.080384757729
31
0.0
0
LINE
5
85a
100
AcDbEntity
8
0-0
6
CONTINUOUS
62
7
100
AcDbLine
10
315.500000000000
20
226.410511776652
30
0.0
11
318.000000000000
21
227.080384757729
31
0.0
0
LINE
5
85b
100
AcDbEntity
8
0-0
6
CONTINUOUS
62
7
100
AcDbLine
10
329.500000000000
20
226.410511776652
30
0.0
11
327.000000000000
21
227.080384757729
31
0.0
0
LINE
5
85c
100
AcDbEntity
8
0-0
6
CONTINUOUS
62
7
100
AcDbLine
10
315.500000000000
20
225.000000000000
30
0.0
11
329.500000000000
21
225.000000000000
31
0.0
0
LINE
5
85d
100
AcDbEntity
8
0-0
6
CONTINUOUS
62
7
100
AcDbLine
10
329.500000000000
20
226.410511776652
30
0.0
11
325.300000000000
21
226.410511776652
31
0.0
0
LINE
5
85e
100
AcDbEntity
8
0-0
6
CONTINUOUS
62
7
100
AcDbLine
10
315.500000000000
20
226.410511776652
30
0.0
11
319.700000000000
21
226.410511776652
31
0.0
0
LINE
5
85f
100
AcDbEntity
8
0-0
6
CONTINUOUS
62
7
100
AcDbLine
10
325.300000000000
20
227.500000000000
30
0.0
11
319.700000000000
21
227.500000000000
31
0.0
0
LINE
5
860
100
AcDbEntity
8
0-0
6
CONTINUOUS
62
7
100
AcDbLine
10
325.300000000000
20
226.000000000000
30
0.0
11
325.300000000000
21
227.500000000000
31
0.0
0
LINE
5
861
100
AcDbEntity
8
0-0
6
CONTINUOUS
62
7
100
AcDbLine
10
319.700000000000
20
226.000000000000
30
0.0
11
325.300000000000
21
226.000000000000
31
0.0
0
LINE
5
862
100
AcDbEntity
8
0-0
6
CONTINUOUS
62
7
100
AcDbLine
10
319.700000000000
20
227.500000000000
30
0.0
11
319.700000000000
21
226.000000000000
31
0.0
0
LINE
5
863
100
AcDbEntity
8
0-0
6
CONTINUOUS
62
7
100
AcDbLine
10
329.500000000000
20
225.000000000000
30
0.0
11
329.500000000000
21
226.410511776652
31
0.0
0
LINE
5
864
100
AcDbEntity
8
0-0
6
CONTINUOUS
62
7
100
AcDbLine
10
315.500000000000
20
226.410511776652
30
0.0
11
315.500000000000
21
225.000000000000
31
0.0
0
LINE
5
865
100
AcDbEntity
8
0-0
6
CONTINUOUS
62
7
100
AcDbLine
10
322.500000000000
20
224.000000000000
30
0.0
11
322.500000000000
21
225.000000000000
31
0.0
0
LINE
5
866
100
AcDbEntity
8
F-F_J_ADD
6
HIDDEN
62
253
100
AcDbLine
10
365.000000000000
20
190.000000000000
30
0.0
11
365.000000000000
21
320.000000000000
31
0.0
0
LINE
5
867
100
AcDbEntity
8
0-0
6
CONTINUOUS
62
7
100
AcDbLine
10
407.500000000000
20
222.250000000000
30
0.0
11
409.000000000000
21
222.250000000000
31
0.0
0
LINE
5
868
100
AcDbEntity
8
0-0
6
CONTINUOUS
62
7
100
AcDbLine
10
409.000000000000
20
217.750000000000
30
0.0
11
407.500000000000
21
217.750000000000
31
0.0
0
POLYLINE
5
869
100
AcDbEntity
8
0-0
6
CONTINUOUS
62
  7
100
AcDb2dPolyline
66
1
10
0.0
20
0.0
30
0.0
70
0
0
VERTEX
5
86a
100
AcDbEntity
8
0-0
6
CONTINUOUS
62
  7
100
AcDbVertex
100
AcDb2dVertex
10
407.500000000000
20
212.000000000000
30
0.0
0
VERTEX
5
86b
100
AcDbEntity
8
0-0
6
CONTINUOUS
62
  7
100
AcDbVertex
100
AcDb2dVertex
10
407.500000000000
20
228.000000000000
30
0.0
0
VERTEX
5
86c
100
AcDbEntity
8
0-0
6
CONTINUOUS
62
  7
100
AcDbVertex
100
AcDb2dVertex
10
409.000000000000
20
228.000000000000
30
0.0
0
VERTEX
5
86d
100
AcDbEntity
8
0-0
6
CONTINUOUS
62
  7
100
AcDbVertex
100
AcDb2dVertex
10
409.000000000000
20
212.000000000000
30
0.0
0
VERTEX
5
86e
100
AcDbEntity
8
0-0
6
CONTINUOUS
62
  7
100
AcDbVertex
100
AcDb2dVertex
10
407.500000000000
20
212.000000000000
30
0.0
0
SEQEND
5
86f
100
AcDbEntity
8
0-0
0
CIRCLE
5
870
100
AcDbEntity
8
0-0
6
CONTINUOUS
62
7
100
AcDbCircle
10
385.000000000000
20
220.000000000000
30
0.0
40
2.250000000000
0
CIRCLE
5
871
100
AcDbEntity
8
0-0
6
CONTINUOUS
62
7
100
AcDbCircle
10
385.000000000000
20
220.000000000000
30
0.0
40
8.000000000000
0
LINE
5
872
100
AcDbEntity
8
0-1
6
CENTER
62
4
100
AcDbLine
10
411.539240894649
20
220.000000000000
30
0.0
11
405.839460346268
21
220.000000000000
31
0.0
0
LINE
5
873
100
AcDbEntity
8
0-1
6
CENTER
62
4
100
AcDbLine
10
385.000000000000
20
229.892392393567
30
0.0
11
385.000000000000
21
209.701294540019
31
0.0
0
LINE
5
874
100
AcDbEntity
8
0-1
6
CENTER
62
4
100
AcDbLine
10
396.158202269456
20
220.000000000000
30
0.0
11
373.274958035435
21
220.000000000000
31
0.0
0
TEXT
5
875
100
AcDbEntity
8
0-0
62
7
370
-3
100
AcDbText
10
389.751
20
238.795
30
0.0
40
4.208
1
PW16-
41
0.521
50
0.000
100
AcDbText
0
TEXT
5
876
100
AcDbEntity
8
0-0
62
7
370
-3
100
AcDbText
10
402.251
20
238.795
30
0.0
40
4.208
1
M4
41
0.529
50
0.000
100
AcDbText
0
LINE
5
877
100
AcDbEntity
8
F-F_J_ADD
6
HIDDEN
62
253
100
AcDbLine
10
420.000000000000
20
190.000000000000
30
0.0
11
420.000000000000
21
320.000000000000
31
0.0
0
LINE
5
878
100
AcDbEntity
8
F-F_J_ADD
6
HIDDEN
62
253
100
AcDbLine
10
475.000000000000
20
190.000000000000
30
0.0
11
475.000000000000
21
320.000000000000
31
0.0
0
POLYLINE
5
879
100
AcDbEntity
8
0-0
6
CONTINUOUS
62
  7
100
AcDb2dPolyline
66
1
10
0.0
20
0.0
30
0.0
70
0
0
VERTEX
5
87a
100
AcDbEntity
8
0-0
6
CONTINUOUS
62
  7
100
AcDbVertex
100
AcDb2dVertex
10
462.500000000000
20
212.000000000000
30
0.0
0
VERTEX
5
87b
100
AcDbEntity
8
0-0
6
CONTINUOUS
62
  7
100
AcDbVertex
100
AcDb2dVertex
10
462.500000000000
20
228.000000000000
30
0.0
0
VERTEX
5
87c
100
AcDbEntity
8
0-0
6
CONTINUOUS
62
  7
100
AcDbVertex
100
AcDb2dVertex
10
464.000000000000
20
228.000000000000
30
0.0
0
VERTEX
5
87d
100
AcDbEntity
8
0-0
6
CONTINUOUS
62
  7
100
AcDbVertex
100
AcDb2dVertex
10
464.000000000000
20
212.000000000000
30
0.0
0
VERTEX
5
87e
100
AcDbEntity
8
0-0
6
CONTINUOUS
62
  7
100
AcDbVertex
100
AcDb2dVertex
10
462.500000000000
20
212.000000000000
30
0.0
0
SEQEND
5
87f
100
AcDbEntity
8
0-0
0
LINE
5
880
100
AcDbEntity
8
0-0
6
CONTINUOUS
62
7
100
AcDbLine
10
462.500000000000
20
217.250000000000
30
0.0
11
464.000000000000
21
217.250000000000
31
0.0
0
LINE
5
881
100
AcDbEntity
8
0-0
6
CONTINUOUS
62
7
100
AcDbLine
10
464.000000000000
20
222.750000000000
30
0.0
11
462.500000000000
21
222.750000000000
31
0.0
0
CIRCLE
5
882
100
AcDbEntity
8
0-0
6
CONTINUOUS
62
7
100
AcDbCircle
10
440.000000000000
20
220.000000000000
30
0.0
40
2.750000000000
0
CIRCLE
5
883
100
AcDbEntity
8
0-0
6
CONTINUOUS
62
7
100
AcDbCircle
10
440.000000000000
20
220.000000000000
30
0.0
40
8.000000000000
0
LINE
5
884
100
AcDbEntity
8
0-1
6
CENTER
62
4
100
AcDbLine
10
467.242788668586
20
220.000000000000
30
0.0
11
460.152912486471
21
220.000000000000
31
0.0
0
LINE
5
885
100
AcDbEntity
8
0-1
6
CENTER
62
4
100
AcDbLine
10
440.000000000000
20
229.892392393567
30
0.0
11
440.000000000000
21
209.701294540019
31
0.0
0
LINE
5
886
100
AcDbEntity
8
0-1
6
CENTER
62
4
100
AcDbLine
10
451.158202269456
20
220.000000000000
30
0.0
11
428.274958035435
21
220.000000000000
31
0.0
0
TEXT
5
887
100
AcDbEntity
8
0-0
62
7
370
-3
100
AcDbText
10
444.751
20
238.795
30
0.0
40
4.208
1
PW16-
41
0.521
50
0.000
100
AcDbText
0
TEXT
5
888
100
AcDbEntity
8
0-0
62
7
370
-3
100
AcDbText
10
457.251
20
238.795
30
0.0
40
4.208
1
M5
41
0.507
50
0.000
100
AcDbText
0
LINE
5
889
100
AcDbEntity
8
0-0
6
CONTINUOUS
62
7
100
AcDbLine
10
515.000000000000
20
223.250000000000
30
0.0
11
519.000000000000
21
223.250000000000
31
0.0
0
POLYLINE
5
88a
100
AcDbEntity
8
0-0
6
CONTINUOUS
62
  7
100
AcDb2dPolyline
66
1
10
0.0
20
0.0
30
0.0
70
0
0
VERTEX
5
88b
100
AcDbEntity
8
0-0
6
CONTINUOUS
62
  7
100
AcDbVertex
100
AcDb2dVertex
10
519.000000000000
20
229.000000000000
30
0.0
0
VERTEX
5
88c
100
AcDbEntity
8
0-0
6
CONTINUOUS
62
  7
100
AcDbVertex
100
AcDb2dVertex
10
515.000000000000
20
229.000000000000
30
0.0
0
VERTEX
5
88d
100
AcDbEntity
8
0-0
6
CONTINUOUS
62
  7
100
AcDbVertex
100
AcDb2dVertex
10
515.000000000000
20
211.000000000000
30
0.0
0
VERTEX
5
88e
100
AcDbEntity
8
0-0
6
CONTINUOUS
62
  7
100
AcDbVertex
100
AcDb2dVertex
10
519.000000000000
20
211.000000000000
30
0.0
0
VERTEX
5
88f
100
AcDbEntity
8
0-0
6
CONTINUOUS
62
  7
100
AcDbVertex
100
AcDb2dVertex
10
519.000000000000
20
229.000000000000
30
0.0
0
SEQEND
5
890
100
AcDbEntity
8
0-0
0
LINE
5
891
100
AcDbEntity
8
0-0
6
CONTINUOUS
62
7
100
AcDbLine
10
519.000000000000
20
216.750000000000
30
0.0
11
515.000000000000
21
216.750000000000
31
0.0
0
LINE
5
892
100
AcDbEntity
8
0-1
6
CENTER
62
4
100
AcDbLine
10
495.000000000000
20
229.892392393567
30
0.0
11
495.000000000000
21
209.701294540019
31
0.0
0
LINE
5
893
100
AcDbEntity
8
0-1
6
CENTER
62
4
100
AcDbLine
10
506.158202269456
20
220.000000000000
30
0.0
11
483.274958035435
21
220.000000000000
31
0.0
0
LINE
5
894
100
AcDbEntity
8
0-1
6
CENTER
62
4
100
AcDbLine
10
521.486092546465
20
220.000000000000
30
0.0
11
513.214570333997
21
220.000000000000
31
0.0
0
CIRCLE
5
895
100
AcDbEntity
8
0-0
6
CONTINUOUS
62
7
100
AcDbCircle
10
495.000000000000
20
220.000000000000
30
0.0
40
9.000000000000
0
CIRCLE
5
896
100
AcDbEntity
8
0-0
6
CONTINUOUS
62
7
100
AcDbCircle
10
495.000000000000
20
220.000000000000
30
0.0
40
3.250000000000
0
TEXT
5
897
100
AcDbEntity
8
0-0
62
7
370
-3
100
AcDbText
10
499.751
20
238.795
30
0.0
40
4.208
1
PW18D-
41
0.518
50
0.000
100
AcDbText
0
TEXT
5
898
100
AcDbEntity
8
0-0
62
7
370
-3
100
AcDbText
10
514.751
20
238.795
30
0.0
40
4.208
1
M6
41
0.509
50
0.000
100
AcDbText
0
POLYLINE
5
899
100
AcDbEntity
8
0-0
6
CONTINUOUS
62
  7
100
AcDb2dPolyline
66
1
10
0.0
20
0.0
30
0.0
70
0
0
VERTEX
5
89a
100
AcDbEntity
8
0-0
6
CONTINUOUS
62
  7
100
AcDbVertex
100
AcDb2dVertex
10
574.000000000000
20
229.000000000000
30
0.0
0
VERTEX
5
89b
100
AcDbEntity
8
0-0
6
CONTINUOUS
62
  7
100
AcDbVertex
100
AcDb2dVertex
10
571.000000000000
20
229.000000000000
30
0.0
0
VERTEX
5
89c
100
AcDbEntity
8
0-0
6
CONTINUOUS
62
  7
100
AcDbVertex
100
AcDb2dVertex
10
571.000000000000
20
211.000000000000
30
0.0
0
VERTEX
5
89d
100
AcDbEntity
8
0-0
6
CONTINUOUS
62
  7
100
AcDbVertex
100
AcDb2dVertex
10
574.000000000000
20
211.000000000000
30
0.0
0
VERTEX
5
89e
100
AcDbEntity
8
0-0
6
CONTINUOUS
62
  7
100
AcDbVertex
100
AcDb2dVertex
10
574.000000000000
20
229.000000000000
30
0.0
0
SEQEND
5
89f
100
AcDbEntity
8
0-0
0
LINE
5
8a0
100
AcDbEntity
8
0-0
6
CONTINUOUS
62
7
100
AcDbLine
10
574.000000000000
20
224.250000000000
30
0.0
11
571.000000000000
21
224.250000000000
31
0.0
0
LINE
5
8a1
100
AcDbEntity
8
0-0
6
CONTINUOUS
62
7
100
AcDbLine
10
571.000000000000
20
215.750000000000
30
0.0
11
574.000000000000
21
215.750000000000
31
0.0
0
LINE
5
8a2
100
AcDbEntity
8
0-1
6
CENTER
62
4
100
AcDbLine
10
561.158202269456
20
220.000000000000
30
0.0
11
538.274958035435
21
220.000000000000
31
0.0
0
LINE
5
8a3
100
AcDbEntity
8
0-1
6
CENTER
62
4
100
AcDbLine
10
550.000000000000
20
230.773919830575
30
0.0
11
550.000000000000
21
209.701294540019
31
0.0
0
LINE
5
8a4
100
AcDbEntity
8
0-1
6
CENTER
62
4
100
AcDbLine
10
576.488117348057
20
220.000000000000
30
0.0
11
568.043019049306
21
220.000000000000
31
0.0
0
CIRCLE
5
8a5
100
AcDbEntity
8
0-0
6
CONTINUOUS
62
7
100
AcDbCircle
10
550.000000000000
20
220.000000000000
30
0.0
40
9.000000000000
0
CIRCLE
5
8a6
100
AcDbEntity
8
0-0
6
CONTINUOUS
62
7
100
AcDbCircle
10
550.000000000000
20
220.000000000000
30
0.0
40
4.250000000000
0
TEXT
5
8a7
100
AcDbEntity
8
0-0
62
7
370
-3
100
AcDbText
10
554.751
20
238.795
30
0.0
40
4.208
1
PW18-
41
0.518
50
0.000
100
AcDbText
0
TEXT
5
8a8
100
AcDbEntity
8
0-0
62
7
370
-3
100
AcDbText
10
567.251
20
238.795
30
0.0
40
4.208
1
M8
41
0.503
50
0.000
100
AcDbText
0
LINE
5
8a9
100
AcDbEntity
8
F-F_J_ADD
6
HIDDEN
62
253
100
AcDbLine
10
530.000000000000
20
190.000000000000
30
0.0
11
530.000000000000
21
320.000000000000
31
0.0
0
LINE
5
8aa
100
AcDbEntity
8
F-F_J_ADD
6
HIDDEN
62
253
100
AcDbLine
10
576.488117348057
20
220.000000000000
30
0.0
11
763.519947592033
21
220.000000000000
31
0.0
0
POLYLINE
5
8ab
100
AcDbEntity
8
0-0
6
CONTINUOUS
62
  7
100
AcDb2dPolyline
66
1
10
0.0
20
0.0
30
0.0
70
0
0
VERTEX
5
8ac
100
AcDbEntity
8
0-0
6
CONTINUOUS
62
  7
100
AcDbVertex
100
AcDb2dVertex
10
633.000000000000
20
229.000000000000
30
0.0
0
VERTEX
5
8ad
100
AcDbEntity
8
0-0
6
CONTINUOUS
62
  7
100
AcDbVertex
100
AcDb2dVertex
10
629.000000000000
20
229.000000000000
30
0.0
0
VERTEX
5
8ae
100
AcDbEntity
8
0-0
6
CONTINUOUS
62
  7
100
AcDbVertex
100
AcDb2dVertex
10
629.000000000000
20
211.000000000000
30
0.0
0
VERTEX
5
8af
100
AcDbEntity
8
0-0
6
CONTINUOUS
62
  7
100
AcDbVertex
100
AcDb2dVertex
10
633.000000000000
20
211.000000000000
30
0.0
0
VERTEX
5
8b0
100
AcDbEntity
8
0-0
6
CONTINUOUS
62
  7
100
AcDbVertex
100
AcDb2dVertex
10
633.000000000000
20
229.000000000000
30
0.0
0
SEQEND
5
8b1
100
AcDbEntity
8
0-0
0
LINE
5
8b2
100
AcDbEntity
8
0-0
6
CONTINUOUS
62
7
100
AcDbLine
10
622.100000023842
20
224.375000000000
30
0.0
11
627.500000000000
21
224.375000000000
31
0.0
0
LINE
5
8b3
100
AcDbEntity
8
0-0
6
CONTINUOUS
62
7
100
AcDbLine
10
622.100000023842
20
221.875000000000
30
0.0
11
627.500000000000
21
221.875000000000
31
0.0
0
LINE
5
8b4
100
AcDbEntity
8
0-0
6
CONTINUOUS
62
7
100
AcDbLine
10
622.100000023842
20
222.500000000000
30
0.0
11
627.500000000000
21
222.500000000000
31
0.0
0
LINE
5
8b5
100
AcDbEntity
8
0-0
6
CONTINUOUS
62
7
100
AcDbLine
10
622.100000023842
20
223.125000000000
30
0.0
11
627.500000000000
21
223.125000000000
31
0.0
0
LINE
5
8b6
100
AcDbEntity
8
0-0
6
CONTINUOUS
62
7
100
AcDbLine
10
622.100000023842
20
223.750000000000
30
0.0
11
627.500000000000
21
223.750000000000
31
0.0
0
LINE
5
8b7
100
AcDbEntity
8
0-0
6
CONTINUOUS
62
7
100
AcDbLine
10
622.100000023842
20
215.000000000000
30
0.0
11
621.500000000000
21
215.599999904633
31
0.0
0
LINE
5
8b8
100
AcDbEntity
8
0-0
6
CONTINUOUS
62
7
100
AcDbLine
10
621.500000000000
20
224.400000095367
30
0.0
11
621.500000000000
21
215.599999904633
31
0.0
0
LINE
5
8b9
100
AcDbEntity
8
0-0
6
CONTINUOUS
62
7
100
AcDbLine
10
621.500000000000
20
224.400000095367
30
0.0
11
622.100000023842
21
225.000000000000
31
0.0
0
LINE
5
8ba
100
AcDbEntity
8
0-0
6
CONTINUOUS
62
7
100
AcDbLine
10
622.100000023842
20
215.000000000000
30
0.0
11
622.100000023842
21
225.000000000000
31
0.0
0
LINE
5
8bb
100
AcDbEntity
8
0-0
6
CONTINUOUS
62
7
100
AcDbLine
10
627.500000000000
20
215.000000000000
30
0.0
11
627.500000000000
21
225.000000000000
31
0.0
0
LINE
5
8bc
100
AcDbEntity
8
0-0
6
CONTINUOUS
62
7
100
AcDbLine
10
622.100000023842
20
215.000000000000
30
0.0
11
629.000000000000
21
215.000000000000
31
0.0
0
LINE
5
8bd
100
AcDbEntity
8
0-0
6
CONTINUOUS
62
7
100
AcDbLine
10
622.100000023842
20
225.000000000000
30
0.0
11
629.000000000000
21
225.000000000000
31
0.0
0
LINE
5
8be
100
AcDbEntity
8
0-0
6
CONTINUOUS
62
7
100
AcDbLine
10
629.000000000000
20
220.433012694120
30
0.0
11
627.500000000000
21
219.566987305880
31
0.0
0
LINE
5
8bf
100
AcDbEntity
8
0-0
6
CONTINUOUS
62
7
100
AcDbLine
10
640.199997018851
20
216.500035701041
30
0.0
11
640.200022980993
21
223.499870496780
31
0.0
0
LINE
5
8c0
100
AcDbEntity
8
0-0
6
CONTINUOUS
62
7
100
AcDbLine
10
636.600000000000
20
225.087408539611
30
0.0
11
633.600011573792
21
224.824977850526
31
0.0
0
LINE
5
8c1
100
AcDbEntity
8
0-0
6
CONTINUOUS
62
7
100
AcDbLine
10
640.200022980993
20
223.499870496780
30
0.0
11
638.364758015824
21
226.678715478300
31
0.0
0
LINE
5
8c2
100
AcDbEntity
8
0-0
6
CONTINUOUS
62
7
100
AcDbLine
10
636.600000000000
20
226.999953971925
30
0.0
11
636.600000000000
21
225.087408539611
31
0.0
0
LINE
5
8c3
100
AcDbEntity
8
0-0
6
CONTINUOUS
62
7
100
AcDbLine
10
638.364758015824
20
226.678715478300
30
0.0
11
636.600000000000
21
226.999953971925
31
0.0
0
LINE
5
8c4
100
AcDbEntity
8
0-0
6
CONTINUOUS
62
7
100
AcDbLine
10
636.600000000000
20
214.912518192167
30
0.0
11
633.599978426215
21
215.175022149512
31
0.0
0
LINE
5
8c5
100
AcDbEntity
8
0-0
6
CONTINUOUS
62
7
100
AcDbLine
10
633.600011573792
20
224.824977850526
30
0.0
11
633.599978426215
21
215.175022149512
31
0.0
0
LINE
5
8c6
100
AcDbEntity
8
0-0
6
CONTINUOUS
62
7
100
AcDbLine
10
640.200022980993
20
216.500117647071
30
0.0
11
638.364758015824
21
213.321272665551
31
0.0
0
LINE
5
8c7
100
AcDbEntity
8
0-0
6
CONTINUOUS
62
7
100
AcDbLine
10
636.600000000000
20
213.000034171926
30
0.0
11
636.600000000000
21
214.912579604240
31
0.0
0
LINE
5
8c8
100
AcDbEntity
8
0-0
6
CONTINUOUS
62
7
100
AcDbLine
10
638.364758015824
20
213.321272665551
30
0.0
11
636.600000000000
21
213.000034171926
31
0.0
0
LINE
5
8c9
100
AcDbEntity
8
0-0
6
CONTINUOUS
62
7
100
AcDbLine
10
633.000000000000
20
223.000000000000
30
0.0
11
633.600005304997
21
223.000000000000
31
0.0
0
LINE
5
8ca
100
AcDbEntity
8
0-0
6
CONTINUOUS
62
7
100
AcDbLine
10
633.000000000000
20
217.000000000000
30
0.0
11
633.599984695010
21
217.000000000000
31
0.0
0
LINE
5
8cb
100
AcDbEntity
8
0-0
6
CONTINUOUS
62
7
100
AcDbLine
10
633.000000000000
20
217.450000047684
30
0.0
11
633.599986240759
21
217.450000047684
31
0.0
0
LINE
5
8cc
100
AcDbEntity
8
0-0
6
CONTINUOUS
62
7
100
AcDbLine
10
633.000000000000
20
222.549999952316
30
0.0
11
633.600003759248
21
222.549999952316
31
0.0
0
POLYLINE
5
8cd
100
AcDbEntity
8
0-0
6
CONTINUOUS
62
  7
100
AcDb2dPolyline
66
1
10
0.0
20
0.0
30
0.0
70
0
0
VERTEX
5
8ce
100
AcDbEntity
8
0-0
6
CONTINUOUS
62
  7
100
AcDbVertex
100
AcDb2dVertex
10
607.500000000000
20
218.556624293327
30
0.0
0
VERTEX
5
8cf
100
AcDbEntity
8
0-0
6
CONTINUOUS
62
  7
100
AcDbVertex
100
AcDb2dVertex
10
607.500000000000
20
221.443375706673
30
0.0
0
VERTEX
5
8d0
100
AcDbEntity
8
0-0
6
CONTINUOUS
62
  7
100
AcDbVertex
100
AcDb2dVertex
10
605.000000000000
20
222.886751413345
30
0.0
0
VERTEX
5
8d1
100
AcDbEntity
8
0-0
6
CONTINUOUS
62
  7
100
AcDbVertex
100
AcDb2dVertex
10
602.500000000000
20
221.443375706673
30
0.0
0
VERTEX
5
8d2
100
AcDbEntity
8
0-0
6
CONTINUOUS
62
  7
100
AcDbVertex
100
AcDb2dVertex
10
602.500000000000
20
218.556624293327
30
0.0
0
VERTEX
5
8d3
100
AcDbEntity
8
0-0
6
CONTINUOUS
62
  7
100
AcDbVertex
100
AcDb2dVertex
10
605.000000000000
20
217.113248586655
30
0.0
0
VERTEX
5
8d4
100
AcDbEntity
8
0-0
6
CONTINUOUS
62
  7
100
AcDbVertex
100
AcDb2dVertex
10
607.500000000000
20
218.556624293327
30
0.0
0
SEQEND
5
8d5
100
AcDbEntity
8
0-0
0
CIRCLE
5
8d6
100
AcDbEntity
8
0-0
6
CONTINUOUS
62
7
100
AcDbCircle
10
605.000000000000
20
220.000000000000
30
0.0
40
5.000000000000
0
POLYLINE
5
8d7
100
AcDbEntity
8
0-0
6
CONTINUOUS
62
  7
100
AcDb2dPolyline
66
1
10
0.0
20
0.0
30
0.0
70
0
0
VERTEX
5
8d8
100
AcDbEntity
8
0-0
6
CONTINUOUS
62
  7
100
AcDbVertex
100
AcDb2dVertex
10
661.563507200591
20
229.000000000000
30
0.0
0
VERTEX
5
8d9
100
AcDbEntity
8
0-0
6
CONTINUOUS
62
  7
100
AcDbVertex
100
AcDb2dVertex
10
657.563507200591
20
229.000000000000
30
0.0
0
VERTEX
5
8da
100
AcDbEntity
8
0-0
6
CONTINUOUS
62
  7
100
AcDbVertex
100
AcDb2dVertex
10
657.563507200591
20
211.000000000000
30
0.0
0
VERTEX
5
8db
100
AcDbEntity
8
0-0
6
CONTINUOUS
62
  7
100
AcDbVertex
100
AcDb2dVertex
10
661.563507200591
20
211.000000000000
30
0.0
0
VERTEX
5
8dc
100
AcDbEntity
8
0-0
6
CONTINUOUS
62
  7
100
AcDbVertex
100
AcDb2dVertex
10
661.563507200591
20
229.000000000000
30
0.0
0
SEQEND
5
8dd
100
AcDbEntity
8
0-0
0
LINE
5
8de
100
AcDbEntity
8
0-0
6
CONTINUOUS
62
7
100
AcDbLine
10
650.663507224433
20
224.375000000000
30
0.0
11
656.063507200591
21
224.375000000000
31
0.0
0
LINE
5
8df
100
AcDbEntity
8
0-0
6
CONTINUOUS
62
7
100
AcDbLine
10
650.663507224433
20
221.875000000000
30
0.0
11
656.063507200591
21
221.875000000000
31
0.0
0
LINE
5
8e0
100
AcDbEntity
8
0-0
6
CONTINUOUS
62
7
100
AcDbLine
10
650.663507224433
20
222.500000000000
30
0.0
11
656.063507200591
21
222.500000000000
31
0.0
0
LINE
5
8e1
100
AcDbEntity
8
0-0
6
CONTINUOUS
62
7
100
AcDbLine
10
650.663507224433
20
223.125000000000
30
0.0
11
656.063507200591
21
223.125000000000
31
0.0
0
LINE
5
8e2
100
AcDbEntity
8
0-0
6
CONTINUOUS
62
7
100
AcDbLine
10
650.663507224433
20
223.750000000000
30
0.0
11
656.063507200591
21
223.750000000000
31
0.0
0
LINE
5
8e3
100
AcDbEntity
8
0-0
6
CONTINUOUS
62
7
100
AcDbLine
10
650.663507224433
20
215.000000000000
30
0.0
11
650.063507200591
21
215.599999904633
31
0.0
0
LINE
5
8e4
100
AcDbEntity
8
0-0
6
CONTINUOUS
62
7
100
AcDbLine
10
650.063507200591
20
224.400000095367
30
0.0
11
650.063507200591
21
215.599999904633
31
0.0
0
LINE
5
8e5
100
AcDbEntity
8
0-0
6
CONTINUOUS
62
7
100
AcDbLine
10
650.063507200591
20
224.400000095367
30
0.0
11
650.663507224433
21
225.000000000000
31
0.0
0
LINE
5
8e6
100
AcDbEntity
8
0-0
6
CONTINUOUS
62
7
100
AcDbLine
10
650.663507224433
20
215.000000000000
30
0.0
11
650.663507224433
21
225.000000000000
31
0.0
0
LINE
5
8e7
100
AcDbEntity
8
0-0
6
CONTINUOUS
62
7
100
AcDbLine
10
656.063507200591
20
215.000000000000
30
0.0
11
656.063507200591
21
225.000000000000
31
0.0
0
LINE
5
8e8
100
AcDbEntity
8
0-0
6
CONTINUOUS
62
7
100
AcDbLine
10
650.663507224433
20
215.000000000000
30
0.0
11
657.563507200591
21
215.000000000000
31
0.0
0
LINE
5
8e9
100
AcDbEntity
8
0-0
6
CONTINUOUS
62
7
100
AcDbLine
10
650.663507224433
20
225.000000000000
30
0.0
11
657.563507200591
21
225.000000000000
31
0.0
0
LINE
5
8ea
100
AcDbEntity
8
0-0
6
CONTINUOUS
62
7
100
AcDbLine
10
657.563507200591
20
220.433012694120
30
0.0
11
656.063507200591
21
219.566987305880
31
0.0
0
LINE
5
8eb
100
AcDbEntity
8
0-0
6
CONTINUOUS
62
7
100
AcDbLine
10
661.563507200591
20
223.000000000000
30
0.0
11
662.163512505588
21
223.000000000000
31
0.0
0
LINE
5
8ec
100
AcDbEntity
8
0-0
6
CONTINUOUS
62
7
100
AcDbLine
10
661.563507200591
20
217.000000000000
30
0.0
11
662.163491895601
21
217.000000000000
31
0.0
0
LINE
5
8ed
100
AcDbEntity
8
0-0
6
CONTINUOUS
62
7
100
AcDbLine
10
661.563507200591
20
217.450000047684
30
0.0
11
662.163493441350
21
217.450000047684
31
0.0
0
LINE
5
8ee
100
AcDbEntity
8
0-0
6
CONTINUOUS
62
7
100
AcDbLine
10
661.563507200591
20
222.549999952316
30
0.0
11
662.163510959839
21
222.549999952316
31
0.0
0
LINE
5
8ef
100
AcDbEntity
8
0-0
6
CONTINUOUS
62
7
100
AcDbLine
10
668.763489383450
20
212.500000000000
30
0.0
11
662.163476438110
21
212.500000000000
31
0.0
0
POLYLINE
5
8f0
100
AcDbEntity
8
0-0
6
CONTINUOUS
62
  7
100
AcDb2dPolyline
66
1
10
0.0
20
0.0
30
0.0
70
0
0
VERTEX
5
8f1
100
AcDbEntity
8
0-0
6
CONTINUOUS
62
  7
100
AcDbVertex
100
AcDb2dVertex
10
668.763489383450
20
212.500000000000
30
0.0
0
VERTEX
5
8f2
100
AcDbEntity
8
0-0
6
CONTINUOUS
62
  7
100
AcDbVertex
100
AcDb2dVertex
10
668.763545017925
20
227.500000000000
30
0.0
0
VERTEX
5
8f3
100
AcDbEntity
8
0-0
6
CONTINUOUS
62
  7
100
AcDbVertex
100
AcDb2dVertex
10
662.163527963079
20
227.500000000000
30
0.0
0
VERTEX
5
8f4
100
AcDbEntity
8
0-0
6
CONTINUOUS
62
  7
100
AcDbVertex
100
AcDb2dVertex
10
662.163476438110
20
212.500000000000
30
0.0
0
SEQEND
5
8f5
100
AcDbEntity
8
0-0
0
LINE
5
8f6
100
AcDbEntity
8
0-0
6
CONTINUOUS
62
7
100
AcDbLine
10
665.163507200591
20
227.500000000000
30
0.0
11
665.163507200591
21
212.500000000000
31
0.0
0
LINE
5
8f7
100
AcDbEntity
8
0-0
6
CONTINUOUS
62
7
100
AcDbLine
10
666.928265216591
20
227.500000000000
30
0.0
11
666.928265216591
21
212.500000000000
31
0.0
0
LINE
5
8f8
100
AcDbEntity
8
0-1
6
CENTER
62
4
100
AcDbLine
10
605.000000000000
20
229.892392393567
30
0.0
11
605.000000000000
21
209.701294540019
31
0.0
0
LINE
5
8f9
100
AcDbEntity
8
0-1
6
CENTER
62
4
100
AcDbLine
10
616.158202269456
20
220.000000000000
30
0.0
11
593.274958035435
21
220.000000000000
31
0.0
0
LINE
5
8fa
100
AcDbEntity
8
0-1
6
DASHED
62
4
100
AcDbLine
10
629.000000000000
20
223.250000000000
30
0.0
11
633.000000000000
21
223.250000000000
31
0.0
0
LINE
5
8fb
100
AcDbEntity
8
0-1
6
DASHED
62
4
100
AcDbLine
10
633.000000000000
20
216.750000000000
30
0.0
11
629.000000000000
21
216.750000000000
31
0.0
0
LINE
5
8fc
100
AcDbEntity
8
0-1
6
DASHED
62
4
100
AcDbLine
10
629.000000000000
20
217.450000047684
30
0.0
11
639.500000000000
21
217.450000047684
31
0.0
0
LINE
5
8fd
100
AcDbEntity
8
0-1
6
DASHED
62
4
100
AcDbLine
10
639.500000000000
20
222.549999952316
30
0.0
11
629.000000000000
21
222.549999952316
31
0.0
0
LINE
5
8fe
100
AcDbEntity
8
0-1
6
DASHED
62
4
100
AcDbLine
10
639.049999237061
20
217.000000000000
30
0.0
11
639.500000000000
21
217.450000047684
31
0.0
0
LINE
5
8ff
100
AcDbEntity
8
0-1
6
DASHED
62
4
100
AcDbLine
10
639.500000000000
20
222.549999952316
30
0.0
11
639.500000000000
21
217.450000047684
31
0.0
0
LINE
5
900
100
AcDbEntity
8
0-1
6
DASHED
62
4
100
AcDbLine
10
639.500000000000
20
222.549999952316
30
0.0
11
639.049999237061
21
223.000000000000
31
0.0
0
LINE
5
901
100
AcDbEntity
8
0-1
6
DASHED
62
4
100
AcDbLine
10
639.049999237061
20
217.000000000000
30
0.0
11
639.049999237061
21
223.000000000000
31
0.0
0
LINE
5
902
100
AcDbEntity
8
0-1
6
DASHED
62
4
100
AcDbLine
10
639.049999237061
20
217.000000000000
30
0.0
11
629.000000000000
21
217.000000000000
31
0.0
0
LINE
5
903
100
AcDbEntity
8
0-1
6
DASHED
62
4
100
AcDbLine
10
639.049999237061
20
223.000000000000
30
0.0
11
629.000000000000
21
223.000000000000
31
0.0
0
LINE
5
904
100
AcDbEntity
8
0-1
6
CENTER
62
4
100
AcDbLine
10
641.442550158705
20
220.000000000000
30
0.0
11
620.374683117065
21
220.000000000000
31
0.0
0
LINE
5
905
100
AcDbEntity
8
0-1
6
DASHED
62
4
100
AcDbLine
10
657.563507200591
20
223.250000000000
30
0.0
11
661.563507200591
21
223.250000000000
31
0.0
0
LINE
5
906
100
AcDbEntity
8
0-1
6
DASHED
62
4
100
AcDbLine
10
661.563507200591
20
216.750000000000
30
0.0
11
657.563507200591
21
216.750000000000
31
0.0
0
LINE
5
907
100
AcDbEntity
8
0-1
6
DASHED
62
4
100
AcDbLine
10
657.563507200591
20
217.450000047684
30
0.0
11
668.063507200591
21
217.450000047684
31
0.0
0
LINE
5
908
100
AcDbEntity
8
0-1
6
DASHED
62
4
100
AcDbLine
10
668.063507200591
20
222.549999952316
30
0.0
11
657.563507200591
21
222.549999952316
31
0.0
0
LINE
5
909
100
AcDbEntity
8
0-1
6
DASHED
62
4
100
AcDbLine
10
667.613506437652
20
217.000000000000
30
0.0
11
668.063507200591
21
217.450000047684
31
0.0
0
LINE
5
90a
100
AcDbEntity
8
0-1
6
DASHED
62
4
100
AcDbLine
10
668.063507200591
20
222.549999952316
30
0.0
11
668.063507200591
21
217.450000047684
31
0.0
0
LINE
5
90b
100
AcDbEntity
8
0-1
6
DASHED
62
4
100
AcDbLine
10
668.063507200591
20
222.549999952316
30
0.0
11
667.613506437652
21
223.000000000000
31
0.0
0
LINE
5
90c
100
AcDbEntity
8
0-1
6
DASHED
62
4
100
AcDbLine
10
667.613506437652
20
217.000000000000
30
0.0
11
667.613506437652
21
223.000000000000
31
0.0
0
LINE
5
90d
100
AcDbEntity
8
0-1
6
DASHED
62
4
100
AcDbLine
10
667.613506437652
20
217.000000000000
30
0.0
11
657.563507200591
21
217.000000000000
31
0.0
0
LINE
5
90e
100
AcDbEntity
8
0-1
6
DASHED
62
4
100
AcDbLine
10
667.613506437652
20
223.000000000000
30
0.0
11
657.563507200591
21
223.000000000000
31
0.0
0
LINE
5
90f
100
AcDbEntity
8
0-1
6
CENTER
62
4
100
AcDbLine
10
670.006057359296
20
220.000000000000
30
0.0
11
648.938190317656
21
220.000000000000
31
0.0
0
CIRCLE
5
910
100
AcDbEntity
8
0-0
6
CONTINUOUS
62
7
100
AcDbCircle
10
605.000000000000
20
220.000000000000
30
0.0
40
9.000000000000
0
TEXT
5
911
100
AcDbEntity
8
0-0
62
7
370
-3
100
AcDbText
10
613.751
20
238.795
30
0.0
40
4.208
1
PW18-40B
41
0.531
50
0.000
100
AcDbText
0
POLYLINE
5
912
100
AcDbEntity
8
0-0
6
CONTINUOUS
62
  7
100
AcDb2dPolyline
66
1
10
0.0
20
0.0
30
0.0
70
0
0
VERTEX
5
913
100
AcDbEntity
8
0-0
6
CONTINUOUS
62
  7
100
AcDbVertex
100
AcDb2dVertex
10
733.000000000000
20
229.000000000000
30
0.0
0
VERTEX
5
914
100
AcDbEntity
8
0-0
6
CONTINUOUS
62
  7
100
AcDbVertex
100
AcDb2dVertex
10
729.000000000000
20
229.000000000000
30
0.0
0
VERTEX
5
915
100
AcDbEntity
8
0-0
6
CONTINUOUS
62
  7
100
AcDbVertex
100
AcDb2dVertex
10
729.000000000000
20
211.000000000000
30
0.0
0
VERTEX
5
916
100
AcDbEntity
8
0-0
6
CONTINUOUS
62
  7
100
AcDbVertex
100
AcDb2dVertex
10
733.000000000000
20
211.000000000000
30
0.0
0
VERTEX
5
917
100
AcDbEntity
8
0-0
6
CONTINUOUS
62
  7
100
AcDbVertex
100
AcDb2dVertex
10
733.000000000000
20
229.000000000000
30
0.0
0
SEQEND
5
918
100
AcDbEntity
8
0-0
0
POLYLINE
5
919
100
AcDbEntity
8
0-0
6
CONTINUOUS
62
  7
100
AcDb2dPolyline
66
1
10
0.0
20
0.0
30
0.0
70
0
0
VERTEX
5
91a
100
AcDbEntity
8
0-0
6
CONTINUOUS
62
  7
100
AcDbVertex
100
AcDb2dVertex
10
761.563507200591
20
229.000000000000
30
0.0
0
VERTEX
5
91b
100
AcDbEntity
8
0-0
6
CONTINUOUS
62
  7
100
AcDbVertex
100
AcDb2dVertex
10
757.563507200591
20
229.000000000000
30
0.0
0
VERTEX
5
91c
100
AcDbEntity
8
0-0
6
CONTINUOUS
62
  7
100
AcDbVertex
100
AcDb2dVertex
10
757.563507200591
20
211.000000000000
30
0.0
0
VERTEX
5
91d
100
AcDbEntity
8
0-0
6
CONTINUOUS
62
  7
100
AcDbVertex
100
AcDb2dVertex
10
761.563507200591
20
211.000000000000
30
0.0
0
VERTEX
5
91e
100
AcDbEntity
8
0-0
6
CONTINUOUS
62
  7
100
AcDbVertex
100
AcDb2dVertex
10
761.563507200591
20
229.000000000000
30
0.0
0
SEQEND
5
91f
100
AcDbEntity
8
0-0
0
LINE
5
920
100
AcDbEntity
8
0-0
6
CONTINUOUS
62
7
100
AcDbLine
10
723.199999809265
20
221.214285731316
30
0.0
11
727.699999809265
21
221.214285731316
31
0.0
0
LINE
5
921
100
AcDbEntity
8
0-0
6
CONTINUOUS
62
7
100
AcDbLine
10
723.199999809265
20
221.821428537369
30
0.0
11
727.699999809265
21
221.821428537369
31
0.0
0
LINE
5
922
100
AcDbEntity
8
0-0
6
CONTINUOUS
62
7
100
AcDbLine
10
723.199999809265
20
223.035714387894
30
0.0
11
727.699999809265
21
223.035714387894
31
0.0
0
LINE
5
923
100
AcDbEntity
8
0-0
6
CONTINUOUS
62
7
100
AcDbLine
10
723.199999809265
20
223.642857074738
30
0.0
11
727.699999809265
21
223.642857074738
31
0.0
0
LINE
5
924
100
AcDbEntity
8
0-0
6
CONTINUOUS
62
7
100
AcDbLine
10
723.199999809265
20
222.428571462631
30
0.0
11
727.699999809265
21
222.428571462631
31
0.0
0
LINE
5
925
100
AcDbEntity
8
0-0
6
CONTINUOUS
62
7
100
AcDbLine
10
723.199999809265
20
215.750000000000
30
0.0
11
722.699999809265
21
216.250000000000
31
0.0
0
LINE
5
926
100
AcDbEntity
8
0-0
6
CONTINUOUS
62
7
100
AcDbLine
10
722.699999809265
20
223.750000000000
30
0.0
11
722.699999809265
21
216.250000000000
31
0.0
0
LINE
5
927
100
AcDbEntity
8
0-0
6
CONTINUOUS
62
7
100
AcDbLine
10
722.699999809265
20
223.750000000000
30
0.0
11
723.199999809265
21
224.250000000000
31
0.0
0
LINE
5
928
100
AcDbEntity
8
0-0
6
CONTINUOUS
62
7
100
AcDbLine
10
723.199999809265
20
215.750000000000
30
0.0
11
723.199999809265
21
224.250000000000
31
0.0
0
LINE
5
929
100
AcDbEntity
8
0-0
6
CONTINUOUS
62
7
100
AcDbLine
10
727.699999809265
20
215.750000000000
30
0.0
11
727.699999809265
21
224.250000000000
31
0.0
0
LINE
5
92a
100
AcDbEntity
8
0-0
6
CONTINUOUS
62
7
100
AcDbLine
10
723.199999809265
20
215.750000000000
30
0.0
11
729.000000000000
21
215.750000000000
31
0.0
0
LINE
5
92b
100
AcDbEntity
8
0-0
6
CONTINUOUS
62
7
100
AcDbLine
10
723.199999809265
20
224.250000000000
30
0.0
11
729.000000000000
21
224.250000000000
31
0.0
0
LINE
5
92c
100
AcDbEntity
8
0-0
6
CONTINUOUS
62
7
100
AcDbLine
10
729.000000000000
20
220.375277668238
30
0.0
11
727.699999809265
21
219.624722331762
31
0.0
0
LINE
5
92d
100
AcDbEntity
8
0-0
6
CONTINUOUS
62
7
100
AcDbLine
10
737.661400000000
20
216.844949000000
30
0.0
11
737.979390000000
21
217.718613000000
31
0.0
0
LINE
5
92e
100
AcDbEntity
8
0-0
6
CONTINUOUS
62
7
100
AcDbLine
10
738.100000000000
20
218.402653000000
30
0.0
11
738.100000000000
21
221.597346000000
31
0.0
0
LINE
5
92f
100
AcDbEntity
8
0-0
6
CONTINUOUS
62
7
100
AcDbLine
10
737.979390000000
20
222.281386000000
30
0.0
11
737.661400000000
21
223.155050000000
31
0.0
0
ARC
5
930
100
AcDbEntity
8
0-0
6
CONTINUOUS
62
7
100
AcDbCircle
10
736.100000000000
20
218.402653000000
30
0.0
40
2.000000000000
100
AcDbArc
50
340.000000000000
51
360.000000000000
0
ARC
5
931
100
AcDbEntity
8
0-0
6
CONTINUOUS
62
7
100
AcDbCircle
10
736.100000000000
20
221.597346000000
30
0.0
40
2.000000000000
100
AcDbArc
50
0.000000000000
51
20.000000000000
0
ARC
5
932
100
AcDbEntity
8
0-0
6
CONTINUOUS
62
7
100
AcDbCircle
10
735.312170000000
20
217.700000000000
30
0.0
40
2.500000000000
100
AcDbArc
50
258.178227994579
51
340.000000000000
0
LINE
5
933
100
AcDbEntity
8
0-0
6
CONTINUOUS
62
7
100
AcDbLine
10
734.800000000000
20
216.428462093208
30
0.0
11
734.800000000000
21
215.253025972532
31
0.0
0
ARC
5
934
100
AcDbEntity
8
0-0
6
CONTINUOUS
62
7
100
AcDbCircle
10
735.312170000000
20
222.300000000000
30
0.0
40
2.500000000000
100
AcDbArc
50
20.000000000000
51
101.821772005421
0
LINE
5
935
100
AcDbEntity
8
0-0
6
CONTINUOUS
62
7
100
AcDbLine
10
734.800000000000
20
224.746974027467
30
0.0
11
734.800000000000
21
223.571536906792
31
0.0
0
LINE
5
936
100
AcDbEntity
8
0-0
6
CONTINUOUS
62
7
100
AcDbLine
10
733.600000000000
20
223.250001093208
30
0.0
11
734.800000000000
21
223.571536906792
31
0.0
0
LINE
5
937
100
AcDbEntity
8
0-0
6
CONTINUOUS
62
7
100
AcDbLine
10
734.800000000000
20
216.428462093208
30
0.0
11
733.600000000000
21
216.749997906792
31
0.0
0
LINE
5
938
100
AcDbEntity
8
0-0
6
CONTINUOUS
62
7
100
AcDbLine
10
733.600000000000
20
223.250001093208
30
0.0
11
733.600000000000
21
216.749997906792
31
0.0
0
LINE
5
939
100
AcDbEntity
8
0-0
6
CONTINUOUS
62
7
100
AcDbLine
10
766.663507200591
20
215.000000000000
30
0.0
11
762.163507200591
21
215.000000000000
31
0.0
0
LINE
5
93a
100
AcDbEntity
8
0-0
6
CONTINUOUS
62
7
100
AcDbLine
10
766.663507200591
20
215.000000000000
30
0.0
11
766.663507200591
21
225.000000000000
31
0.0
0
LINE
5
93b
100
AcDbEntity
8
0-0
6
CONTINUOUS
62
7
100
AcDbLine
10
763.363507200591
20
215.000000000000
30
0.0
11
763.363507200591
21
225.000000000000
31
0.0
0
LINE
5
93c
100
AcDbEntity
8
0-0
6
CONTINUOUS
62
7
100
AcDbLine
10
762.163507200591
20
215.000000000000
30
0.0
11
762.163507200591
21
225.000000000000
31
0.0
0
LINE
5
93d
100
AcDbEntity
8
0-0
6
CONTINUOUS
62
7
100
AcDbLine
10
766.663507200591
20
225.000000000000
30
0.0
11
762.163507200591
21
225.000000000000
31
0.0
0
LINE
5
93e
100
AcDbEntity
8
0-0
6
CONTINUOUS
62
7
100
AcDbLine
10
751.763507009856
20
221.214285731316
30
0.0
11
756.263507009856
21
221.214285731316
31
0.0
0
LINE
5
93f
100
AcDbEntity
8
0-0
6
CONTINUOUS
62
7
100
AcDbLine
10
751.763507009856
20
221.821428537369
30
0.0
11
756.263507009856
21
221.821428537369
31
0.0
0
LINE
5
940
100
AcDbEntity
8
0-0
6
CONTINUOUS
62
7
100
AcDbLine
10
751.763507009856
20
223.035714387894
30
0.0
11
756.263507009856
21
223.035714387894
31
0.0
0
LINE
5
941
100
AcDbEntity
8
0-0
6
CONTINUOUS
62
7
100
AcDbLine
10
751.763507009856
20
223.642857074738
30
0.0
11
756.263507009856
21
223.642857074738
31
0.0
0
LINE
5
942
100
AcDbEntity
8
0-0
6
CONTINUOUS
62
7
100
AcDbLine
10
751.763507009856
20
222.428571462631
30
0.0
11
756.263507009856
21
222.428571462631
31
0.0
0
LINE
5
943
100
AcDbEntity
8
0-0
6
CONTINUOUS
62
7
100
AcDbLine
10
751.763507009856
20
215.750000000000
30
0.0
11
751.263507009856
21
216.250000000000
31
0.0
0
LINE
5
944
100
AcDbEntity
8
0-0
6
CONTINUOUS
62
7
100
AcDbLine
10
751.263507009856
20
223.750000000000
30
0.0
11
751.263507009856
21
216.250000000000
31
0.0
0
LINE
5
945
100
AcDbEntity
8
0-0
6
CONTINUOUS
62
7
100
AcDbLine
10
751.263507009856
20
223.750000000000
30
0.0
11
751.763507009856
21
224.250000000000
31
0.0
0
LINE
5
946
100
AcDbEntity
8
0-0
6
CONTINUOUS
62
7
100
AcDbLine
10
751.763507009856
20
215.750000000000
30
0.0
11
751.763507009856
21
224.250000000000
31
0.0
0
LINE
5
947
100
AcDbEntity
8
0-0
6
CONTINUOUS
62
7
100
AcDbLine
10
756.263507009856
20
215.750000000000
30
0.0
11
756.263507009856
21
224.250000000000
31
0.0
0
LINE
5
948
100
AcDbEntity
8
0-0
6
CONTINUOUS
62
7
100
AcDbLine
10
751.763507009856
20
215.750000000000
30
0.0
11
757.563507200591
21
215.750000000000
31
0.0
0
LINE
5
949
100
AcDbEntity
8
0-0
6
CONTINUOUS
62
7
100
AcDbLine
10
751.763507009856
20
224.250000000000
30
0.0
11
757.563507200591
21
224.250000000000
31
0.0
0
LINE
5
94a
100
AcDbEntity
8
0-0
6
CONTINUOUS
62
7
100
AcDbLine
10
757.563507200591
20
220.375277668238
30
0.0
11
756.263507009856
21
219.624722331762
31
0.0
0
POLYLINE
5
94b
100
AcDbEntity
8
0-0
6
CONTINUOUS
62
  7
100
AcDb2dPolyline
66
1
10
0.0
20
0.0
30
0.0
70
0
0
VERTEX
5
94c
100
AcDbEntity
8
0-0
6
CONTINUOUS
62
  7
100
AcDbVertex
100
AcDb2dVertex
10
707.000000000000
20
218.845299482346
30
0.0
0
VERTEX
5
94d
100
AcDbEntity
8
0-0
6
CONTINUOUS
62
  7
100
AcDbVertex
100
AcDb2dVertex
10
707.000000000000
20
221.154700517654
30
0.0
0
VERTEX
5
94e
100
AcDbEntity
8
0-0
6
CONTINUOUS
62
  7
100
AcDbVertex
100
AcDb2dVertex
10
705.000000000000
20
222.309401035309
30
0.0
0
VERTEX
5
94f
100
AcDbEntity
8
0-0
6
CONTINUOUS
62
  7
100
AcDbVertex
100
AcDb2dVertex
10
703.000000000000
20
221.154700517654
30
0.0
0
VERTEX
5
950
100
AcDbEntity
8
0-0
6
CONTINUOUS
62
  7
100
AcDbVertex
100
AcDb2dVertex
10
703.000000000000
20
218.845299482346
30
0.0
0
VERTEX
5
951
100
AcDbEntity
8
0-0
6
CONTINUOUS
62
  7
100
AcDbVertex
100
AcDb2dVertex
10
705.000000000000
20
217.690598964691
30
0.0
0
VERTEX
5
952
100
AcDbEntity
8
0-0
6
CONTINUOUS
62
  7
100
AcDbVertex
100
AcDb2dVertex
10
707.000000000000
20
218.845299482346
30
0.0
0
SEQEND
5
953
100
AcDbEntity
8
0-0
0
CIRCLE
5
954
100
AcDbEntity
8
0-0
6
CONTINUOUS
62
7
100
AcDbCircle
10
705.000000000000
20
220.000000000000
30
0.0
40
4.250000000000
0
LINE
5
955
100
AcDbEntity
8
0-1
6
CENTER
62
4
100
AcDbLine
10
741.442550158705
20
220.000000000000
30
0.0
11
720.374683117065
21
220.000000000000
31
0.0
0
LINE
5
956
100
AcDbEntity
8
0-1
6
CENTER
62
4
100
AcDbLine
10
705.000000000000
20
229.892392393567
30
0.0
11
705.000000000000
21
209.701294540019
31
0.0
0
LINE
5
957
100
AcDbEntity
8
0-1
6
CENTER
62
4
100
AcDbLine
10
716.158202269456
20
220.000000000000
30
0.0
11
693.274958035435
21
220.000000000000
31
0.0
0
LINE
5
958
100
AcDbEntity
8
0-1
6
CENTER
62
4
100
AcDbLine
10
770.006057359296
20
220.000000000000
30
0.0
11
748.938190317656
21
220.000000000000
31
0.0
0
LINE
5
959
100
AcDbEntity
8
0-1
6
DASHED
62
4
100
AcDbLine
10
733.000000000000
20
216.750000000000
30
0.0
11
729.000000000000
21
216.750000000000
31
0.0
0
LINE
5
95a
100
AcDbEntity
8
0-1
6
DASHED
62
4
100
AcDbLine
10
733.000000000000
20
223.250000000000
30
0.0
11
729.000000000000
21
223.250000000000
31
0.0
0
LINE
5
95b
100
AcDbEntity
8
0-1
6
DASHED
62
4
100
AcDbLine
10
729.000000000000
20
217.849999904633
30
0.0
11
737.699999809265
21
217.849999904633
31
0.0
0
POLYLINE
5
95c
100
AcDbEntity
8
0-1
6
DASHED
62
  4
100
AcDb2dPolyline
66
1
10
0.0
20
0.0
30
0.0
70
0
0
VERTEX
5
95d
100
AcDbEntity
8
0-1
6
DASHED
62
  4
100
AcDbVertex
100
AcDb2dVertex
10
729.000000000000
20
222.150000095367
30
0.0
0
VERTEX
5
95e
100
AcDbEntity
8
0-1
6
DASHED
62
  4
100
AcDbVertex
100
AcDb2dVertex
10
737.699999809265
20
222.150000095367
30
0.0
0
VERTEX
5
95f
100
AcDbEntity
8
0-1
6
DASHED
62
  4
100
AcDbVertex
100
AcDb2dVertex
10
737.699999809265
20
217.849999904633
30
0.0
0
SEQEND
5
960
100
AcDbEntity
8
0-1
0
LINE
5
961
100
AcDbEntity
8
0-1
6
DASHED
62
4
100
AcDbLine
10
737.349999427795
20
217.500000000000
30
0.0
11
737.699999809265
21
217.849999904633
31
0.0
0
LINE
5
962
100
AcDbEntity
8
0-1
6
DASHED
62
4
100
AcDbLine
10
737.699999809265
20
222.150000095367
30
0.0
11
737.349999427795
21
222.500000000000
31
0.0
0
LINE
5
963
100
AcDbEntity
8
0-1
6
DASHED
62
4
100
AcDbLine
10
737.349999427795
20
217.500000000000
30
0.0
11
737.349999427795
21
222.500000000000
31
0.0
0
LINE
5
964
100
AcDbEntity
8
0-1
6
DASHED
62
4
100
AcDbLine
10
737.349999427795
20
217.500000000000
30
0.0
11
729.000000000000
21
217.500000000000
31
0.0
0
LINE
5
965
100
AcDbEntity
8
0-1
6
DASHED
62
4
100
AcDbLine
10
737.349999427795
20
222.500000000000
30
0.0
11
729.000000000000
21
222.500000000000
31
0.0
0
LINE
5
966
100
AcDbEntity
8
0-1
6
DASHED
62
4
100
AcDbLine
10
761.563507200591
20
223.250000000000
30
0.0
11
757.563507200591
21
223.250000000000
31
0.0
0
LINE
5
967
100
AcDbEntity
8
0-1
6
DASHED
62
4
100
AcDbLine
10
757.563507200591
20
217.849999904633
30
0.0
11
766.263507009856
21
217.849999904633
31
0.0
0
POLYLINE
5
968
100
AcDbEntity
8
0-1
6
DASHED
62
  4
100
AcDb2dPolyline
66
1
10
0.0
20
0.0
30
0.0
70
0
0
VERTEX
5
969
100
AcDbEntity
8
0-1
6
DASHED
62
  4
100
AcDbVertex
100
AcDb2dVertex
10
757.563507200591
20
222.150000095367
30
0.0
0
VERTEX
5
96a
100
AcDbEntity
8
0-1
6
DASHED
62
  4
100
AcDbVertex
100
AcDb2dVertex
10
766.263507009856
20
222.150000095367
30
0.0
0
VERTEX
5
96b
100
AcDbEntity
8
0-1
6
DASHED
62
  4
100
AcDbVertex
100
AcDb2dVertex
10
766.263507009856
20
217.849999904633
30
0.0
0
SEQEND
5
96c
100
AcDbEntity
8
0-1
0
LINE
5
96d
100
AcDbEntity
8
0-1
6
DASHED
62
4
100
AcDbLine
10
765.913506628387
20
217.500000000000
30
0.0
11
766.263507009856
21
217.849999904633
31
0.0
0
LINE
5
96e
100
AcDbEntity
8
0-1
6
DASHED
62
4
100
AcDbLine
10
766.263507009856
20
222.150000095367
30
0.0
11
765.913506628387
21
222.500000000000
31
0.0
0
LINE
5
96f
100
AcDbEntity
8
0-1
6
DASHED
62
4
100
AcDbLine
10
765.913506628387
20
217.500000000000
30
0.0
11
765.913506628387
21
222.500000000000
31
0.0
0
LINE
5
970
100
AcDbEntity
8
0-1
6
DASHED
62
4
100
AcDbLine
10
765.913506628387
20
217.500000000000
30
0.0
11
757.563507200591
21
217.500000000000
31
0.0
0
LINE
5
971
100
AcDbEntity
8
0-1
6
DASHED
62
4
100
AcDbLine
10
765.913506628387
20
222.500000000000
30
0.0
11
757.563507200591
21
222.500000000000
31
0.0
0
LINE
5
972
100
AcDbEntity
8
0-1
6
DASHED
62
4
100
AcDbLine
10
761.563507200591
20
216.750000000000
30
0.0
11
757.563507200591
21
216.750000000000
31
0.0
0
CIRCLE
5
973
100
AcDbEntity
8
0-0
6
CONTINUOUS
62
7
100
AcDbCircle
10
705.000000000000
20
220.000000000000
30
0.0
40
9.000000000000
0
TEXT
5
974
100
AcDbEntity
8
0-0
62
7
370
-3
100
AcDbText
10
713.751
20
238.795
30
0.0
40
4.208
1
PW18-25B
41
0.506
50
0.000
100
AcDbText
0
LINE
5
975
100
AcDbEntity
8
F-F_J_ADD
6
HIDDEN
62
253
100
AcDbLine
10
415.000000000000
20
190.000000000000
30
0.0
11
785.000000000000
21
190.000000000000
31
0.0
0
LINE
5
976
100
AcDbEntity
8
F-F_J_ADD
6
HIDDEN
62
253
100
AcDbLine
10
145.000000000000
20
320.000000000000
30
0.0
11
785.000000000000
21
320.000000000000
31
0.0
0
LINE
5
977
100
AcDbEntity
8
F-F_J_ADD
6
HIDDEN
62
253
100
AcDbLine
10
585.000000000000
20
190.000000000000
30
0.0
11
585.000000000000
21
320.000000000000
31
0.0
0
LINE
5
978
100
AcDbEntity
8
F-F_J_ADD
6
HIDDEN
62
253
100
AcDbLine
10
685.000000000000
20
190.000000000000
30
0.0
11
685.000000000000
21
320.000000000000
31
0.0
0
LINE
5
979
100
AcDbEntity
8
F-F_J_ADD
6
HIDDEN
62
253
100
AcDbLine
10
785.000000000000
20
190.000000000000
30
0.0
11
785.000000000000
21
320.000000000000
31
0.0
0
ENDSEC
 0
SECTION
  2
OBJECTS
 0
DICTIONARY
  5
C
100
AcDbDictionary
  3
ACAD_GROUP
350
D
  3
ACAD_MLINESTYLE
350
E
 0
DICTIONARY
  5
D
102
{ACAD_REACTORS
102
}
100
AcDbDictionary
 0
DICTIONARY
  5
E
102
{ACAD_REACTORS
102
}
100
AcDbDictionary
  3
STANDARD
350
13
0
MLINESTYLE
  5
13
102
{ACAD_REACTORS
102
}
100
AcDbMlineStyle
  2
STANDARD
 70
    0
3

62
256
51
90.0
52
90.0
71
0
0
ACDBPLACEHOLDER
  5
14
102
{ACAD_REACTORS
102
}
0
ENDSEC
0
EOF
