0
SECTION
2
HEADER
9
$ACADVER
1
AC1015
9
$ACADMAINTVER
 70
6
9
$DWGCODEPAGE
3
ANSI_932
9
$EXTMIN
10
0.000
20
0.000
30
0.0
9
$EXTMAX
10
1189.000
20
841.000
30
0.0
9
$LIMMIN
10
0.000
20
0.000
9
$LIMMAX
10
1189.000
20
841.000
9
$DIMSCALE
40
1.000000
9
$LTSCALE
40
2.000
9
$PDMODE
70
0
9
$PDSIZE
40
40.0
9
$HANDSEED
5
61bda
9
$UNITMODE
70
0
9
$VISRETAIN
70
0
9
$PLINEGEN
70
0
9
$PSLTSCALE
70
1
9
$TREEDEPTH
70
3020
9
$CMLSTYLE
2
STANDARD
9
$CMLJUST
70
0
9
$CMLSCALE
40
1.0
9
$PROXYGRAPHICS
70
1
9
$MEASUREMENT
70
0
9
$CELWEIGHT
370
-1
9
$ENDCAPS
280
0
9
$JOINSTYLE
280
0
9
$LWDISPLAY
290
0
9
$INSUNITS
70
0
9
$HYPERLINKBASE
1

9
$STYLESHEET
1

9
$XEDIT
290
1
9
$CEPSNTYPE
380
0
9
$PSTYLEMODE
290
1
9
$FINGERPRINTGUID
2
{5F082321-0195-11D3-BDFB-0060B0CD5109}
9
$VERSIONGUID
2
{12943756-294D-11D3-98C2-0060B087942D}
9
$EXTNAMES
290
1
9
$PSVPSCALE
40
0.0
9
$OLESTARTUP
290
0
0
ENDSEC
0
SECTION
  2
CLASSES
0
ENDSEC
0
SECTION
2
TABLES
0
TABLE
2
VPORT
5
190
100
AcDbSymbolTable
70
2
0
VPORT
5
191
100
AcDbSymbolTableRecord
100
AcDbViewportTableRecord
2
*ACTIVE
70
0
10
0.0
20
0.0
11
1.0
21
1.0
12
594.500
22
420.500
13
0.0
23
0.0
14
1.0
24
1.0
15
0.0
25
0.0
16
0.0
26
0.0
36
1.0
17
0.0
27
0.0
37
0.0
40
861.594
41
2.0
42
50.0
43
0.0
44
0.0
50
0.0
51
0.0
71
0
72
1000
73
1
74
1
75
0
76
0
77
0
78
0
0
ENDTAB
0
TABLE
2
LTYPE
5
1f4
100
AcDbSymbolTable
70
9
0
LTYPE
5
1f5
100
AcDbSymbolTableRecord
100
AcDbLinetypeTableRecord
2
BYBLOCK
70
 64
3

72
 65
73
  0
40
0.0
0
LTYPE
5
1f6
100
AcDbSymbolTableRecord
100
AcDbLinetypeTableRecord
2
BYLAYER
70
 64
3

72
 65
73
  0
40
0.0
0
LTYPE
5
1f7
100
AcDbSymbolTableRecord
100
AcDbLinetypeTableRecord
2
CONTINUOUS
70
64
3
SolidLine
72
65
73
0
40
0.0
0
LTYPE
5
1f8
100
AcDbSymbolTableRecord
100
AcDbLinetypeTableRecord
2
DOT
70
64
3
--  --  --  --  --  --  --  --     
72
65
73
2
40
3.000
49
1.000
74
0
49
-2.000
74
0
0
LTYPE
5
1f9
100
AcDbSymbolTableRecord
100
AcDbLinetypeTableRecord
2
DASHED
70
64
3
----    ----    ----    ----    
72
65
73
2
40
5.000
49
2.000
74
0
49
-3.000
74
0
0
LTYPE
5
1fa
100
AcDbSymbolTableRecord
100
AcDbLinetypeTableRecord
2
DASHED2
70
64
3
------  ------  ------  ------ 
72
65
73
2
40
10.000
49
4.000
74
0
49
-6.000
74
0
0
LTYPE
5
1fb
100
AcDbSymbolTableRecord
100
AcDbLinetypeTableRecord
2
CENTER
70
64
3
----- - ----- - ----- - ----- - 
72
65
73
4
40
10.000
49
6.000
74
0
49
-3.000
74
0
49
1.000
74
0
49
-3.000
74
0
0
LTYPE
5
1fc
100
AcDbSymbolTableRecord
100
AcDbLinetypeTableRecord
2
CENTER2
70
64
3
----------  --  ----------  -- 
72
65
73
4
40
17.000
49
12.000
74
0
49
-5.000
74
0
49
2.000
74
0
49
-5.000
74
0
0
LTYPE
5
1fd
100
AcDbSymbolTableRecord
100
AcDbLinetypeTableRecord
2
PHANTOM
70
64
3
--- - - --- - - --- - - --- - -
72
65
73
6
40
13.000
49
5.000
74
0
49
-3.000
74
0
49
1.000
74
0
49
-3.000
74
0
49
1.000
74
0
49
-3.000
74
0
0
LTYPE
5
1fe
100
AcDbSymbolTableRecord
100
AcDbLinetypeTableRecord
2
PHANTOM2
70
64
3
--------  -  -  --------  -  -
72
65
73
6
40
20.000
49
6.000
74
0
49
-5.000
74
0
49
2.000
74
0
49
-5.000
74
0
49
2.000
74
0
49
-5.000
74
0
0
LTYPE
5
1ff
100
AcDbSymbolTableRecord
100
AcDbLinetypeTableRecord
2
HIDDEN
70
64
3
-   -   -   -   -   -   -   -   
72
65
73
2
40
3.000
49
0.500
74
0
49
-2.500
74
0
0
ENDTAB
0
TABLE
2
STYLE
5
200
100
AcDbSymbolTable
70
1
0
STYLE
5
201
100
AcDbSymbolTableRecord
100
AcDbTextStyleTableRecord
2
STANDARD
70
0
40
0.0
41
1.0
50
0.0
71
0
42
0.0
3
txt.shx
4
extfont.shx
0
STYLE
5
202
100
AcDbSymbolTableRecord
100
AcDbTextStyleTableRecord
2
TATEGAKI
70
4
40
0.0
41
1.0
50
0.0
71
0
42
0.0
3
txt.shx
4
extfont.shx
0
STYLE
5
203
100
AcDbSymbolTableRecord
100
AcDbTextStyleTableRecord
2
DIM
70
0
40
0.0
41
0.75
50
0.0
71
0
42
0.0
3
txt.shx
4
extfont.shx
0
STYLE
5
204
100
AcDbSymbolTableRecord
100
AcDbTextStyleTableRecord
2
_Gothic_
70
0
40
1.0
41
1.0
50
0.0
71
0
42
10.0
3

4

1001
ACAD
1000
MS Gothic
1071
32817
0
STYLE
5
205
100
AcDbSymbolTableRecord
100
AcDbTextStyleTableRecord
2
_TateGothic_
70
4
40
0.0
41
1.0
50
0.0
71
0
42
0.0
3
@MS Gothic
4

0
ENDTAB
0
TABLE
2
VIEW
5
206
100
AcDbSymbolTable
70
0
0
ENDTAB
0
TABLE
2
UCS
5
207
100
AcDbSymbolTable
70
0
0
ENDTAB
0
TABLE
2
APPID
5
208
100
AcDbSymbolTable
70
1
0
APPID
5
209
100
AcDbSymbolTableRecord
100
AcDbRegAppTableRecord
2
ACAD
70
0
0
ENDTAB
0
TABLE
2
DIMSTYLE
5
403
330
0
100
AcDbSymbolTable
70
1
100
AcDbDimStyleTable
71
0
0
DIMSTYLE
105
404
330
402
100
AcDbSymbolTableRecord
100
AcDbDimStyleTableRecord
2
JAC_DIM
70
0
41
2.000
42
0.000
44
0.0
73
0
74
0
77
1
78
8
79
2
140
0.000
170
0
171
2
172
0
173
0
174
0
175
0
176
0
177
0
178
0
270
2
271
0
272
0
273
2
274
2
340
201
275
0
280
0
281
0
282
0
283
0
284
0
285
0
286
0
287
3
288
0
0
ENDTAB
0
TABLE
2
BLOCK_RECORD
5
405
100
AcDbSymbolTable
70
0
0
BLOCK_RECORD
5
406
100
AcDbSymbolTableRecord
100
AcDbBlockTableRecord
2
*MODEL_SPACE
0
BLOCK_RECORD
5
407
100
AcDbSymbolTableRecord
100
AcDbBlockTableRecord
2
*PAPER_SPACE
0
BLOCK_RECORD
5
408
100
AcDbSymbolTableRecord
100
AcDbBlockTableRecord
2
_JACCONVERT_
0
ENDTAB
0
TABLE
2
LAYER
5
409
100
AcDbSymbolTable
70
10
0
LAYER
5
40a
100
AcDbSymbolTableRecord
100
AcDbLayerTableRecord
2
0
70
0
62
7
6
CONTINUOUS
370
-3
390
14
0
LAYER
5
40b
100
AcDbSymbolTableRecord
100
AcDbLayerTableRecord
2
0-0
70
0
62
7
6
CONTINUOUS
370
-3
390
14
0
LAYER
5
40c
100
AcDbSymbolTableRecord
100
AcDbLayerTableRecord
2
0-1
70
0
62
7
6
CONTINUOUS
370
-3
390
14
0
LAYER
5
40d
100
AcDbSymbolTableRecord
100
AcDbLayerTableRecord
2
0-F
70
0
62
7
6
CONTINUOUS
370
-3
390
14
0
LAYER
5
40e
100
AcDbSymbolTableRecord
100
AcDbLayerTableRecord
2
F-F_J_ADD
70
0
62
-7
6
CONTINUOUS
290
0
370
-3
390
14
0
ENDTAB
0
ENDSEC
0
SECTION
2
BLOCKS
0
BLOCK
5
40f
100
AcDbEntity
67
1
8
0
100
AcDbBlockBegin
2
*MODEL_SPACE
70
0
10
0.0
20
0.0
30
0.0
3
*MODEL_SPACE
1

0
ENDBLK
5
410
100
AcDbEntity
8
0
100
AcDbBlockEnd
0
BLOCK
5
411
100
AcDbEntity
67
1
8
0
100
AcDbBlockBegin
2
*PAPER_SPACE
70
0
10
0.0
20
0.0
30
0.0
3
*PAPER_SPACE
1

0
ENDBLK
5
412
100
AcDbEntity
67
1
8
0
100
AcDbBlockEnd
0
BLOCK
5
413
100
AcDbEntity
8
0
100
AcDbBlockBegin
2
_JACCONVERT_
70
2
10
0.0
20
0.0
30
0.0
3
_JACCONVERT_
1
_JACCONVERT_
0
ATTDEF
5
414
100
AcDbEntity
8
0
62
0
100
AcDbText
10
0.0
20
0.0
30
0.0
40
1.0
1
User:UnSettingUp
100
AcDbAttributeDefinition
3

2
USER
70
8
0
ATTDEF
5
415
100
AcDbEntity
8
0
62
0
100
AcDbText
10
0.0
20
2.0
30
0.0
40
1.0
1
Date:23/07/14 16:41
100
AcDbAttributeDefinition
3

2
REVDATE
70
8
0
ATTDEF
5
416
100
AcDbEntity
8
0
62
0
100
AcDbText
10
0.0
20
4.0
30
0.0
40
1.0
1
File:102_LECO25_guide.dxf
100
AcDbAttributeDefinition
3

2
FNAME
70
8
0
ATTDEF
5
417
100
AcDbEntity
8
0
62
0
100
AcDbText
10
0.0
20
6.0
30
0.0
40
1.0
1
JacConvert Version3.11 copyright (c) 2001-2016 K.Nakahara
100
AcDbAttributeDefinition
3

2
VER
70
8
0
ENDBLK
5
418
100
AcDbEntity
67
1
8
0
100
AcDbBlockEnd
0
ENDSEC
0
SECTION
2
ENTITIES
0
POLYLINE
5
419
100
AcDbEntity
8
0-0
6
CONTINUOUS
62
  7
100
AcDb2dPolyline
66
1
10
0.0
20
0.0
30
0.0
70
0
0
VERTEX
5
41a
100
AcDbEntity
8
0-0
6
CONTINUOUS
62
  7
100
AcDbVertex
100
AcDb2dVertex
10
51.250000000000
20
100.721687836487
30
0.0
0
VERTEX
5
41b
100
AcDbEntity
8
0-0
6
CONTINUOUS
62
  7
100
AcDbVertex
100
AcDb2dVertex
10
50.000000000000
20
101.443375672974
30
0.0
0
VERTEX
5
41c
100
AcDbEntity
8
0-0
6
CONTINUOUS
62
  7
100
AcDbVertex
100
AcDb2dVertex
10
48.750000000000
20
100.721687836487
30
0.0
0
VERTEX
5
41d
100
AcDbEntity
8
0-0
6
CONTINUOUS
62
  7
100
AcDbVertex
100
AcDb2dVertex
10
48.750000000000
20
99.278312163513
30
0.0
0
VERTEX
5
41e
100
AcDbEntity
8
0-0
6
CONTINUOUS
62
  7
100
AcDbVertex
100
AcDb2dVertex
10
50.000000000000
20
98.556624327026
30
0.0
0
VERTEX
5
41f
100
AcDbEntity
8
0-0
6
CONTINUOUS
62
  7
100
AcDbVertex
100
AcDb2dVertex
10
51.250000000000
20
99.278312163513
30
0.0
0
VERTEX
5
420
100
AcDbEntity
8
0-0
6
CONTINUOUS
62
  7
100
AcDbVertex
100
AcDb2dVertex
10
51.250000000000
20
100.721687836487
30
0.0
0
SEQEND
5
421
100
AcDbEntity
8
0-0
0
CIRCLE
5
422
100
AcDbEntity
8
0-0
6
CONTINUOUS
62
7
100
AcDbCircle
10
50.000000000000
20
100.000000000000
30
0.0
40
8.000000000000
0
CIRCLE
5
423
100
AcDbEntity
8
0-0
6
CONTINUOUS
62
7
100
AcDbCircle
10
50.000000000000
20
100.000000000000
30
0.0
40
9.500000000000
0
CIRCLE
5
424
100
AcDbEntity
8
0-0
6
CONTINUOUS
62
7
100
AcDbCircle
10
50.000000000000
20
100.000000000000
30
0.0
40
2.750000000000
0
LINE
5
425
100
AcDbEntity
8
0-1
6
CENTER
62
4
100
AcDbLine
10
50.000000000000
20
90.500000000000
30
0.0
11
50.000000000000
21
109.500000000000
31
0.0
0
LINE
5
426
100
AcDbEntity
8
0-1
6
CENTER
62
4
100
AcDbLine
10
40.500000000000
20
100.000000000000
30
0.0
11
59.500000000000
21
100.000000000000
31
0.0
0
LINE
5
427
100
AcDbEntity
8
0-0
6
CONTINUOUS
62
7
100
AcDbLine
10
87.761985842867
20
108.500000000000
30
0.0
11
87.761985842867
21
91.500000000000
31
0.0
0
POLYLINE
5
428
100
AcDbEntity
8
0-0
6
CONTINUOUS
62
  7
100
AcDb2dPolyline
66
1
10
0.0
20
0.0
30
0.0
70
0
0
VERTEX
5
429
100
AcDbEntity
8
0-0
6
CONTINUOUS
62
  7
100
AcDbVertex
100
AcDb2dVertex
10
87.761985842867
20
96.000000000000
30
0.0
0
VERTEX
5
42a
100
AcDbEntity
8
0-0
6
CONTINUOUS
62
  7
100
AcDbVertex
100
AcDb2dVertex
10
88.761985842867
20
96.000000000000
30
0.0
0
VERTEX
5
42b
100
AcDbEntity
8
0-0
6
CONTINUOUS
62
  7
100
AcDbVertex
100
AcDb2dVertex
10
88.761985842867
20
104.000000000000
30
0.0
0
VERTEX
5
42c
100
AcDbEntity
8
0-0
6
CONTINUOUS
62
  7
100
AcDbVertex
100
AcDb2dVertex
10
87.761985842867
20
104.000000000000
30
0.0
0
SEQEND
5
42d
100
AcDbEntity
8
0-0
0
LINE
5
42e
100
AcDbEntity
8
0-0
6
CONTINUOUS
62
7
100
AcDbLine
10
88.761985842867
20
103.000000000000
30
0.0
11
95.961985842867
21
103.000000000000
31
0.0
0
POLYLINE
5
42f
100
AcDbEntity
8
0-0
6
CONTINUOUS
62
  7
100
AcDb2dPolyline
66
1
10
0.0
20
0.0
30
0.0
70
0
0
VERTEX
5
430
100
AcDbEntity
8
0-0
6
CONTINUOUS
62
  7
100
AcDbVertex
100
AcDb2dVertex
10
95.961985842867
20
97.000000000000
30
0.0
0
VERTEX
5
431
100
AcDbEntity
8
0-0
6
CONTINUOUS
62
  7
100
AcDbVertex
100
AcDb2dVertex
10
96.761985842867
20
97.800000000000
30
0.0
0
VERTEX
5
432
100
AcDbEntity
8
0-0
6
CONTINUOUS
62
  7
100
AcDbVertex
100
AcDb2dVertex
10
96.761985842867
20
102.200000000000
30
0.0
0
SEQEND
5
433
100
AcDbEntity
8
0-0
0
LINE
5
434
100
AcDbEntity
8
0-0
6
CONTINUOUS
62
7
100
AcDbLine
10
88.761985842867
20
97.000000000000
30
0.0
11
95.961985842867
21
97.000000000000
31
0.0
0
LINE
5
435
100
AcDbEntity
8
0-0
6
CONTINUOUS
62
7
100
AcDbLine
10
81.761985842867
20
91.500000000000
30
0.0
11
81.761985842867
21
108.500000000000
31
0.0
0
LINE
5
436
100
AcDbEntity
8
0-0
6
CONTINUOUS
62
7
100
AcDbLine
10
95.961985842867
20
103.000000000000
30
0.0
11
96.761985842867
21
102.200000000000
31
0.0
0
ARC
5
437
100
AcDbEntity
8
0-0
6
CONTINUOUS
62
7
100
AcDbCircle
10
84.761985842867
20
104.500000000000
30
0.0
40
5.000000000000
100
AcDbArc
50
53.130102354156
51
126.869897645844
0
ARC
5
438
100
AcDbEntity
8
0-0
6
CONTINUOUS
62
7
100
AcDbCircle
10
84.761985842867
20
95.500000000000
30
0.0
40
5.000000000000
100
AcDbArc
50
233.130102354156
51
306.869897645844
0
LINE
5
439
100
AcDbEntity
8
0-1
6
CENTER
62
4
100
AcDbLine
10
81.761985842867
20
100.000000000000
30
0.0
11
96.761985842867
21
100.000000000000
31
0.0
0
LINE
5
43a
100
AcDbEntity
8
0-1
6
CONTINUOUS
62
4
100
AcDbLine
10
89.223866058219
20
102.200000000000
30
0.0
11
88.761985842867
21
103.000000000000
31
0.0
0
LINE
5
43b
100
AcDbEntity
8
0-1
6
CONTINUOUS
62
4
100
AcDbLine
10
89.223866058219
20
103.000000000000
30
0.0
11
89.223866058219
21
97.000000000000
31
0.0
0
LINE
5
43c
100
AcDbEntity
8
0-1
6
CONTINUOUS
62
4
100
AcDbLine
10
89.188946593623
20
97.739517713146
30
0.0
11
88.761985842867
21
97.000000000000
31
0.0
0
LINE
5
43d
100
AcDbEntity
8
0-1
6
CONTINUOUS
62
4
100
AcDbLine
10
96.701503556013
20
97.739517713146
30
0.0
11
89.188946593623
21
97.739517713146
31
0.0
0
LINE
5
43e
100
AcDbEntity
8
0-1
6
CONTINUOUS
62
4
100
AcDbLine
10
96.761985842867
20
102.200000000000
30
0.0
11
89.223866058219
21
102.200000000000
31
0.0
0
LINE
5
43f
100
AcDbEntity
8
0-1
6
CONTINUOUS
62
4
100
AcDbLine
10
95.961985842867
20
103.000000000000
30
0.0
11
95.961985842867
21
97.000000000000
31
0.0
0
LINE
5
440
100
AcDbEntity
8
0-1
6
CENTER
62
4
100
AcDbLine
10
84.761985842867
20
109.788517444575
30
0.0
11
84.761985842867
21
90.211482555400
31
0.0
0
LINE
5
441
100
AcDbEntity
8
0-1
6
CENTER
62
4
100
AcDbLine
10
130.000000002697
20
109.788517444575
30
0.0
11
130.000000002697
21
90.211482555400
31
0.0
0
LINE
5
442
100
AcDbEntity
8
0-0
6
CONTINUOUS
62
7
100
AcDbLine
10
129.560000002384
20
102.200000047684
30
0.0
11
129.560000002384
21
101.320000052452
31
0.0
0
POLYLINE
5
443
100
AcDbEntity
8
0-0
6
CONTINUOUS
62
  7
100
AcDb2dPolyline
66
1
10
0.0
20
0.0
30
0.0
70
0
0
VERTEX
5
444
100
AcDbEntity
8
0-0
6
CONTINUOUS
62
  7
100
AcDbVertex
100
AcDb2dVertex
10
129.560000002384
20
102.200000047684
30
0.0
0
VERTEX
5
445
100
AcDbEntity
8
0-0
6
CONTINUOUS
62
  7
100
AcDbVertex
100
AcDb2dVertex
10
130.439999997616
20
102.200000047684
30
0.0
0
VERTEX
5
446
100
AcDbEntity
8
0-0
6
CONTINUOUS
62
  7
100
AcDbVertex
100
AcDb2dVertex
10
130.439999997616
20
101.320000052452
30
0.0
0
SEQEND
5
447
100
AcDbEntity
8
0-0
0
POLYLINE
5
448
100
AcDbEntity
8
0-0
6
CONTINUOUS
62
  7
100
AcDb2dPolyline
66
1
10
0.0
20
0.0
30
0.0
70
0
0
VERTEX
5
449
100
AcDbEntity
8
0-0
6
CONTINUOUS
62
  7
100
AcDbVertex
100
AcDb2dVertex
10
131.320000052452
20
100.439999997616
30
0.0
0
VERTEX
5
44a
100
AcDbEntity
8
0-0
6
CONTINUOUS
62
  7
100
AcDbVertex
100
AcDb2dVertex
10
132.200000047684
20
100.439999997616
30
0.0
0
VERTEX
5
44b
100
AcDbEntity
8
0-0
6
CONTINUOUS
62
  7
100
AcDbVertex
100
AcDb2dVertex
10
132.200000047684
20
99.560000002384
30
0.0
0
VERTEX
5
44c
100
AcDbEntity
8
0-0
6
CONTINUOUS
62
  7
100
AcDbVertex
100
AcDb2dVertex
10
131.320000052452
20
99.560000002384
30
0.0
0
SEQEND
5
44d
100
AcDbEntity
8
0-0
0
POLYLINE
5
44e
100
AcDbEntity
8
0-0
6
CONTINUOUS
62
  7
100
AcDb2dPolyline
66
1
10
0.0
20
0.0
30
0.0
70
0
0
VERTEX
5
44f
100
AcDbEntity
8
0-0
6
CONTINUOUS
62
  7
100
AcDbVertex
100
AcDb2dVertex
10
130.439999997616
20
98.679999947548
30
0.0
0
VERTEX
5
450
100
AcDbEntity
8
0-0
6
CONTINUOUS
62
  7
100
AcDbVertex
100
AcDb2dVertex
10
130.439999997616
20
97.799999952316
30
0.0
0
VERTEX
5
451
100
AcDbEntity
8
0-0
6
CONTINUOUS
62
  7
100
AcDbVertex
100
AcDb2dVertex
10
129.560000002384
20
97.799999952316
30
0.0
0
VERTEX
5
452
100
AcDbEntity
8
0-0
6
CONTINUOUS
62
  7
100
AcDbVertex
100
AcDb2dVertex
10
129.560000002384
20
98.679999947548
30
0.0
0
SEQEND
5
453
100
AcDbEntity
8
0-0
0
POLYLINE
5
454
100
AcDbEntity
8
0-0
6
CONTINUOUS
62
  7
100
AcDb2dPolyline
66
1
10
0.0
20
0.0
30
0.0
70
0
0
VERTEX
5
455
100
AcDbEntity
8
0-0
6
CONTINUOUS
62
  7
100
AcDbVertex
100
AcDb2dVertex
10
128.679999947548
20
99.560000002384
30
0.0
0
VERTEX
5
456
100
AcDbEntity
8
0-0
6
CONTINUOUS
62
  7
100
AcDbVertex
100
AcDb2dVertex
10
127.799999952316
20
99.560000002384
30
0.0
0
VERTEX
5
457
100
AcDbEntity
8
0-0
6
CONTINUOUS
62
  7
100
AcDbVertex
100
AcDb2dVertex
10
127.799999952316
20
100.439999997616
30
0.0
0
VERTEX
5
458
100
AcDbEntity
8
0-0
6
CONTINUOUS
62
  7
100
AcDbVertex
100
AcDb2dVertex
10
128.679999947548
20
100.439999997616
30
0.0
0
SEQEND
5
459
100
AcDbEntity
8
0-0
0
LINE
5
45a
100
AcDbEntity
8
0-0
6
CONTINUOUS
62
7
100
AcDbLine
10
153.328707801041
20
108.500000000000
30
0.0
11
153.328707801041
21
91.500000000000
31
0.0
0
LINE
5
45b
100
AcDbEntity
8
0-0
6
CONTINUOUS
62
7
100
AcDbLine
10
159.328707801041
20
91.500000000000
30
0.0
11
159.328707801041
21
108.500000000000
31
0.0
0
POLYLINE
5
45c
100
AcDbEntity
8
0-0
6
CONTINUOUS
62
  7
100
AcDb2dPolyline
66
1
10
0.0
20
0.0
30
0.0
70
0
0
VERTEX
5
45d
100
AcDbEntity
8
0-0
6
CONTINUOUS
62
  7
100
AcDbVertex
100
AcDb2dVertex
10
159.328707801041
20
104.100000000000
30
0.0
0
VERTEX
5
45e
100
AcDbEntity
8
0-0
6
CONTINUOUS
62
  7
100
AcDbVertex
100
AcDb2dVertex
10
161.328707801041
20
104.100000000000
30
0.0
0
VERTEX
5
45f
100
AcDbEntity
8
0-0
6
CONTINUOUS
62
  7
100
AcDbVertex
100
AcDb2dVertex
10
161.328707801041
20
95.900000000000
30
0.0
0
VERTEX
5
460
100
AcDbEntity
8
0-0
6
CONTINUOUS
62
  7
100
AcDbVertex
100
AcDb2dVertex
10
159.328707801041
20
95.900000000000
30
0.0
0
SEQEND
5
461
100
AcDbEntity
8
0-0
0
POLYLINE
5
462
100
AcDbEntity
8
0-0
6
CONTINUOUS
62
  7
100
AcDb2dPolyline
66
1
10
0.0
20
0.0
30
0.0
70
0
0
VERTEX
5
463
100
AcDbEntity
8
0-0
6
CONTINUOUS
62
  7
100
AcDbVertex
100
AcDb2dVertex
10
161.328707801041
20
97.000000000000
30
0.0
0
VERTEX
5
464
100
AcDbEntity
8
0-0
6
CONTINUOUS
62
  7
100
AcDbVertex
100
AcDb2dVertex
10
168.878707991776
20
97.000000000000
30
0.0
0
VERTEX
5
465
100
AcDbEntity
8
0-0
6
CONTINUOUS
62
  7
100
AcDbVertex
100
AcDb2dVertex
10
169.328707801041
20
97.450000047684
30
0.0
0
VERTEX
5
466
100
AcDbEntity
8
0-0
6
CONTINUOUS
62
  7
100
AcDbVertex
100
AcDb2dVertex
10
169.328707801041
20
102.549999952316
30
0.0
0
VERTEX
5
467
100
AcDbEntity
8
0-0
6
CONTINUOUS
62
  7
100
AcDbVertex
100
AcDb2dVertex
10
168.878707991776
20
103.000000000000
30
0.0
0
VERTEX
5
468
100
AcDbEntity
8
0-0
6
CONTINUOUS
62
  7
100
AcDbVertex
100
AcDb2dVertex
10
161.328707801041
20
103.000000000000
30
0.0
0
SEQEND
5
469
100
AcDbEntity
8
0-0
0
ARC
5
46a
100
AcDbEntity
8
0-0
6
CONTINUOUS
62
7
100
AcDbCircle
10
128.679999947548
20
101.320000052452
30
0.0
40
0.879999995232
100
AcDbArc
50
270.000000000000
51
360.000000000000
0
ARC
5
46b
100
AcDbEntity
8
0-0
6
CONTINUOUS
62
7
100
AcDbCircle
10
156.328707801041
20
104.500000000000
30
0.0
40
5.000000000000
100
AcDbArc
50
53.130102354156
51
126.869897645844
0
ARC
5
46c
100
AcDbEntity
8
0-0
6
CONTINUOUS
62
7
100
AcDbCircle
10
156.328707801041
20
95.500000000000
30
0.0
40
5.000000000000
100
AcDbArc
50
233.130102354156
51
306.869897645844
0
CIRCLE
5
46d
100
AcDbEntity
8
0-0
6
CONTINUOUS
62
7
100
AcDbCircle
10
130.000000000000
20
100.000000000000
30
0.0
40
9.500000000000
0
CIRCLE
5
46e
100
AcDbEntity
8
0-0
6
CONTINUOUS
62
7
100
AcDbCircle
10
130.000000000000
20
100.000000000000
30
0.0
40
4.000000000000
0
ARC
5
46f
100
AcDbEntity
8
0-0
6
CONTINUOUS
62
7
100
AcDbCircle
10
131.320000052452
20
101.320000052452
30
0.0
40
0.879999995232
100
AcDbArc
50
180.000000000000
51
270.000000000000
0
ARC
5
470
100
AcDbEntity
8
0-0
6
CONTINUOUS
62
7
100
AcDbCircle
10
131.320000052452
20
98.679999947548
30
0.0
40
0.879999995232
100
AcDbArc
50
90.000000000000
51
180.000000000000
0
ARC
5
471
100
AcDbEntity
8
0-0
6
CONTINUOUS
62
7
100
AcDbCircle
10
128.679999947548
20
98.679999947548
30
0.0
40
0.879999995232
100
AcDbArc
50
0.000000000000
51
90.000000000000
0
LINE
5
472
100
AcDbEntity
8
0-1
6
CENTER
62
4
100
AcDbLine
10
139.500000000000
20
100.000000000000
30
0.0
11
120.500000000000
21
100.000000000000
31
0.0
0
LINE
5
473
100
AcDbEntity
8
0-1
6
CENTER
62
4
100
AcDbLine
10
156.328707801041
20
109.500000000000
30
0.0
11
156.328707801041
21
90.500000000000
31
0.0
0
LINE
5
474
100
AcDbEntity
8
0-1
6
CENTER
62
4
100
AcDbLine
10
153.328707801041
20
100.000000000000
30
0.0
11
169.328707801041
21
100.000000000000
31
0.0
0
LINE
5
475
100
AcDbEntity
8
0-1
6
CONTINUOUS
62
4
100
AcDbLine
10
161.328707801041
20
102.549999952316
30
0.0
11
169.328707801041
21
102.549999952316
31
0.0
0
LINE
5
476
100
AcDbEntity
8
0-1
6
CONTINUOUS
62
4
100
AcDbLine
10
169.328707801041
20
97.450000047684
30
0.0
11
161.328707801041
21
97.450000047684
31
0.0
0
LINE
5
477
100
AcDbEntity
8
0-1
6
CONTINUOUS
62
4
100
AcDbLine
10
168.878707991776
20
103.000000000000
30
0.0
11
168.878707991776
21
97.000000000000
31
0.0
0
LINE
5
478
100
AcDbEntity
8
0-0
6
CONTINUOUS
62
7
100
AcDbLine
10
262.300000000000
20
110.000000000000
30
0.0
11
210.000000000000
21
110.000000000000
31
0.0
0
LINE
5
479
100
AcDbEntity
8
0-0
6
CONTINUOUS
62
7
100
AcDbLine
10
210.000000000000
20
90.000000000000
30
0.0
11
262.300000000000
21
90.000000000000
31
0.0
0
LINE
5
47a
100
AcDbEntity
8
0-0
6
CONTINUOUS
62
7
100
AcDbLine
10
267.300000000000
20
95.000000000000
30
0.0
11
267.300000000000
21
105.000000000000
31
0.0
0
CIRCLE
5
47b
100
AcDbEntity
8
0-0
6
CONTINUOUS
62
7
100
AcDbCircle
10
210.000000000000
20
100.000000000000
30
0.0
40
3.050000000000
0
CIRCLE
5
47c
100
AcDbEntity
8
0-0
6
CONTINUOUS
62
7
100
AcDbCircle
10
241.300000000000
20
100.000000000000
30
0.0
40
2.550000000000
0
CIRCLE
5
47d
100
AcDbEntity
8
0-0
6
CONTINUOUS
62
7
100
AcDbCircle
10
261.300000000000
20
100.000000000000
30
0.0
40
2.550000000000
0
ARC
5
47e
100
AcDbEntity
8
0-0
6
CONTINUOUS
62
7
100
AcDbCircle
10
210.000000000000
20
100.000000000000
30
0.0
40
10.000000000000
100
AcDbArc
50
90.000000000000
51
270.000000000000
0
ARC
5
47f
100
AcDbEntity
8
0-0
6
CONTINUOUS
62
7
100
AcDbCircle
10
262.300000000000
20
105.000000000000
30
0.0
40
5.000000000000
100
AcDbArc
50
0.000000000000
51
90.000000000000
0
ARC
5
480
100
AcDbEntity
8
0-0
6
CONTINUOUS
62
7
100
AcDbCircle
10
262.300000000000
20
95.000000000000
30
0.0
40
5.000000000000
100
AcDbArc
50
270.000000000000
51
360.000000000000
0
LINE
5
481
100
AcDbEntity
8
0-1
6
CENTER
62
4
100
AcDbLine
10
210.000000000000
20
90.000000000000
30
0.0
11
210.000000000000
21
110.000000000000
31
0.0
0
LINE
5
482
100
AcDbEntity
8
0-1
6
CENTER
62
4
100
AcDbLine
10
200.000004726055
20
100.000000000000
30
0.0
11
267.300000000000
21
100.000000000000
31
0.0
0
LINE
5
483
100
AcDbEntity
8
0-1
6
CENTER
62
4
100
AcDbLine
10
241.300000000000
20
93.302694252814
30
0.0
11
241.300000000000
21
106.639923690600
31
0.0
0
LINE
5
484
100
AcDbEntity
8
0-1
6
CENTER
62
4
100
AcDbLine
10
261.300000000000
20
93.302694252814
30
0.0
11
261.300000000000
21
106.639923690600
31
0.0
0
LINE
5
485
100
AcDbEntity
8
0-0
6
CONTINUOUS
62
7
100
AcDbLine
10
331.734042357476
20
84.000000000000
30
0.0
11
343.300000000000
21
84.000000000000
31
0.0
0
LINE
5
486
100
AcDbEntity
8
0-0
6
CONTINUOUS
62
7
100
AcDbLine
10
330.439947131964
20
84.170370868555
30
0.0
11
307.411809548975
21
90.340741737109
31
0.0
0
LINE
5
487
100
AcDbEntity
8
0-0
6
CONTINUOUS
62
7
100
AcDbLine
10
307.411809548975
20
109.659258262891
30
0.0
11
330.439947131964
21
115.829629131445
31
0.0
0
LINE
5
488
100
AcDbEntity
8
0-0
6
CONTINUOUS
62
7
100
AcDbLine
10
331.734042357476
20
116.000000000000
30
0.0
11
343.300000000000
21
116.000000000000
31
0.0
0
LINE
5
489
100
AcDbEntity
8
0-0
6
CONTINUOUS
62
7
100
AcDbLine
10
348.300000000000
20
111.000000000000
30
0.0
11
348.300000000000
21
89.000000000000
31
0.0
0
CIRCLE
5
48a
100
AcDbEntity
8
0-0
6
CONTINUOUS
62
7
100
AcDbCircle
10
336.800000000000
20
90.000000000000
30
0.0
40
2.550000000000
0
CIRCLE
5
48b
100
AcDbEntity
8
0-0
6
CONTINUOUS
62
7
100
AcDbCircle
10
336.800000000000
20
110.000000000000
30
0.0
40
2.550000000000
0
CIRCLE
5
48c
100
AcDbEntity
8
0-0
6
CONTINUOUS
62
7
100
AcDbCircle
10
310.000000000000
20
100.000000000000
30
0.0
40
3.050000000000
0
ARC
5
48d
100
AcDbEntity
8
0-0
6
CONTINUOUS
62
7
100
AcDbCircle
10
310.000000000000
20
100.000000000000
30
0.0
40
10.000000000000
100
AcDbArc
50
105.000000000000
51
255.000000000000
0
ARC
5
48e
100
AcDbEntity
8
0-0
6
CONTINUOUS
62
7
100
AcDbCircle
10
331.734042357476
20
89.000000000000
30
0.0
40
5.000000000000
100
AcDbArc
50
255.000000000000
51
270.000000000000
0
ARC
5
48f
100
AcDbEntity
8
0-0
6
CONTINUOUS
62
7
100
AcDbCircle
10
331.734042357476
20
111.000000000000
30
0.0
40
5.000000000000
100
AcDbArc
50
90.000000000000
51
105.000000000000
0
ARC
5
490
100
AcDbEntity
8
0-0
6
CONTINUOUS
62
7
100
AcDbCircle
10
343.300000000000
20
111.000000000000
30
0.0
40
5.000000000000
100
AcDbArc
50
0.000000000000
51
90.000000000000
0
ARC
5
491
100
AcDbEntity
8
0-0
6
CONTINUOUS
62
7
100
AcDbCircle
10
343.300000000000
20
89.000000000000
30
0.0
40
5.000000000000
100
AcDbArc
50
270.000000000000
51
360.000000000000
0
LINE
5
492
100
AcDbEntity
8
0-1
6
CENTER
62
4
100
AcDbLine
10
336.800000000000
20
116.000000000000
30
0.0
11
336.800000000000
21
84.000000000000
31
0.0
0
LINE
5
493
100
AcDbEntity
8
0-1
6
CENTER
62
4
100
AcDbLine
10
340.378315411673
20
90.000000000000
30
0.0
11
332.786130811264
21
90.000000000000
31
0.0
0
LINE
5
494
100
AcDbEntity
8
0-1
6
CENTER
62
4
100
AcDbLine
10
310.000000000000
20
95.588031010000
30
0.0
11
310.000000000000
21
104.411968990000
31
0.0
0
LINE
5
495
100
AcDbEntity
8
0-1
6
CENTER
62
4
100
AcDbLine
10
340.378315411673
20
110.000000000000
30
0.0
11
332.613581161255
21
110.000000000000
31
0.0
0
LINE
5
496
100
AcDbEntity
8
0-1
6
CENTER
62
4
100
AcDbLine
10
341.885878109019
20
100.000000000000
30
0.0
11
305.656559373000
21
100.000000000000
31
0.0
0
LINE
5
497
100
AcDbEntity
8
0-0
6
CONTINUOUS
62
7
100
AcDbLine
10
307.411809548975
20
59.659258262891
30
0.0
11
330.439947131964
21
65.829629131445
31
0.0
0
LINE
5
498
100
AcDbEntity
8
0-0
6
CONTINUOUS
62
7
100
AcDbLine
10
331.734042357476
20
66.000000000000
30
0.0
11
343.300000000000
21
66.000000000000
31
0.0
0
LINE
5
499
100
AcDbEntity
8
0-0
6
CONTINUOUS
62
7
100
AcDbLine
10
343.300000000000
20
34.000000000000
30
0.0
11
331.734042357476
21
34.000000000000
31
0.0
0
LINE
5
49a
100
AcDbEntity
8
0-0
6
CONTINUOUS
62
7
100
AcDbLine
10
330.439947131964
20
34.170370868555
30
0.0
11
307.411809548975
21
40.340741737109
31
0.0
0
LINE
5
49b
100
AcDbEntity
8
0-0
6
CONTINUOUS
62
7
100
AcDbLine
10
348.300000000000
20
61.000000000000
30
0.0
11
348.300000000000
21
39.000000000000
31
0.0
0
LINE
5
49c
100
AcDbEntity
8
0-0
6
CONTINUOUS
62
7
100
AcDbLine
10
336.800000000000
20
37.450000000000
30
0.0
11
341.800000000000
21
37.450000000000
31
0.0
0
LINE
5
49d
100
AcDbEntity
8
0-0
6
CONTINUOUS
62
7
100
AcDbLine
10
341.800000000000
20
42.550000000000
30
0.0
11
336.800000000000
21
42.550000000000
31
0.0
0
LINE
5
49e
100
AcDbEntity
8
0-0
6
CONTINUOUS
62
7
100
AcDbLine
10
336.800000000000
20
62.550000000000
30
0.0
11
341.800000000000
21
62.550000000000
31
0.0
0
LINE
5
49f
100
AcDbEntity
8
0-0
6
CONTINUOUS
62
7
100
AcDbLine
10
341.800000000000
20
57.450000000000
30
0.0
11
336.800000000000
21
57.450000000000
31
0.0
0
CIRCLE
5
4a0
100
AcDbEntity
8
0-0
6
CONTINUOUS
62
7
100
AcDbCircle
10
310.000000000000
20
50.000000000000
30
0.0
40
3.050000000000
0
ARC
5
4a1
100
AcDbEntity
8
0-0
6
CONTINUOUS
62
7
100
AcDbCircle
10
336.800000000000
20
40.000000000000
30
0.0
40
2.550000000000
100
AcDbArc
50
90.000000000000
51
270.000000000000
0
ARC
5
4a2
100
AcDbEntity
8
0-0
6
CONTINUOUS
62
7
100
AcDbCircle
10
341.800000000000
20
40.000000000000
30
0.0
40
2.550000000000
100
AcDbArc
50
270.000000000000
51
450.000000000000
0
ARC
5
4a3
100
AcDbEntity
8
0-0
6
CONTINUOUS
62
7
100
AcDbCircle
10
336.800000000000
20
60.000000000000
30
0.0
40
2.550000000000
100
AcDbArc
50
90.000000000000
51
270.000000000000
0
ARC
5
4a4
100
AcDbEntity
8
0-0
6
CONTINUOUS
62
7
100
AcDbCircle
10
341.800000000000
20
60.000000000000
30
0.0
40
2.550000000000
100
AcDbArc
50
270.000000000000
51
450.000000000000
0
ARC
5
4a5
100
AcDbEntity
8
0-0
6
CONTINUOUS
62
7
100
AcDbCircle
10
310.000000000000
20
50.000000000000
30
0.0
40
10.000000000000
100
AcDbArc
50
105.000000000000
51
255.000000000000
0
ARC
5
4a6
100
AcDbEntity
8
0-0
6
CONTINUOUS
62
7
100
AcDbCircle
10
331.734042357476
20
39.000000000000
30
0.0
40
5.000000000000
100
AcDbArc
50
255.000000000000
51
270.000000000000
0
ARC
5
4a7
100
AcDbEntity
8
0-0
6
CONTINUOUS
62
7
100
AcDbCircle
10
331.734042357476
20
61.000000000000
30
0.0
40
5.000000000000
100
AcDbArc
50
90.000000000000
51
105.000000000000
0
ARC
5
4a8
100
AcDbEntity
8
0-0
6
CONTINUOUS
62
7
100
AcDbCircle
10
343.300000000000
20
61.000000000000
30
0.0
40
5.000000000000
100
AcDbArc
50
0.000000000000
51
90.000000000000
0
ARC
5
4a9
100
AcDbEntity
8
0-0
6
CONTINUOUS
62
7
100
AcDbCircle
10
343.300000000000
20
39.000000000000
30
0.0
40
5.000000000000
100
AcDbArc
50
270.000000000000
51
360.000000000000
0
LINE
5
4aa
100
AcDbEntity
8
0-1
6
CENTER
62
4
100
AcDbLine
10
341.800000000000
20
64.530265020576
30
0.0
11
341.800000000000
21
34.718169547325
31
0.0
0
LINE
5
4ab
100
AcDbEntity
8
0-1
6
CENTER
62
4
100
AcDbLine
10
330.720048122746
20
60.000000000000
30
0.0
11
347.560680953107
21
60.000000000000
31
0.0
0
LINE
5
4ac
100
AcDbEntity
8
0-1
6
CENTER
62
4
100
AcDbLine
10
347.560680953107
20
40.000000000000
30
0.0
11
330.720048122746
21
40.000000000000
31
0.0
0
LINE
5
4ad
100
AcDbEntity
8
0-1
6
CENTER
62
4
100
AcDbLine
10
336.800000000000
20
34.718169547325
30
0.0
11
336.800000000000
21
64.530265020576
31
0.0
0
LINE
5
4ae
100
AcDbEntity
8
0-0
6
CONTINUOUS
62
7
100
AcDbLine
10
384.000000000000
20
93.500000000000
30
0.0
11
384.000000000000
21
139.200000000000
31
0.0
0
LINE
5
4af
100
AcDbEntity
8
0-0
6
CONTINUOUS
62
7
100
AcDbLine
10
389.000000000000
20
144.200000000000
30
0.0
11
437.000000000000
21
144.200000000000
31
0.0
0
LINE
5
4b0
100
AcDbEntity
8
0-0
6
CONTINUOUS
62
7
100
AcDbLine
10
442.000000000000
20
139.200000000000
30
0.0
11
442.000000000000
21
93.500000000000
31
0.0
0
LINE
5
4b1
100
AcDbEntity
8
0-0
6
CONTINUOUS
62
7
100
AcDbLine
10
437.000000000000
20
88.500000000000
30
0.0
11
389.000000000000
21
88.500000000000
31
0.0
0
LINE
5
4b2
100
AcDbEntity
8
0-0
6
CENTER
62
7
100
AcDbLine
10
442.000000000000
20
126.800000000000
30
0.0
11
442.012523456790
21
126.800000000000
31
0.0
0
LINE
5
4b3
100
AcDbEntity
8
0-0
6
CENTER
62
7
100
AcDbLine
10
442.012523456790
20
134.200000000000
30
0.0
11
442.000000000000
21
134.200000000000
31
0.0
0
CIRCLE
5
4b4
100
AcDbEntity
8
0-0
6
CONTINUOUS
62
7
100
AcDbCircle
10
436.000000000000
20
100.000000000000
30
0.0
40
2.550000000000
0
CIRCLE
5
4b5
100
AcDbEntity
8
0-0
6
CONTINUOUS
62
7
100
AcDbCircle
10
413.000000000000
20
100.000000000000
30
0.0
40
2.550000000000
0
CIRCLE
5
4b6
100
AcDbEntity
8
0-0
6
CONTINUOUS
62
7
100
AcDbCircle
10
390.000000000000
20
100.000000000000
30
0.0
40
2.550000000000
0
CIRCLE
5
4b7
100
AcDbEntity
8
0-0
6
CONTINUOUS
62
7
100
AcDbCircle
10
432.000000000000
20
126.800000000000
30
0.0
40
3.050000000000
0
CIRCLE
5
4b8
100
AcDbEntity
8
0-0
6
CONTINUOUS
62
7
100
AcDbCircle
10
432.000000000000
20
134.200000000000
30
0.0
40
3.050000000000
0
CIRCLE
5
4b9
100
AcDbEntity
8
0-0
6
CONTINUOUS
62
7
100
AcDbCircle
10
413.000000000000
20
126.800000000000
30
0.0
40
3.050000000000
0
CIRCLE
5
4ba
100
AcDbEntity
8
0-0
6
CONTINUOUS
62
7
100
AcDbCircle
10
413.000000000000
20
134.200000000000
30
0.0
40
3.050000000000
0
CIRCLE
5
4bb
100
AcDbEntity
8
0-0
6
CONTINUOUS
62
7
100
AcDbCircle
10
394.000000000000
20
126.800000000000
30
0.0
40
3.050000000000
0
CIRCLE
5
4bc
100
AcDbEntity
8
0-0
6
CONTINUOUS
62
7
100
AcDbCircle
10
394.000000000000
20
134.200000000000
30
0.0
40
3.050000000000
0
ARC
5
4bd
100
AcDbEntity
8
0-0
6
CONTINUOUS
62
7
100
AcDbCircle
10
437.000000000000
20
93.500000000000
30
0.0
40
5.000000000000
100
AcDbArc
50
270.000000000000
51
360.000000000000
0
ARC
5
4be
100
AcDbEntity
8
0-0
6
CONTINUOUS
62
7
100
AcDbCircle
10
389.000000000000
20
93.500000000000
30
0.0
40
5.000000000000
100
AcDbArc
50
180.000000000000
51
270.000000000000
0
ARC
5
4bf
100
AcDbEntity
8
0-0
6
CONTINUOUS
62
7
100
AcDbCircle
10
389.000000000000
20
139.200000000000
30
0.0
40
5.000000000000
100
AcDbArc
50
90.000000000000
51
180.000000000000
0
ARC
5
4c0
100
AcDbEntity
8
0-0
6
CONTINUOUS
62
7
100
AcDbCircle
10
437.000000000000
20
139.200000000000
30
0.0
40
5.000000000000
100
AcDbArc
50
0.000000000000
51
90.000000000000
0
LINE
5
4c1
100
AcDbEntity
8
0-1
6
CENTER
62
4
100
AcDbLine
10
432.000000000000
20
144.200000000000
30
0.0
11
432.000000000000
21
116.388301783265
31
0.0
0
LINE
5
4c2
100
AcDbEntity
8
0-1
6
CENTER
62
4
100
AcDbLine
10
436.000000000000
20
107.515654320987
30
0.0
11
436.000000000000
21
93.799585185185
31
0.0
0
LINE
5
4c3
100
AcDbEntity
8
0-1
6
CENTER
62
4
100
AcDbLine
10
442.012523456790
20
100.000000000000
30
0.0
11
384.000000000000
21
100.000000000000
31
0.0
0
LINE
5
4c4
100
AcDbEntity
8
0-1
6
CENTER
62
4
100
AcDbLine
10
390.000000000000
20
93.799585185185
30
0.0
11
390.000000000000
21
107.515654320988
31
0.0
0
LINE
5
4c5
100
AcDbEntity
8
0-1
6
CENTER
62
4
100
AcDbLine
10
394.000000000000
20
116.388301783265
30
0.0
11
394.000000000000
21
144.200000000000
31
0.0
0
LINE
5
4c6
100
AcDbEntity
8
0-1
6
CENTER
62
4
100
AcDbLine
10
389.698698125286
20
134.200000000000
30
0.0
11
436.601948239598
21
134.200000000000
31
0.0
0
LINE
5
4c7
100
AcDbEntity
8
0-1
6
CENTER
62
4
100
AcDbLine
10
436.601948239598
20
126.800000000000
30
0.0
11
389.698698125286
21
126.800000000000
31
0.0
0
LINE
5
4c8
100
AcDbEntity
8
0-1
6
CENTER
62
4
100
AcDbLine
10
413.000000000000
20
144.200000000000
30
0.0
11
413.000000000000
21
93.799585185185
31
0.0
0
LINE
5
4c9
100
AcDbEntity
8
0-0
6
CONTINUOUS
62
7
100
AcDbLine
10
469.013960440000
20
144.200000000000
30
0.0
11
469.013960440000
21
88.500000000000
31
0.0
0
LINE
5
4ca
100
AcDbEntity
8
0-0
6
CONTINUOUS
62
7
100
AcDbLine
10
471.013960440000
20
144.200000000000
30
0.0
11
471.013960440000
21
88.500000000000
31
0.0
0
LINE
5
4cb
100
AcDbEntity
8
0-0
6
CONTINUOUS
62
7
100
AcDbLine
10
469.013960440000
20
88.500000000000
30
0.0
11
471.013960440000
21
88.500000000000
31
0.0
0
LINE
5
4cc
100
AcDbEntity
8
0-0
6
CONTINUOUS
62
7
100
AcDbLine
10
469.013960440000
20
144.200000000000
30
0.0
11
471.013960440000
21
144.200000000000
31
0.0
0
LINE
5
4cd
100
AcDbEntity
8
0-0
6
CONTINUOUS
62
7
100
AcDbLine
10
467.013960440000
20
106.000000000000
30
0.0
11
469.013960440000
21
106.000000000000
31
0.0
0
POLYLINE
5
4ce
100
AcDbEntity
8
0-0
6
CONTINUOUS
62
  7
100
AcDb2dPolyline
66
1
10
0.0
20
0.0
30
0.0
70
0
0
VERTEX
5
4cf
100
AcDbEntity
8
0-0
6
CONTINUOUS
62
  7
100
AcDbVertex
100
AcDb2dVertex
10
467.013960440000
20
106.000000000000
30
0.0
0
VERTEX
5
4d0
100
AcDbEntity
8
0-0
6
CONTINUOUS
62
  7
100
AcDbVertex
100
AcDb2dVertex
10
467.013960440000
20
94.000000000000
30
0.0
0
VERTEX
5
4d1
100
AcDbEntity
8
0-0
6
CONTINUOUS
62
  7
100
AcDbVertex
100
AcDb2dVertex
10
469.013960440000
20
94.000000000000
30
0.0
0
SEQEND
5
4d2
100
AcDbEntity
8
0-0
0
LINE
5
4d3
100
AcDbEntity
8
F-F_J_ADD
6
HIDDEN
62
253
100
AcDbLine
10
467.013960440000
20
100.000000000000
30
0.0
11
467.721067221187
21
100.707106781187
31
0.0
0
LINE
5
4d4
100
AcDbEntity
8
F-F_J_ADD
6
HIDDEN
62
253
100
AcDbLine
10
467.013960440000
20
100.000000000000
30
0.0
11
467.721067221187
21
99.292893218813
31
0.0
0
LINE
5
4d5
100
AcDbEntity
8
0-0
6
CONTINUOUS
62
4
100
AcDbLine
10
462.513960440000
20
101.214285731316
30
0.0
11
467.013960440000
21
101.214285731316
31
0.0
0
LINE
5
4d6
100
AcDbEntity
8
0-0
6
CONTINUOUS
62
4
100
AcDbLine
10
462.513960440000
20
101.821428537369
30
0.0
11
467.013960440000
21
101.821428537369
31
0.0
0
LINE
5
4d7
100
AcDbEntity
8
0-0
6
CONTINUOUS
62
4
100
AcDbLine
10
462.513960440000
20
103.035714387894
30
0.0
11
467.013960440000
21
103.035714387894
31
0.0
0
LINE
5
4d8
100
AcDbEntity
8
0-0
6
CONTINUOUS
62
4
100
AcDbLine
10
462.513960440000
20
103.642857074738
30
0.0
11
467.013960440000
21
103.642857074738
31
0.0
0
LINE
5
4d9
100
AcDbEntity
8
0-0
6
CONTINUOUS
62
4
100
AcDbLine
10
462.513960440000
20
102.428571462631
30
0.0
11
467.013960440000
21
102.428571462631
31
0.0
0
LINE
5
4da
100
AcDbEntity
8
0-0
6
CONTINUOUS
62
2
100
AcDbLine
10
462.513960440000
20
95.750000000000
30
0.0
11
467.013960440000
21
95.750000000000
31
0.0
0
LINE
5
4db
100
AcDbEntity
8
0-0
6
CONTINUOUS
62
2
100
AcDbLine
10
462.513960440000
20
95.750000000000
30
0.0
11
462.013960440000
21
96.250000000000
31
0.0
0
LINE
5
4dc
100
AcDbEntity
8
0-0
6
CONTINUOUS
62
2
100
AcDbLine
10
462.013960440000
20
103.750000000000
30
0.0
11
462.013960440000
21
96.250000000000
31
0.0
0
LINE
5
4dd
100
AcDbEntity
8
0-0
6
CONTINUOUS
62
2
100
AcDbLine
10
462.513960440000
20
104.250000000000
30
0.0
11
467.013960440000
21
104.250000000000
31
0.0
0
LINE
5
4de
100
AcDbEntity
8
0-0
6
CONTINUOUS
62
2
100
AcDbLine
10
462.013960440000
20
103.750000000000
30
0.0
11
462.513960440000
21
104.250000000000
31
0.0
0
LINE
5
4df
100
AcDbEntity
8
0-0
6
CONTINUOUS
62
2
100
AcDbLine
10
462.513960440000
20
95.750000000000
30
0.0
11
462.513960440000
21
104.250000000000
31
0.0
0
LINE
5
4e0
100
AcDbEntity
8
0-0
6
CONTINUOUS
62
4
100
AcDbLine
10
467.013960440000
20
97.849999904633
30
0.0
11
475.013960440000
21
97.849999904633
31
0.0
0
LINE
5
4e1
100
AcDbEntity
8
0-0
6
CONTINUOUS
62
4
100
AcDbLine
10
467.013960440000
20
102.150000095367
30
0.0
11
475.013960440000
21
102.150000095367
31
0.0
0
LINE
5
4e2
100
AcDbEntity
8
0-0
6
CONTINUOUS
62
2
100
AcDbLine
10
474.663960058530
20
97.500000000000
30
0.0
11
467.013960440000
21
97.500000000000
31
0.0
0
LINE
5
4e3
100
AcDbEntity
8
0-0
6
CONTINUOUS
62
2
100
AcDbLine
10
475.013960440000
20
102.150000095367
30
0.0
11
475.013960440000
21
97.849999904633
31
0.0
0
LINE
5
4e4
100
AcDbEntity
8
0-0
6
CONTINUOUS
62
2
100
AcDbLine
10
474.663960058530
20
102.500000000000
30
0.0
11
467.013960440000
21
102.500000000000
31
0.0
0
LINE
5
4e5
100
AcDbEntity
8
0-0
6
CONTINUOUS
62
2
100
AcDbLine
10
474.663960058530
20
97.500000000000
30
0.0
11
475.013960440000
21
97.849999904633
31
0.0
0
LINE
5
4e6
100
AcDbEntity
8
0-0
6
CONTINUOUS
62
2
100
AcDbLine
10
475.013960440000
20
102.150000095367
30
0.0
11
474.663960058530
21
102.500000000000
31
0.0
0
LINE
5
4e7
100
AcDbEntity
8
0-0
6
CONTINUOUS
62
2
100
AcDbLine
10
474.663960058530
20
97.500000000000
30
0.0
11
474.663960058530
21
102.500000000000
31
0.0
0
LINE
5
4e8
100
AcDbEntity
8
0-0
6
CONTINUOUS
62
7
100
AcDbLine
10
475.675360440000
20
96.844949000000
30
0.0
11
475.993350440000
21
97.718613000000
31
0.0
0
LINE
5
4e9
100
AcDbEntity
8
0-0
6
CONTINUOUS
62
7
100
AcDbLine
10
476.113960440000
20
98.402653000000
30
0.0
11
476.113960440000
21
101.597346000000
31
0.0
0
LINE
5
4ea
100
AcDbEntity
8
0-0
6
CONTINUOUS
62
7
100
AcDbLine
10
475.993350440000
20
102.281386000000
30
0.0
11
475.675360440000
21
103.155050000000
31
0.0
0
ARC
5
4eb
100
AcDbEntity
8
0-0
6
CONTINUOUS
62
7
100
AcDbCircle
10
474.113960440000
20
98.402653000000
30
0.0
40
2.000000000000
100
AcDbArc
50
340.000000000000
51
360.000000000000
0
ARC
5
4ec
100
AcDbEntity
8
0-0
6
CONTINUOUS
62
7
100
AcDbCircle
10
474.113960440000
20
101.597346000000
30
0.0
40
2.000000000000
100
AcDbArc
50
0.000000000000
51
20.000000000000
0
ARC
5
4ed
100
AcDbEntity
8
0-0
6
CONTINUOUS
62
7
100
AcDbCircle
10
473.326130440000
20
97.700000000000
30
0.0
40
2.500000000000
100
AcDbArc
50
258.178227994578
51
340.000000000000
0
LINE
5
4ee
100
AcDbEntity
8
0-0
6
CONTINUOUS
62
7
100
AcDbLine
10
472.813960440000
20
96.428462093208
30
0.0
11
472.813960440000
21
95.253025972532
31
0.0
0
ARC
5
4ef
100
AcDbEntity
8
0-0
6
CONTINUOUS
62
7
100
AcDbCircle
10
473.326130440000
20
102.300000000000
30
0.0
40
2.500000000000
100
AcDbArc
50
20.000000000000
51
101.821772005421
0
LINE
5
4f0
100
AcDbEntity
8
0-0
6
CONTINUOUS
62
7
100
AcDbLine
10
472.813960440000
20
104.746974027467
30
0.0
11
472.813960440000
21
103.571536906792
31
0.0
0
LINE
5
4f1
100
AcDbEntity
8
0-0
6
CONTINUOUS
62
7
100
AcDbLine
10
471.613960440000
20
103.250001093208
30
0.0
11
472.813960440000
21
103.571536906792
31
0.0
0
LINE
5
4f2
100
AcDbEntity
8
0-0
6
CONTINUOUS
62
7
100
AcDbLine
10
472.813960440000
20
96.428462093208
30
0.0
11
471.613960440000
21
96.749997906792
31
0.0
0
LINE
5
4f3
100
AcDbEntity
8
0-0
6
CONTINUOUS
62
7
100
AcDbLine
10
471.613960440000
20
103.250001093208
30
0.0
11
471.613960440000
21
96.749997906792
31
0.0
0
LINE
5
4f4
100
AcDbEntity
8
F-F_J_ADD
6
HIDDEN
62
253
100
AcDbLine
10
471.013960440000
20
100.000000000000
30
0.0
11
471.721067221167
21
99.292893218832
31
0.0
0
LINE
5
4f5
100
AcDbEntity
8
F-F_J_ADD
6
HIDDEN
62
253
100
AcDbLine
10
471.721067221167
20
100.707106781206
30
0.0
11
471.013960439981
21
100.000000000019
31
0.0
0
LINE
5
4f6
100
AcDbEntity
8
0-1
6
CENTER
62
4
100
AcDbLine
10
465.902265479150
20
134.200000000000
30
0.0
11
473.760930977763
21
134.200000000000
31
0.0
0
LINE
5
4f7
100
AcDbEntity
8
0-1
6
CENTER
62
4
100
AcDbLine
10
465.902265479150
20
126.800000000000
30
0.0
11
473.760930977763
21
126.800000000000
31
0.0
0
LINE
5
4f8
100
AcDbEntity
8
0-1
6
CENTER
62
4
100
AcDbLine
10
461.447704133419
20
100.000000000000
30
0.0
11
476.685696661018
21
100.000000000000
31
0.0
0
LINE
5
4f9
100
AcDbEntity
8
0-1
6
CENTER
62
4
100
AcDbLine
10
310.000000000000
20
39.647238195899
30
0.0
11
310.000000000000
21
60.352761804101
31
0.0
0
LINE
5
4fa
100
AcDbEntity
8
0-1
6
CENTER
62
4
100
AcDbLine
10
347.560680953107
20
50.000000000000
30
0.0
11
300.000000000000
21
50.000000000000
31
0.0
0
TEXT
5
4fb
100
AcDbEntity
8
0-0
62
7
370
-3
100
AcDbText
10
50.172
20
86.860
30
0.0
40
3.618
41
0.427
50
0.000
1
BE19
72
0
11
50.000
21
89.400
31
0.0
100
AcDbText
73
3
0
TEXT
5
4fc
100
AcDbEntity
8
0-0
62
7
370
-3
100
AcDbText
10
130.172
20
86.572
30
0.0
40
3.618
41
0.416
50
0.000
1
BE19E
72
0
11
130.000
21
89.111
31
0.0
100
AcDbText
73
3
0
LINE
5
4fd
100
AcDbEntity
8
0-0
6
CONTINUOUS
62
7
100
AcDbLine
10
200.000004726055
20
160.000000000000
30
0.0
11
200.000004726055
21
158.000000000000
31
0.0
0
POLYLINE
5
4fe
100
AcDbEntity
8
0-0
6
CONTINUOUS
62
  7
100
AcDb2dPolyline
66
1
10
0.0
20
0.0
30
0.0
70
0
0
VERTEX
5
4ff
100
AcDbEntity
8
0-0
6
CONTINUOUS
62
  7
100
AcDbVertex
100
AcDb2dVertex
10
267.300000000000
20
159.999999999999
30
0.0
0
VERTEX
5
500
100
AcDbEntity
8
0-0
6
CONTINUOUS
62
  7
100
AcDbVertex
100
AcDb2dVertex
10
267.300000000000
20
157.999999999999
30
0.0
0
VERTEX
5
501
100
AcDbEntity
8
0-0
6
CONTINUOUS
62
  7
100
AcDbVertex
100
AcDb2dVertex
10
200.000004726055
20
158.000000000000
30
0.0
0
SEQEND
5
502
100
AcDbEntity
8
0-0
0
LINE
5
503
100
AcDbEntity
8
0-0
6
CONTINUOUS
62
7
100
AcDbLine
10
267.300000000000
20
159.999999999999
30
0.0
11
200.000004726055
21
160.000000000000
31
0.0
0
LINE
5
504
100
AcDbEntity
8
0-1
6
CENTER
62
4
100
AcDbLine
10
210.000000000000
20
162.738158333949
30
0.0
11
210.000000000000
21
154.107941371424
31
0.0
0
LINE
5
505
100
AcDbEntity
8
0-1
6
CONTINUOUS
62
7
100
AcDbLine
10
235.300000000000
20
156.000000000000
30
0.0
11
235.300000000000
21
158.000000000000
31
0.0
0
POLYLINE
5
506
100
AcDbEntity
8
0-1
6
CONTINUOUS
62
  7
100
AcDb2dPolyline
66
1
10
0.0
20
0.0
30
0.0
70
0
0
VERTEX
5
507
100
AcDbEntity
8
0-1
6
CONTINUOUS
62
  7
100
AcDbVertex
100
AcDb2dVertex
10
235.300000000000
20
156.000000000000
30
0.0
0
VERTEX
5
508
100
AcDbEntity
8
0-1
6
CONTINUOUS
62
  7
100
AcDbVertex
100
AcDb2dVertex
10
247.300000000000
20
156.000000000000
30
0.0
0
VERTEX
5
509
100
AcDbEntity
8
0-1
6
CONTINUOUS
62
  7
100
AcDbVertex
100
AcDb2dVertex
10
247.300000000000
20
158.000000000000
30
0.0
0
SEQEND
5
50a
100
AcDbEntity
8
0-1
0
LINE
5
50b
100
AcDbEntity
8
F-F_J_ADD
6
HIDDEN
62
253
100
AcDbLine
10
241.300000000000
20
156.000000000000
30
0.0
11
240.592893218813
21
156.707106781186
31
0.0
0
LINE
5
50c
100
AcDbEntity
8
F-F_J_ADD
6
HIDDEN
62
253
100
AcDbLine
10
241.300000000000
20
156.000000000000
30
0.0
11
242.007106781187
21
156.707106781186
31
0.0
0
LINE
5
50d
100
AcDbEntity
8
0-1
6
CONTINUOUS
62
4
100
AcDbLine
10
240.085714268684
20
151.500000000000
30
0.0
11
240.085714268684
21
156.000000000000
31
0.0
0
LINE
5
50e
100
AcDbEntity
8
0-1
6
CONTINUOUS
62
4
100
AcDbLine
10
239.478571462631
20
151.500000000000
30
0.0
11
239.478571462631
21
156.000000000000
31
0.0
0
LINE
5
50f
100
AcDbEntity
8
0-1
6
CONTINUOUS
62
4
100
AcDbLine
10
238.264285612106
20
151.500000000000
30
0.0
11
238.264285612106
21
156.000000000000
31
0.0
0
LINE
5
510
100
AcDbEntity
8
0-1
6
CONTINUOUS
62
4
100
AcDbLine
10
237.657142925262
20
151.500000000000
30
0.0
11
237.657142925262
21
156.000000000000
31
0.0
0
LINE
5
511
100
AcDbEntity
8
0-1
6
CONTINUOUS
62
4
100
AcDbLine
10
238.871428537369
20
151.500000000000
30
0.0
11
238.871428537369
21
156.000000000000
31
0.0
0
LINE
5
512
100
AcDbEntity
8
0-1
6
CONTINUOUS
62
2
100
AcDbLine
10
245.550000000000
20
151.500000000000
30
0.0
11
245.550000000000
21
156.000000000000
31
0.0
0
LINE
5
513
100
AcDbEntity
8
0-1
6
CONTINUOUS
62
2
100
AcDbLine
10
245.550000000000
20
151.500000000000
30
0.0
11
245.050000000000
21
151.000000000000
31
0.0
0
LINE
5
514
100
AcDbEntity
8
0-1
6
CONTINUOUS
62
2
100
AcDbLine
10
237.550000000000
20
151.000000000000
30
0.0
11
245.050000000000
21
151.000000000000
31
0.0
0
LINE
5
515
100
AcDbEntity
8
0-1
6
CONTINUOUS
62
2
100
AcDbLine
10
237.050000000000
20
151.500000000000
30
0.0
11
237.050000000000
21
156.000000000000
31
0.0
0
LINE
5
516
100
AcDbEntity
8
0-1
6
CONTINUOUS
62
2
100
AcDbLine
10
237.550000000000
20
151.000000000000
30
0.0
11
237.050000000000
21
151.500000000000
31
0.0
0
LINE
5
517
100
AcDbEntity
8
0-1
6
CONTINUOUS
62
2
100
AcDbLine
10
245.550000000000
20
151.500000000000
30
0.0
11
237.050000000000
21
151.500000000000
31
0.0
0
LINE
5
518
100
AcDbEntity
8
0-1
6
CONTINUOUS
62
4
100
AcDbLine
10
243.450000095367
20
156.000000000000
30
0.0
11
243.450000095367
21
164.000000000000
31
0.0
0
LINE
5
519
100
AcDbEntity
8
0-1
6
CONTINUOUS
62
4
100
AcDbLine
10
239.149999904633
20
156.000000000000
30
0.0
11
239.149999904633
21
164.000000000000
31
0.0
0
LINE
5
51a
100
AcDbEntity
8
0-1
6
CONTINUOUS
62
2
100
AcDbLine
10
243.800000000000
20
163.649999618530
30
0.0
11
243.800000000000
21
156.000000000000
31
0.0
0
LINE
5
51b
100
AcDbEntity
8
0-1
6
CONTINUOUS
62
2
100
AcDbLine
10
239.149999904633
20
164.000000000000
30
0.0
11
243.450000095367
21
164.000000000000
31
0.0
0
LINE
5
51c
100
AcDbEntity
8
0-1
6
CONTINUOUS
62
2
100
AcDbLine
10
238.800000000000
20
163.649999618530
30
0.0
11
238.800000000000
21
156.000000000000
31
0.0
0
LINE
5
51d
100
AcDbEntity
8
0-1
6
CONTINUOUS
62
2
100
AcDbLine
10
243.800000000000
20
163.649999618530
30
0.0
11
243.450000095367
21
164.000000000000
31
0.0
0
LINE
5
51e
100
AcDbEntity
8
0-1
6
CONTINUOUS
62
2
100
AcDbLine
10
239.149999904633
20
164.000000000000
30
0.0
11
238.800000000000
21
163.649999618530
31
0.0
0
LINE
5
51f
100
AcDbEntity
8
0-1
6
CONTINUOUS
62
2
100
AcDbLine
10
243.800000000000
20
163.649999618530
30
0.0
11
238.800000000000
21
163.649999618530
31
0.0
0
LINE
5
520
100
AcDbEntity
8
0-1
6
CONTINUOUS
62
7
100
AcDbLine
10
244.455051000000
20
164.661400000000
30
0.0
11
243.581387000000
21
164.979389999999
31
0.0
0
LINE
5
521
100
AcDbEntity
8
0-1
6
CONTINUOUS
62
7
100
AcDbLine
10
242.897347000000
20
165.100000000000
30
0.0
11
239.702654000000
21
165.100000000000
31
0.0
0
LINE
5
522
100
AcDbEntity
8
0-1
6
CONTINUOUS
62
7
100
AcDbLine
10
239.018614000000
20
164.979389999999
30
0.0
11
238.144950000000
21
164.661400000000
31
0.0
0
ARC
5
523
100
AcDbEntity
8
0-1
6
CONTINUOUS
62
7
100
AcDbCircle
10
242.897347000000
20
163.100000000000
30
0.0
40
2.000000000000
100
AcDbArc
50
70.000000000000
51
90.000000000000
0
ARC
5
524
100
AcDbEntity
8
0-1
6
CONTINUOUS
62
7
100
AcDbCircle
10
239.702654000000
20
163.100000000000
30
0.0
40
2.000000000000
100
AcDbArc
50
90.000000000000
51
110.000000000000
0
ARC
5
525
100
AcDbEntity
8
0-1
6
CONTINUOUS
62
7
100
AcDbCircle
10
243.600000000000
20
162.312169999999
30
0.0
40
2.500000000000
100
AcDbArc
50
348.178227994578
51
430.000000000000
0
LINE
5
526
100
AcDbEntity
8
0-1
6
CONTINUOUS
62
7
100
AcDbLine
10
244.871537906792
20
161.799999999999
30
0.0
11
246.046974027468
21
161.799999999999
31
0.0
0
ARC
5
527
100
AcDbEntity
8
0-1
6
CONTINUOUS
62
7
100
AcDbCircle
10
239.000000000000
20
162.312169999999
30
0.0
40
2.500000000000
100
AcDbArc
50
110.000000000000
51
191.821772005421
0
LINE
5
528
100
AcDbEntity
8
0-1
6
CONTINUOUS
62
7
100
AcDbLine
10
236.553025972533
20
161.799999999999
30
0.0
11
237.728463093208
21
161.799999999999
31
0.0
0
LINE
5
529
100
AcDbEntity
8
0-1
6
CONTINUOUS
62
7
100
AcDbLine
10
238.049998906792
20
160.600000000000
30
0.0
11
237.728463093208
21
161.799999999999
31
0.0
0
LINE
5
52a
100
AcDbEntity
8
0-1
6
CONTINUOUS
62
7
100
AcDbLine
10
244.871537906792
20
161.799999999999
30
0.0
11
244.550002093208
21
160.600000000000
31
0.0
0
LINE
5
52b
100
AcDbEntity
8
0-1
6
CONTINUOUS
62
7
100
AcDbLine
10
238.049998906792
20
160.600000000000
30
0.0
11
244.550002093208
21
160.600000000000
31
0.0
0
LINE
5
52c
100
AcDbEntity
8
F-F_J_ADD
6
HIDDEN
62
253
100
AcDbLine
10
241.300000000000
20
160.000000000000
30
0.0
11
242.007106781168
21
160.707106781167
31
0.0
0
LINE
5
52d
100
AcDbEntity
8
F-F_J_ADD
6
HIDDEN
62
253
100
AcDbLine
10
240.592893218794
20
160.707106781167
30
0.0
11
241.299999999981
21
159.999999999980
31
0.0
0
LINE
5
52e
100
AcDbEntity
8
0-1
6
CENTER
62
4
100
AcDbLine
10
241.300000000000
20
150.433743693419
30
0.0
11
241.300000000000
21
165.671736221017
31
0.0
0
LINE
5
52f
100
AcDbEntity
8
0-1
6
CONTINUOUS
62
7
100
AcDbLine
10
255.300000000000
20
155.999999999999
30
0.0
11
255.300000000000
21
157.999999999999
31
0.0
0
POLYLINE
5
530
100
AcDbEntity
8
0-1
6
CONTINUOUS
62
  7
100
AcDb2dPolyline
66
1
10
0.0
20
0.0
30
0.0
70
0
0
VERTEX
5
531
100
AcDbEntity
8
0-1
6
CONTINUOUS
62
  7
100
AcDbVertex
100
AcDb2dVertex
10
255.300000000000
20
155.999999999999
30
0.0
0
VERTEX
5
532
100
AcDbEntity
8
0-1
6
CONTINUOUS
62
  7
100
AcDbVertex
100
AcDb2dVertex
10
267.300000000000
20
155.999999999999
30
0.0
0
VERTEX
5
533
100
AcDbEntity
8
0-1
6
CONTINUOUS
62
  7
100
AcDbVertex
100
AcDb2dVertex
10
267.300000000000
20
157.999999999999
30
0.0
0
SEQEND
5
534
100
AcDbEntity
8
0-1
0
LINE
5
535
100
AcDbEntity
8
F-F_J_ADD
6
HIDDEN
62
253
100
AcDbLine
10
261.300000000000
20
155.999999999999
30
0.0
11
260.592893218813
21
156.707106781186
31
0.0
0
LINE
5
536
100
AcDbEntity
8
F-F_J_ADD
6
HIDDEN
62
253
100
AcDbLine
10
261.300000000000
20
155.999999999999
30
0.0
11
262.007106781187
21
156.707106781186
31
0.0
0
LINE
5
537
100
AcDbEntity
8
0-1
6
CONTINUOUS
62
4
100
AcDbLine
10
260.085714268684
20
151.499999999999
30
0.0
11
260.085714268684
21
155.999999999999
31
0.0
0
LINE
5
538
100
AcDbEntity
8
0-1
6
CONTINUOUS
62
4
100
AcDbLine
10
259.478571462631
20
151.499999999999
30
0.0
11
259.478571462631
21
155.999999999999
31
0.0
0
LINE
5
539
100
AcDbEntity
8
0-1
6
CONTINUOUS
62
4
100
AcDbLine
10
258.264285612106
20
151.499999999999
30
0.0
11
258.264285612106
21
155.999999999999
31
0.0
0
LINE
5
53a
100
AcDbEntity
8
0-1
6
CONTINUOUS
62
4
100
AcDbLine
10
257.657142925262
20
151.499999999999
30
0.0
11
257.657142925262
21
155.999999999999
31
0.0
0
LINE
5
53b
100
AcDbEntity
8
0-1
6
CONTINUOUS
62
4
100
AcDbLine
10
258.871428537369
20
151.499999999999
30
0.0
11
258.871428537369
21
155.999999999999
31
0.0
0
LINE
5
53c
100
AcDbEntity
8
0-1
6
CONTINUOUS
62
2
100
AcDbLine
10
265.550000000000
20
151.499999999999
30
0.0
11
265.550000000000
21
155.999999999999
31
0.0
0
LINE
5
53d
100
AcDbEntity
8
0-1
6
CONTINUOUS
62
2
100
AcDbLine
10
265.550000000000
20
151.499999999999
30
0.0
11
265.050000000000
21
150.999999999999
31
0.0
0
LINE
5
53e
100
AcDbEntity
8
0-1
6
CONTINUOUS
62
2
100
AcDbLine
10
257.550000000000
20
150.999999999999
30
0.0
11
265.050000000000
21
150.999999999999
31
0.0
0
LINE
5
53f
100
AcDbEntity
8
0-1
6
CONTINUOUS
62
2
100
AcDbLine
10
257.050000000000
20
151.499999999999
30
0.0
11
257.050000000000
21
155.999999999999
31
0.0
0
LINE
5
540
100
AcDbEntity
8
0-1
6
CONTINUOUS
62
2
100
AcDbLine
10
257.550000000000
20
150.999999999999
30
0.0
11
257.050000000000
21
151.499999999999
31
0.0
0
LINE
5
541
100
AcDbEntity
8
0-1
6
CONTINUOUS
62
2
100
AcDbLine
10
265.550000000000
20
151.499999999999
30
0.0
11
257.050000000000
21
151.499999999999
31
0.0
0
LINE
5
542
100
AcDbEntity
8
0-1
6
CONTINUOUS
62
4
100
AcDbLine
10
263.450000095367
20
155.999999999999
30
0.0
11
263.450000095367
21
163.999999999999
31
0.0
0
LINE
5
543
100
AcDbEntity
8
0-1
6
CONTINUOUS
62
4
100
AcDbLine
10
259.149999904633
20
155.999999999999
30
0.0
11
259.149999904633
21
163.999999999999
31
0.0
0
LINE
5
544
100
AcDbEntity
8
0-1
6
CONTINUOUS
62
2
100
AcDbLine
10
263.800000000000
20
163.649999618530
30
0.0
11
263.800000000000
21
155.999999999999
31
0.0
0
LINE
5
545
100
AcDbEntity
8
0-1
6
CONTINUOUS
62
2
100
AcDbLine
10
259.149999904633
20
163.999999999999
30
0.0
11
263.450000095367
21
163.999999999999
31
0.0
0
LINE
5
546
100
AcDbEntity
8
0-1
6
CONTINUOUS
62
2
100
AcDbLine
10
258.800000000000
20
163.649999618530
30
0.0
11
258.800000000000
21
155.999999999999
31
0.0
0
LINE
5
547
100
AcDbEntity
8
0-1
6
CONTINUOUS
62
2
100
AcDbLine
10
263.800000000000
20
163.649999618530
30
0.0
11
263.450000095367
21
163.999999999999
31
0.0
0
LINE
5
548
100
AcDbEntity
8
0-1
6
CONTINUOUS
62
2
100
AcDbLine
10
259.149999904633
20
163.999999999999
30
0.0
11
258.800000000000
21
163.649999618530
31
0.0
0
LINE
5
549
100
AcDbEntity
8
0-1
6
CONTINUOUS
62
2
100
AcDbLine
10
263.800000000000
20
163.649999618530
30
0.0
11
258.800000000000
21
163.649999618530
31
0.0
0
LINE
5
54a
100
AcDbEntity
8
0-1
6
CONTINUOUS
62
7
100
AcDbLine
10
264.455051000000
20
164.661400000000
30
0.0
11
263.581387000000
21
164.979389999999
31
0.0
0
LINE
5
54b
100
AcDbEntity
8
0-1
6
CONTINUOUS
62
7
100
AcDbLine
10
262.897347000000
20
165.099999999999
30
0.0
11
259.702654000000
21
165.099999999999
31
0.0
0
LINE
5
54c
100
AcDbEntity
8
0-1
6
CONTINUOUS
62
7
100
AcDbLine
10
259.018614000000
20
164.979389999999
30
0.0
11
258.144950000000
21
164.661400000000
31
0.0
0
ARC
5
54d
100
AcDbEntity
8
0-1
6
CONTINUOUS
62
7
100
AcDbCircle
10
262.897347000000
20
163.099999999999
30
0.0
40
2.000000000000
100
AcDbArc
50
70.000000000000
51
90.000000000000
0
ARC
5
54e
100
AcDbEntity
8
0-1
6
CONTINUOUS
62
7
100
AcDbCircle
10
259.702654000000
20
163.099999999999
30
0.0
40
2.000000000000
100
AcDbArc
50
90.000000000000
51
110.000000000000
0
ARC
5
54f
100
AcDbEntity
8
0-1
6
CONTINUOUS
62
7
100
AcDbCircle
10
263.600000000000
20
162.312169999999
30
0.0
40
2.500000000000
100
AcDbArc
50
348.178227994578
51
430.000000000000
0
LINE
5
550
100
AcDbEntity
8
0-1
6
CONTINUOUS
62
7
100
AcDbLine
10
264.871537906792
20
161.799999999999
30
0.0
11
266.046974027468
21
161.799999999999
31
0.0
0
ARC
5
551
100
AcDbEntity
8
0-1
6
CONTINUOUS
62
7
100
AcDbCircle
10
259.000000000000
20
162.312169999999
30
0.0
40
2.500000000000
100
AcDbArc
50
110.000000000000
51
191.821772005421
0
LINE
5
552
100
AcDbEntity
8
0-1
6
CONTINUOUS
62
7
100
AcDbLine
10
256.553025972533
20
161.799999999999
30
0.0
11
257.728463093208
21
161.799999999999
31
0.0
0
LINE
5
553
100
AcDbEntity
8
0-1
6
CONTINUOUS
62
7
100
AcDbLine
10
258.049998906792
20
160.599999999999
30
0.0
11
257.728463093208
21
161.799999999999
31
0.0
0
LINE
5
554
100
AcDbEntity
8
0-1
6
CONTINUOUS
62
7
100
AcDbLine
10
264.871537906792
20
161.799999999999
30
0.0
11
264.550002093208
21
160.599999999999
31
0.0
0
LINE
5
555
100
AcDbEntity
8
0-1
6
CONTINUOUS
62
7
100
AcDbLine
10
258.049998906792
20
160.599999999999
30
0.0
11
264.550002093208
21
160.599999999999
31
0.0
0
LINE
5
556
100
AcDbEntity
8
F-F_J_ADD
6
HIDDEN
62
253
100
AcDbLine
10
261.300000000000
20
159.999999999999
30
0.0
11
262.007106781168
21
160.707106781167
31
0.0
0
LINE
5
557
100
AcDbEntity
8
F-F_J_ADD
6
HIDDEN
62
253
100
AcDbLine
10
260.592893218794
20
160.707106781167
30
0.0
11
261.299999999981
21
159.999999999980
31
0.0
0
LINE
5
558
100
AcDbEntity
8
0-1
6
CENTER
62
4
100
AcDbLine
10
261.300000000000
20
150.433743693419
30
0.0
11
261.300000000000
21
165.671736221017
31
0.0
0
POLYLINE
5
559
100
AcDbEntity
8
0-0
6
CONTINUOUS
62
  7
100
AcDb2dPolyline
66
1
10
0.0
20
0.0
30
0.0
70
0
0
VERTEX
5
55a
100
AcDbEntity
8
0-0
6
CONTINUOUS
62
  7
100
AcDbVertex
100
AcDb2dVertex
10
300.000000000000
20
160.000000000000
30
0.0
0
VERTEX
5
55b
100
AcDbEntity
8
0-0
6
CONTINUOUS
62
  7
100
AcDbVertex
100
AcDb2dVertex
10
300.000000000000
20
158.000000000000
30
0.0
0
VERTEX
5
55c
100
AcDbEntity
8
0-0
6
CONTINUOUS
62
  7
100
AcDbVertex
100
AcDb2dVertex
10
348.300000000000
20
157.999999999999
30
0.0
0
VERTEX
5
55d
100
AcDbEntity
8
0-0
6
CONTINUOUS
62
  7
100
AcDbVertex
100
AcDb2dVertex
10
348.300000000000
20
159.999999999999
30
0.0
0
VERTEX
5
55e
100
AcDbEntity
8
0-0
6
CONTINUOUS
62
  7
100
AcDbVertex
100
AcDb2dVertex
10
300.000000000000
20
160.000000000000
30
0.0
0
SEQEND
5
55f
100
AcDbEntity
8
0-0
0
LINE
5
560
100
AcDbEntity
8
0-1
6
CENTER
62
4
100
AcDbLine
10
310.000000000000
20
162.738158333949
30
0.0
11
310.000000000000
21
154.107941371424
31
0.0
0
LINE
5
561
100
AcDbEntity
8
0-1
6
CONTINUOUS
62
7
100
AcDbLine
10
330.800000000000
20
156.000000000000
30
0.0
11
330.800000000000
21
158.000000000000
31
0.0
0
POLYLINE
5
562
100
AcDbEntity
8
0-1
6
CONTINUOUS
62
  7
100
AcDb2dPolyline
66
1
10
0.0
20
0.0
30
0.0
70
0
0
VERTEX
5
563
100
AcDbEntity
8
0-1
6
CONTINUOUS
62
  7
100
AcDbVertex
100
AcDb2dVertex
10
330.800000000000
20
156.000000000000
30
0.0
0
VERTEX
5
564
100
AcDbEntity
8
0-1
6
CONTINUOUS
62
  7
100
AcDbVertex
100
AcDb2dVertex
10
342.800000000000
20
156.000000000000
30
0.0
0
VERTEX
5
565
100
AcDbEntity
8
0-1
6
CONTINUOUS
62
  7
100
AcDbVertex
100
AcDb2dVertex
10
342.800000000000
20
158.000000000000
30
0.0
0
SEQEND
5
566
100
AcDbEntity
8
0-1
0
LINE
5
567
100
AcDbEntity
8
F-F_J_ADD
6
HIDDEN
62
253
100
AcDbLine
10
336.800000000000
20
156.000000000000
30
0.0
11
336.092893218813
21
156.707106781186
31
0.0
0
LINE
5
568
100
AcDbEntity
8
F-F_J_ADD
6
HIDDEN
62
253
100
AcDbLine
10
336.800000000000
20
156.000000000000
30
0.0
11
337.507106781187
21
156.707106781186
31
0.0
0
LINE
5
569
100
AcDbEntity
8
0-1
6
CONTINUOUS
62
4
100
AcDbLine
10
335.585714268684
20
151.500000000000
30
0.0
11
335.585714268684
21
156.000000000000
31
0.0
0
LINE
5
56a
100
AcDbEntity
8
0-1
6
CONTINUOUS
62
4
100
AcDbLine
10
334.978571462631
20
151.500000000000
30
0.0
11
334.978571462631
21
156.000000000000
31
0.0
0
LINE
5
56b
100
AcDbEntity
8
0-1
6
CONTINUOUS
62
4
100
AcDbLine
10
333.764285612106
20
151.500000000000
30
0.0
11
333.764285612106
21
156.000000000000
31
0.0
0
LINE
5
56c
100
AcDbEntity
8
0-1
6
CONTINUOUS
62
4
100
AcDbLine
10
333.157142925262
20
151.500000000000
30
0.0
11
333.157142925262
21
156.000000000000
31
0.0
0
LINE
5
56d
100
AcDbEntity
8
0-1
6
CONTINUOUS
62
4
100
AcDbLine
10
334.371428537369
20
151.500000000000
30
0.0
11
334.371428537369
21
156.000000000000
31
0.0
0
LINE
5
56e
100
AcDbEntity
8
0-1
6
CONTINUOUS
62
2
100
AcDbLine
10
341.050000000000
20
151.500000000000
30
0.0
11
341.050000000000
21
156.000000000000
31
0.0
0
LINE
5
56f
100
AcDbEntity
8
0-1
6
CONTINUOUS
62
2
100
AcDbLine
10
341.050000000000
20
151.500000000000
30
0.0
11
340.550000000000
21
151.000000000000
31
0.0
0
LINE
5
570
100
AcDbEntity
8
0-1
6
CONTINUOUS
62
2
100
AcDbLine
10
333.050000000000
20
151.000000000000
30
0.0
11
340.550000000000
21
151.000000000000
31
0.0
0
LINE
5
571
100
AcDbEntity
8
0-1
6
CONTINUOUS
62
2
100
AcDbLine
10
332.550000000000
20
151.500000000000
30
0.0
11
332.550000000000
21
156.000000000000
31
0.0
0
LINE
5
572
100
AcDbEntity
8
0-1
6
CONTINUOUS
62
2
100
AcDbLine
10
333.050000000000
20
151.000000000000
30
0.0
11
332.550000000000
21
151.500000000000
31
0.0
0
LINE
5
573
100
AcDbEntity
8
0-1
6
CONTINUOUS
62
2
100
AcDbLine
10
341.050000000000
20
151.500000000000
30
0.0
11
332.550000000000
21
151.500000000000
31
0.0
0
LINE
5
574
100
AcDbEntity
8
0-1
6
CONTINUOUS
62
4
100
AcDbLine
10
338.950000095367
20
156.000000000000
30
0.0
11
338.950000095367
21
164.000000000000
31
0.0
0
LINE
5
575
100
AcDbEntity
8
0-1
6
CONTINUOUS
62
4
100
AcDbLine
10
334.649999904633
20
156.000000000000
30
0.0
11
334.649999904633
21
164.000000000000
31
0.0
0
LINE
5
576
100
AcDbEntity
8
0-1
6
CONTINUOUS
62
2
100
AcDbLine
10
339.300000000000
20
163.649999618530
30
0.0
11
339.300000000000
21
156.000000000000
31
0.0
0
LINE
5
577
100
AcDbEntity
8
0-1
6
CONTINUOUS
62
2
100
AcDbLine
10
334.649999904633
20
164.000000000000
30
0.0
11
338.950000095367
21
164.000000000000
31
0.0
0
LINE
5
578
100
AcDbEntity
8
0-1
6
CONTINUOUS
62
2
100
AcDbLine
10
334.300000000000
20
163.649999618530
30
0.0
11
334.300000000000
21
156.000000000000
31
0.0
0
LINE
5
579
100
AcDbEntity
8
0-1
6
CONTINUOUS
62
2
100
AcDbLine
10
339.300000000000
20
163.649999618530
30
0.0
11
338.950000095367
21
164.000000000000
31
0.0
0
LINE
5
57a
100
AcDbEntity
8
0-1
6
CONTINUOUS
62
2
100
AcDbLine
10
334.649999904633
20
164.000000000000
30
0.0
11
334.300000000000
21
163.649999618530
31
0.0
0
LINE
5
57b
100
AcDbEntity
8
0-1
6
CONTINUOUS
62
2
100
AcDbLine
10
339.300000000000
20
163.649999618530
30
0.0
11
334.300000000000
21
163.649999618530
31
0.0
0
LINE
5
57c
100
AcDbEntity
8
0-1
6
CONTINUOUS
62
7
100
AcDbLine
10
339.955051000000
20
164.661400000000
30
0.0
11
339.081387000000
21
164.979389999999
31
0.0
0
LINE
5
57d
100
AcDbEntity
8
0-1
6
CONTINUOUS
62
7
100
AcDbLine
10
338.397347000000
20
165.100000000000
30
0.0
11
335.202654000000
21
165.100000000000
31
0.0
0
LINE
5
57e
100
AcDbEntity
8
0-1
6
CONTINUOUS
62
7
100
AcDbLine
10
334.518614000000
20
164.979389999999
30
0.0
11
333.644950000000
21
164.661400000000
31
0.0
0
ARC
5
57f
100
AcDbEntity
8
0-1
6
CONTINUOUS
62
7
100
AcDbCircle
10
338.397347000000
20
163.100000000000
30
0.0
40
2.000000000000
100
AcDbArc
50
70.000000000000
51
90.000000000000
0
ARC
5
580
100
AcDbEntity
8
0-1
6
CONTINUOUS
62
7
100
AcDbCircle
10
335.202654000000
20
163.100000000000
30
0.0
40
2.000000000000
100
AcDbArc
50
90.000000000000
51
110.000000000000
0
ARC
5
581
100
AcDbEntity
8
0-1
6
CONTINUOUS
62
7
100
AcDbCircle
10
339.100000000000
20
162.312169999999
30
0.0
40
2.500000000000
100
AcDbArc
50
348.178227994578
51
430.000000000000
0
LINE
5
582
100
AcDbEntity
8
0-1
6
CONTINUOUS
62
7
100
AcDbLine
10
340.371537906792
20
161.799999999999
30
0.0
11
341.546974027468
21
161.799999999999
31
0.0
0
ARC
5
583
100
AcDbEntity
8
0-1
6
CONTINUOUS
62
7
100
AcDbCircle
10
334.500000000000
20
162.312169999999
30
0.0
40
2.500000000000
100
AcDbArc
50
110.000000000000
51
191.821772005421
0
LINE
5
584
100
AcDbEntity
8
0-1
6
CONTINUOUS
62
7
100
AcDbLine
10
332.053025972533
20
161.799999999999
30
0.0
11
333.228463093208
21
161.799999999999
31
0.0
0
LINE
5
585
100
AcDbEntity
8
0-1
6
CONTINUOUS
62
7
100
AcDbLine
10
333.549998906792
20
160.600000000000
30
0.0
11
333.228463093208
21
161.799999999999
31
0.0
0
LINE
5
586
100
AcDbEntity
8
0-1
6
CONTINUOUS
62
7
100
AcDbLine
10
340.371537906792
20
161.799999999999
30
0.0
11
340.050002093208
21
160.600000000000
31
0.0
0
LINE
5
587
100
AcDbEntity
8
0-1
6
CONTINUOUS
62
7
100
AcDbLine
10
333.549998906792
20
160.600000000000
30
0.0
11
340.050002093208
21
160.600000000000
31
0.0
0
LINE
5
588
100
AcDbEntity
8
F-F_J_ADD
6
HIDDEN
62
253
100
AcDbLine
10
336.800000000000
20
160.000000000000
30
0.0
11
337.507106781168
21
160.707106781167
31
0.0
0
LINE
5
589
100
AcDbEntity
8
F-F_J_ADD
6
HIDDEN
62
253
100
AcDbLine
10
336.092893218794
20
160.707106781167
30
0.0
11
336.799999999981
21
159.999999999980
31
0.0
0
LINE
5
58a
100
AcDbEntity
8
0-1
6
CENTER
62
4
100
AcDbLine
10
336.800000000000
20
150.433743693419
30
0.0
11
336.800000000000
21
165.671736221017
31
0.0
0
LINE
5
58b
100
AcDbEntity
8
0-0
6
CONTINUOUS
62
7
100
AcDbLine
10
384.000000000000
20
160.000000000000
30
0.0
11
384.000000000000
21
158.000000000000
31
0.0
0
POLYLINE
5
58c
100
AcDbEntity
8
0-0
6
CONTINUOUS
62
  7
100
AcDb2dPolyline
66
1
10
0.0
20
0.0
30
0.0
70
0
0
VERTEX
5
58d
100
AcDbEntity
8
0-0
6
CONTINUOUS
62
  7
100
AcDbVertex
100
AcDb2dVertex
10
442.000000000000
20
159.999999999999
30
0.0
0
VERTEX
5
58e
100
AcDbEntity
8
0-0
6
CONTINUOUS
62
  7
100
AcDbVertex
100
AcDb2dVertex
10
442.000000000000
20
157.999999999999
30
0.0
0
VERTEX
5
58f
100
AcDbEntity
8
0-0
6
CONTINUOUS
62
  7
100
AcDbVertex
100
AcDb2dVertex
10
384.000000000000
20
158.000000000000
30
0.0
0
SEQEND
5
590
100
AcDbEntity
8
0-0
0
LINE
5
591
100
AcDbEntity
8
0-0
6
CONTINUOUS
62
7
100
AcDbLine
10
442.000000000000
20
159.999999999999
30
0.0
11
384.000000000000
21
160.000000000000
31
0.0
0
LINE
5
592
100
AcDbEntity
8
0-1
6
CENTER
62
4
100
AcDbLine
10
394.000000000000
20
162.738158333949
30
0.0
11
394.000000000000
21
154.107941371424
31
0.0
0
LINE
5
593
100
AcDbEntity
8
0-1
6
CENTER
62
4
100
AcDbLine
10
432.000000000000
20
162.738158333949
30
0.0
11
432.000000000000
21
154.107941371424
31
0.0
0
LINE
5
594
100
AcDbEntity
8
0-1
6
CENTER
62
4
100
AcDbLine
10
413.000000000000
20
162.738158333949
30
0.0
11
413.000000000000
21
154.107941371424
31
0.0
0
LINE
5
595
100
AcDbEntity
8
F-F_J_ADD
6
HIDDEN
62
253
100
AcDbLine
10
210.000000000000
20
162.078191489362
30
0.0
11
210.000000000000
21
-0.000000000000
31
0.0
0
LINE
5
596
100
AcDbEntity
8
F-F_J_ADD
6
HIDDEN
62
253
100
AcDbLine
10
310.000000000000
20
162.078191489362
30
0.0
11
310.000000000000
21
-0.000000000000
31
0.0
0
LINE
5
597
100
AcDbEntity
8
F-F_J_ADD
6
HIDDEN
62
253
100
AcDbLine
10
390.000000000000
20
162.078191489362
30
0.0
11
390.000000000000
21
-0.000000000000
31
0.0
0
LINE
5
598
100
AcDbEntity
8
F-F_J_ADD
6
HIDDEN
62
253
100
AcDbLine
10
0.000000000000
20
-0.000000000000
30
0.0
11
487.323076043228
21
-0.000000000000
31
0.0
0
LINE
5
599
100
AcDbEntity
8
F-F_J_ADD
6
HIDDEN
62
253
100
AcDbLine
10
487.323076043228
20
100.000000000000
30
0.0
11
0.000000000000
21
100.000000000000
31
0.0
0
LINE
5
59a
100
AcDbEntity
8
F-F_J_ADD
6
HIDDEN
62
253
100
AcDbLine
10
487.323076043228
20
50.000000000000
30
0.0
11
0.000000000000
21
50.000000000000
31
0.0
0
LINE
5
59b
100
AcDbEntity
8
F-F_J_ADD
6
HIDDEN
62
253
100
AcDbLine
10
130.000000000000
20
-0.000000000000
30
0.0
11
130.000000000000
21
160.000000000000
31
0.0
0
LINE
5
59c
100
AcDbEntity
8
F-F_J_ADD
6
HIDDEN
62
253
100
AcDbLine
10
50.000000000000
20
-0.000000000000
30
0.0
11
50.000000000000
21
160.000000000000
31
0.0
0
LINE
5
59d
100
AcDbEntity
8
F-F_J_ADD
6
HIDDEN
62
253
100
AcDbLine
10
0.000000000000
20
-0.000000000000
30
0.0
11
0.000000000000
21
160.000000000000
31
0.0
0
LINE
5
59e
100
AcDbEntity
8
F-F_J_ADD
6
HIDDEN
62
253
100
AcDbLine
10
487.323076043228
20
160.000000000000
30
0.0
11
0.000000000000
21
160.000000000000
31
0.0
0
TEXT
5
59f
100
AcDbEntity
8
0-0
62
7
370
-3
100
AcDbText
10
337.000
20
116.767
30
0.0
40
4.208
1
GS32
41
0.505
50
0.000
100
AcDbText
0
TEXT
5
5a0
100
AcDbEntity
8
0-0
62
7
370
-3
100
AcDbText
10
331.934
20
66.767
30
0.0
40
4.208
1
GS33
41
0.520
50
0.000
100
AcDbText
0
TEXT
5
5a1
100
AcDbEntity
8
0-0
62
7
370
-3
100
AcDbText
10
210.172
20
110.660
30
0.0
40
3.618
1
GS31
41
0.431
50
0.000
100
AcDbText
0
TEXT
5
5a2
100
AcDbEntity
8
0-0
62
7
370
-3
100
AcDbText
10
394.172
20
144.860
30
0.0
40
3.618
1
GS34
41
0.393
50
0.000
100
AcDbText
0
ENDSEC
 0
SECTION
  2
OBJECTS
 0
DICTIONARY
  5
C
100
AcDbDictionary
  3
ACAD_GROUP
350
D
  3
ACAD_MLINESTYLE
350
E
 0
DICTIONARY
  5
D
102
{ACAD_REACTORS
102
}
100
AcDbDictionary
 0
DICTIONARY
  5
E
102
{ACAD_REACTORS
102
}
100
AcDbDictionary
  3
STANDARD
350
13
0
MLINESTYLE
  5
13
102
{ACAD_REACTORS
102
}
100
AcDbMlineStyle
  2
STANDARD
 70
    0
3

62
256
51
90.0
52
90.0
71
0
0
ACDBPLACEHOLDER
  5
14
102
{ACAD_REACTORS
102
}
0
ENDSEC
0
EOF
