0
SECTION
2
HEADER
9
$ACADVER
1
AC1015
9
$ACADMAINTVER
 70
6
9
$DWGCODEPAGE
3
ANSI_932
9
$EXTMIN
10
0.000
20
0.000
30
0.0
9
$EXTMAX
10
1189.000
20
841.000
30
0.0
9
$LIMMIN
10
0.000
20
0.000
9
$LIMMAX
10
1189.000
20
841.000
9
$DIMSCALE
40
1.000000
9
$LTSCALE
40
2.000
9
$PDMODE
70
0
9
$PDSIZE
40
40.0
9
$HANDSEED
5
62060
9
$UNITMODE
70
0
9
$VISRETAIN
70
0
9
$PLINEGEN
70
0
9
$PSLTSCALE
70
1
9
$TREEDEPTH
70
3020
9
$CMLSTYLE
2
STANDARD
9
$CMLJUST
70
0
9
$CMLSCALE
40
1.0
9
$PROXYGRAPHICS
70
1
9
$MEASUREMENT
70
0
9
$CELWEIGHT
370
-1
9
$ENDCAPS
280
0
9
$JOINSTYLE
280
0
9
$LWDISPLAY
290
0
9
$INSUNITS
70
0
9
$HYPERLINKBASE
1

9
$STYLESHEET
1

9
$XEDIT
290
1
9
$CEPSNTYPE
380
0
9
$PSTYLEMODE
290
1
9
$FINGERPRINTGUID
2
{5F082321-0195-11D3-BDFB-0060B0CD5109}
9
$VERSIONGUID
2
{12943756-294D-11D3-98C2-0060B087942D}
9
$EXTNAMES
290
1
9
$PSVPSCALE
40
0.0
9
$OLESTARTUP
290
0
0
ENDSEC
0
SECTION
  2
CLASSES
0
ENDSEC
0
SECTION
2
TABLES
0
TABLE
2
VPORT
5
190
100
AcDbSymbolTable
70
2
0
VPORT
5
191
100
AcDbSymbolTableRecord
100
AcDbViewportTableRecord
2
*ACTIVE
70
0
10
0.0
20
0.0
11
1.0
21
1.0
12
594.500
22
420.500
13
0.0
23
0.0
14
1.0
24
1.0
15
0.0
25
0.0
16
0.0
26
0.0
36
1.0
17
0.0
27
0.0
37
0.0
40
861.594
41
2.0
42
50.0
43
0.0
44
0.0
50
0.0
51
0.0
71
0
72
1000
73
1
74
1
75
0
76
0
77
0
78
0
0
ENDTAB
0
TABLE
2
LTYPE
5
1f4
100
AcDbSymbolTable
70
9
0
LTYPE
5
1f5
100
AcDbSymbolTableRecord
100
AcDbLinetypeTableRecord
2
BYBLOCK
70
 64
3

72
 65
73
  0
40
0.0
0
LTYPE
5
1f6
100
AcDbSymbolTableRecord
100
AcDbLinetypeTableRecord
2
BYLAYER
70
 64
3

72
 65
73
  0
40
0.0
0
LTYPE
5
1f7
100
AcDbSymbolTableRecord
100
AcDbLinetypeTableRecord
2
CONTINUOUS
70
64
3
SolidLine
72
65
73
0
40
0.0
0
LTYPE
5
1f8
100
AcDbSymbolTableRecord
100
AcDbLinetypeTableRecord
2
DOT
70
64
3
--  --  --  --  --  --  --  --     
72
65
73
2
40
3.000
49
1.000
74
0
49
-2.000
74
0
0
LTYPE
5
1f9
100
AcDbSymbolTableRecord
100
AcDbLinetypeTableRecord
2
DASHED
70
64
3
----    ----    ----    ----    
72
65
73
2
40
5.000
49
2.000
74
0
49
-3.000
74
0
0
LTYPE
5
1fa
100
AcDbSymbolTableRecord
100
AcDbLinetypeTableRecord
2
DASHED2
70
64
3
------  ------  ------  ------ 
72
65
73
2
40
10.000
49
4.000
74
0
49
-6.000
74
0
0
LTYPE
5
1fb
100
AcDbSymbolTableRecord
100
AcDbLinetypeTableRecord
2
CENTER
70
64
3
----- - ----- - ----- - ----- - 
72
65
73
4
40
10.000
49
6.000
74
0
49
-3.000
74
0
49
1.000
74
0
49
-3.000
74
0
0
LTYPE
5
1fc
100
AcDbSymbolTableRecord
100
AcDbLinetypeTableRecord
2
CENTER2
70
64
3
----------  --  ----------  -- 
72
65
73
4
40
17.000
49
12.000
74
0
49
-5.000
74
0
49
2.000
74
0
49
-5.000
74
0
0
LTYPE
5
1fd
100
AcDbSymbolTableRecord
100
AcDbLinetypeTableRecord
2
PHANTOM
70
64
3
--- - - --- - - --- - - --- - -
72
65
73
6
40
13.000
49
5.000
74
0
49
-3.000
74
0
49
1.000
74
0
49
-3.000
74
0
49
1.000
74
0
49
-3.000
74
0
0
LTYPE
5
1fe
100
AcDbSymbolTableRecord
100
AcDbLinetypeTableRecord
2
PHANTOM2
70
64
3
--------  -  -  --------  -  -
72
65
73
6
40
20.000
49
6.000
74
0
49
-5.000
74
0
49
2.000
74
0
49
-5.000
74
0
49
2.000
74
0
49
-5.000
74
0
0
LTYPE
5
1ff
100
AcDbSymbolTableRecord
100
AcDbLinetypeTableRecord
2
HIDDEN
70
64
3
-   -   -   -   -   -   -   -   
72
65
73
2
40
3.000
49
0.500
74
0
49
-2.500
74
0
0
ENDTAB
0
TABLE
2
STYLE
5
200
100
AcDbSymbolTable
70
1
0
STYLE
5
201
100
AcDbSymbolTableRecord
100
AcDbTextStyleTableRecord
2
STANDARD
70
0
40
0.0
41
1.0
50
0.0
71
0
42
0.0
3
txt.shx
4
extfont.shx
0
STYLE
5
202
100
AcDbSymbolTableRecord
100
AcDbTextStyleTableRecord
2
TATEGAKI
70
4
40
0.0
41
1.0
50
0.0
71
0
42
0.0
3
txt.shx
4
extfont.shx
0
STYLE
5
203
100
AcDbSymbolTableRecord
100
AcDbTextStyleTableRecord
2
DIM
70
0
40
0.0
41
0.75
50
0.0
71
0
42
0.0
3
txt.shx
4
extfont.shx
0
STYLE
5
204
100
AcDbSymbolTableRecord
100
AcDbTextStyleTableRecord
2
_Gothic_
70
0
40
1.0
41
1.0
50
0.0
71
0
42
10.0
3

4

1001
ACAD
1000
MS Gothic
1071
32817
0
STYLE
5
205
100
AcDbSymbolTableRecord
100
AcDbTextStyleTableRecord
2
_TateGothic_
70
4
40
0.0
41
1.0
50
0.0
71
0
42
0.0
3
@MS Gothic
4

0
ENDTAB
0
TABLE
2
VIEW
5
206
100
AcDbSymbolTable
70
0
0
ENDTAB
0
TABLE
2
UCS
5
207
100
AcDbSymbolTable
70
0
0
ENDTAB
0
TABLE
2
APPID
5
208
100
AcDbSymbolTable
70
1
0
APPID
5
209
100
AcDbSymbolTableRecord
100
AcDbRegAppTableRecord
2
ACAD
70
0
0
ENDTAB
0
TABLE
2
DIMSTYLE
5
403
330
0
100
AcDbSymbolTable
70
1
100
AcDbDimStyleTable
71
0
0
DIMSTYLE
105
404
330
402
100
AcDbSymbolTableRecord
100
AcDbDimStyleTableRecord
2
JAC_DIM
70
0
41
2.000
42
0.000
44
0.0
73
0
74
0
77
1
78
8
79
2
140
0.000
170
0
171
2
172
0
173
0
174
0
175
0
176
0
177
0
178
0
270
2
271
0
272
0
273
2
274
2
340
201
275
0
280
0
281
0
282
0
283
0
284
0
285
0
286
0
287
3
288
0
0
ENDTAB
0
TABLE
2
BLOCK_RECORD
5
405
100
AcDbSymbolTable
70
0
0
BLOCK_RECORD
5
406
100
AcDbSymbolTableRecord
100
AcDbBlockTableRecord
2
*MODEL_SPACE
0
BLOCK_RECORD
5
407
100
AcDbSymbolTableRecord
100
AcDbBlockTableRecord
2
*PAPER_SPACE
0
BLOCK_RECORD
5
408
100
AcDbSymbolTableRecord
100
AcDbBlockTableRecord
2
_JACCONVERT_
0
ENDTAB
0
TABLE
2
LAYER
5
409
100
AcDbSymbolTable
70
10
0
LAYER
5
40a
100
AcDbSymbolTableRecord
100
AcDbLayerTableRecord
2
0
70
0
62
7
6
CONTINUOUS
370
-3
390
14
0
LAYER
5
40b
100
AcDbSymbolTableRecord
100
AcDbLayerTableRecord
2
0-0
70
0
62
7
6
CONTINUOUS
370
-3
390
14
0
LAYER
5
40c
100
AcDbSymbolTableRecord
100
AcDbLayerTableRecord
2
0-1
70
0
62
7
6
CONTINUOUS
370
-3
390
14
0
LAYER
5
40d
100
AcDbSymbolTableRecord
100
AcDbLayerTableRecord
2
0-F
70
0
62
7
6
CONTINUOUS
370
-3
390
14
0
LAYER
5
40e
100
AcDbSymbolTableRecord
100
AcDbLayerTableRecord
2
F-F_J_ADD
70
0
62
-7
6
CONTINUOUS
290
0
370
-3
390
14
0
ENDTAB
0
ENDSEC
0
SECTION
2
BLOCKS
0
BLOCK
5
40f
100
AcDbEntity
67
1
8
0
100
AcDbBlockBegin
2
*MODEL_SPACE
70
0
10
0.0
20
0.0
30
0.0
3
*MODEL_SPACE
1

0
ENDBLK
5
410
100
AcDbEntity
8
0
100
AcDbBlockEnd
0
BLOCK
5
411
100
AcDbEntity
67
1
8
0
100
AcDbBlockBegin
2
*PAPER_SPACE
70
0
10
0.0
20
0.0
30
0.0
3
*PAPER_SPACE
1

0
ENDBLK
5
412
100
AcDbEntity
67
1
8
0
100
AcDbBlockEnd
0
BLOCK
5
413
100
AcDbEntity
8
0
100
AcDbBlockBegin
2
_JACCONVERT_
70
2
10
0.0
20
0.0
30
0.0
3
_JACCONVERT_
1
_JACCONVERT_
0
ATTDEF
5
414
100
AcDbEntity
8
0
62
0
100
AcDbText
10
0.0
20
0.0
30
0.0
40
1.0
1
User:UnSettingUp
100
AcDbAttributeDefinition
3

2
USER
70
8
0
ATTDEF
5
415
100
AcDbEntity
8
0
62
0
100
AcDbText
10
0.0
20
2.0
30
0.0
40
1.0
1
Date:23/07/14 16:41
100
AcDbAttributeDefinition
3

2
REVDATE
70
8
0
ATTDEF
5
416
100
AcDbEntity
8
0
62
0
100
AcDbText
10
0.0
20
4.0
30
0.0
40
1.0
1
File:101_LECO25_frame.dxf
100
AcDbAttributeDefinition
3

2
FNAME
70
8
0
ATTDEF
5
417
100
AcDbEntity
8
0
62
0
100
AcDbText
10
0.0
20
6.0
30
0.0
40
1.0
1
JacConvert Version3.11 copyright (c) 2001-2016 K.Nakahara
100
AcDbAttributeDefinition
3

2
VER
70
8
0
ENDBLK
5
418
100
AcDbEntity
67
1
8
0
100
AcDbBlockEnd
0
ENDSEC
0
SECTION
2
ENTITIES
0
LINE
5
419
100
AcDbEntity
8
0-1
6
CENTER
62
4
100
AcDbLine
10
242.500000000000
20
62.409357069677
30
0.0
11
275.000000000000
21
62.409357069677
31
0.0
0
LINE
5
41a
100
AcDbEntity
8
0-0
6
CONTINUOUS
62
7
100
AcDbLine
10
329.000000000000
20
-0.000000000000
30
0.0
11
318.900000000000
21
-0.000000000000
31
0.0
0
LINE
5
41b
100
AcDbEntity
8
0-0
6
CONTINUOUS
62
7
100
AcDbLine
10
1.400000000000
20
58.000000000000
30
0.0
11
1.400000000000
21
67.000000000000
31
0.0
0
LINE
5
41c
100
AcDbEntity
8
0-0
6
CONTINUOUS
62
7
100
AcDbLine
10
1.700000000000
20
67.300000000000
30
0.0
11
4.367878114960
21
67.300000000000
31
0.0
0
LINE
5
41d
100
AcDbEntity
8
0-0
6
CONTINUOUS
62
7
100
AcDbLine
10
4.657655862847
20
67.077645713531
30
0.0
11
4.940420348507
21
66.022354286469
31
0.0
0
LINE
5
41e
100
AcDbEntity
8
0-0
6
CONTINUOUS
62
7
100
AcDbLine
10
5.230198096394
20
65.800000000000
30
0.0
11
9.769801903606
21
65.800000000000
31
0.0
0
LINE
5
41f
100
AcDbEntity
8
0-0
6
CONTINUOUS
62
7
100
AcDbLine
10
10.059579651493
20
66.022354286469
30
0.0
11
10.342344137153
21
67.077645713531
31
0.0
0
LINE
5
420
100
AcDbEntity
8
0-0
6
CONTINUOUS
62
7
100
AcDbLine
10
10.632121885040
20
67.300000000000
30
0.0
11
13.300000000000
21
67.300000000000
31
0.0
0
LINE
5
421
100
AcDbEntity
8
0-0
6
CONTINUOUS
62
7
100
AcDbLine
10
13.600000000000
20
67.000000000000
30
0.0
11
13.600000000000
21
58.000000000000
31
0.0
0
LINE
5
422
100
AcDbEntity
8
0-0
6
CONTINUOUS
62
7
100
AcDbLine
10
13.300000000000
20
57.700000000000
30
0.0
11
10.632121885040
21
57.700000000000
31
0.0
0
LINE
5
423
100
AcDbEntity
8
0-0
6
CONTINUOUS
62
7
100
AcDbLine
10
10.342344137153
20
57.922354286469
30
0.0
11
10.059579651493
21
58.977645713531
31
0.0
0
LINE
5
424
100
AcDbEntity
8
0-0
6
CONTINUOUS
62
7
100
AcDbLine
10
9.769801903606
20
59.200000000000
30
0.0
11
5.230198096394
21
59.200000000000
31
0.0
0
LINE
5
425
100
AcDbEntity
8
0-0
6
CONTINUOUS
62
7
100
AcDbLine
10
4.940420348507
20
58.977645713531
30
0.0
11
4.657655862847
21
57.922354286469
31
0.0
0
LINE
5
426
100
AcDbEntity
8
0-0
6
CONTINUOUS
62
7
100
AcDbLine
10
4.367878114960
20
57.700000000000
30
0.0
11
1.700000000000
21
57.700000000000
31
0.0
0
LINE
5
427
100
AcDbEntity
8
0-0
6
CONTINUOUS
62
7
100
AcDbLine
10
2.612132034356
20
56.112132034356
30
0.0
11
1.587867965644
21
55.087867965644
31
0.0
0
LINE
5
428
100
AcDbEntity
8
0-0
6
CONTINUOUS
62
7
100
AcDbLine
10
1.500000000000
20
54.875735931288
30
0.0
11
1.500000000000
21
52.100000000000
31
0.0
0
LINE
5
429
100
AcDbEntity
8
0-0
6
CONTINUOUS
62
7
100
AcDbLine
10
1.800000000000
20
51.800000000000
30
0.0
11
3.600000000000
21
51.800000000000
31
0.0
0
LINE
5
42a
100
AcDbEntity
8
0-0
6
CONTINUOUS
62
7
100
AcDbLine
10
3.900000000000
20
51.500000000000
30
0.0
11
3.900000000000
21
50.300000000000
31
0.0
0
LINE
5
42b
100
AcDbEntity
8
0-0
6
CONTINUOUS
62
7
100
AcDbLine
10
1.000000000000
20
70.000000000000
30
0.0
11
3.103589838486
21
70.000000000000
31
0.0
0
LINE
5
42c
100
AcDbEntity
8
0-0
6
CONTINUOUS
62
7
100
AcDbLine
10
3.253589838486
20
69.959807621135
30
0.0
11
4.050000000000
21
69.500000000000
31
0.0
0
LINE
5
42d
100
AcDbEntity
8
0-0
6
CONTINUOUS
62
7
100
AcDbLine
10
4.130384757730
20
69.500000000000
30
0.0
11
10.869615242270
21
69.500000000000
31
0.0
0
LINE
5
42e
100
AcDbEntity
8
0-0
6
CONTINUOUS
62
7
100
AcDbLine
10
10.950000000000
20
69.500000000000
30
0.0
11
11.746410161513
21
69.959807621135
31
0.0
0
LINE
5
42f
100
AcDbEntity
8
0-0
6
CONTINUOUS
62
7
100
AcDbLine
10
11.816025403784
20
70.000000000000
30
0.0
11
14.000000000000
21
70.000000000000
31
0.0
0
LINE
5
430
100
AcDbEntity
8
0-0
6
CONTINUOUS
62
7
100
AcDbLine
10
15.000000000000
20
69.000000000000
30
0.0
11
15.000000000000
21
51.000000000000
31
0.0
0
LINE
5
431
100
AcDbEntity
8
0-0
6
CONTINUOUS
62
7
100
AcDbLine
10
14.000000000000
20
50.000000000000
30
0.0
11
11.400000000000
21
50.000000000000
31
0.0
0
LINE
5
432
100
AcDbEntity
8
0-0
6
CONTINUOUS
62
7
100
AcDbLine
10
11.100000000000
20
50.300000000000
30
0.0
11
11.100000000000
21
51.500000000000
31
0.0
0
LINE
5
433
100
AcDbEntity
8
0-0
6
CONTINUOUS
62
7
100
AcDbLine
10
11.400000000000
20
51.800000000000
30
0.0
11
13.200000000000
21
51.800000000000
31
0.0
0
LINE
5
434
100
AcDbEntity
8
0-0
6
CONTINUOUS
62
7
100
AcDbLine
10
13.500000000000
20
52.100000000000
30
0.0
11
13.500000000000
21
54.875735931288
31
0.0
0
LINE
5
435
100
AcDbEntity
8
0-0
6
CONTINUOUS
62
7
100
AcDbLine
10
13.412132034356
20
55.087867965644
30
0.0
11
12.387867965644
21
56.112132034356
31
0.0
0
LINE
5
436
100
AcDbEntity
8
0-0
6
CONTINUOUS
62
7
100
AcDbLine
10
12.175735931288
20
56.200000000000
30
0.0
11
2.824264068712
21
56.200000000000
31
0.0
0
ARC
5
437
100
AcDbEntity
8
0-0
6
CONTINUOUS
62
7
100
AcDbCircle
10
10.632121885040
20
58.000000000000
30
0.0
40
0.300000000000
100
AcDbArc
50
195.000000000000
51
270.000000000000
0
ARC
5
438
100
AcDbEntity
8
0-0
6
CONTINUOUS
62
7
100
AcDbCircle
10
9.769801903606
20
58.900000000000
30
0.0
40
0.300000000000
100
AcDbArc
50
15.000000000000
51
90.000000000000
0
ARC
5
439
100
AcDbEntity
8
0-0
6
CONTINUOUS
62
7
100
AcDbCircle
10
10.632121885040
20
67.000000000000
30
0.0
40
0.300000000000
100
AcDbArc
50
90.000000000000
51
165.000000000000
0
ARC
5
43a
100
AcDbEntity
8
0-0
6
CONTINUOUS
62
7
100
AcDbCircle
10
9.769801903606
20
66.100000000000
30
0.0
40
0.300000000000
100
AcDbArc
50
270.000000000000
51
345.000000000000
0
ARC
5
43b
100
AcDbEntity
8
0-0
6
CONTINUOUS
62
7
100
AcDbCircle
10
11.400000000000
20
50.300000000000
30
0.0
40
0.300000000000
100
AcDbArc
50
180.000000000000
51
270.000000000000
0
ARC
5
43c
100
AcDbEntity
8
0-0
6
CONTINUOUS
62
7
100
AcDbCircle
10
11.400000000000
20
51.500000000000
30
0.0
40
0.300000000000
100
AcDbArc
50
90.000000000000
51
180.000000000000
0
ARC
5
43d
100
AcDbEntity
8
0-0
6
CONTINUOUS
62
7
100
AcDbCircle
10
13.200000000000
20
52.100000000000
30
0.0
40
0.300000000000
100
AcDbArc
50
270.000000000000
51
360.000000000000
0
ARC
5
43e
100
AcDbEntity
8
0-0
6
CONTINUOUS
62
7
100
AcDbCircle
10
13.200000000000
20
54.875735931288
30
0.0
40
0.300000000000
100
AcDbArc
50
0.000000000000
51
45.000000000000
0
ARC
5
43f
100
AcDbEntity
8
0-0
6
CONTINUOUS
62
7
100
AcDbCircle
10
12.175735931288
20
55.900000000000
30
0.0
40
0.300000000000
100
AcDbArc
50
45.000000000000
51
90.000000000000
0
ARC
5
440
100
AcDbEntity
8
0-0
6
CONTINUOUS
62
7
100
AcDbCircle
10
14.000000000000
20
51.000000000000
30
0.0
40
1.000000000000
100
AcDbArc
50
270.000000000000
51
360.000000000000
0
ARC
5
441
100
AcDbEntity
8
0-0
6
CONTINUOUS
62
7
100
AcDbCircle
10
14.000000000000
20
69.000000000000
30
0.0
40
1.000000000000
100
AcDbArc
50
0.000000000000
51
90.000000000000
0
ARC
5
442
100
AcDbEntity
8
0-0
6
CONTINUOUS
62
7
100
AcDbCircle
10
11.896410161513
20
69.700000000000
30
0.0
40
0.300000000000
100
AcDbArc
50
90.000000000000
51
120.000000000000
0
ARC
5
443
100
AcDbEntity
8
0-0
6
CONTINUOUS
62
7
100
AcDbCircle
10
10.869615242270
20
69.800000000000
30
0.0
40
0.300000000000
100
AcDbArc
50
270.000000000000
51
300.000000000000
0
ARC
5
444
100
AcDbEntity
8
0-0
6
CONTINUOUS
62
7
100
AcDbCircle
10
4.367878114960
20
58.000000000000
30
0.0
40
0.300000000000
100
AcDbArc
50
270.000000000000
51
345.000000000000
0
ARC
5
445
100
AcDbEntity
8
0-0
6
CONTINUOUS
62
7
100
AcDbCircle
10
5.230198096394
20
58.900000000000
30
0.0
40
0.300000000000
100
AcDbArc
50
90.000000000000
51
165.000000000000
0
ARC
5
446
100
AcDbEntity
8
0-0
6
CONTINUOUS
62
7
100
AcDbCircle
10
4.367878114960
20
67.000000000000
30
0.0
40
0.300000000000
100
AcDbArc
50
15.000000000000
51
90.000000000000
0
ARC
5
447
100
AcDbEntity
8
0-0
6
CONTINUOUS
62
7
100
AcDbCircle
10
5.230198096394
20
66.100000000000
30
0.0
40
0.300000000000
100
AcDbArc
50
195.000000000000
51
270.000000000000
0
ARC
5
448
100
AcDbEntity
8
0-0
6
CONTINUOUS
62
7
100
AcDbCircle
10
3.600000000000
20
50.300000000000
30
0.0
40
0.300000000000
100
AcDbArc
50
270.000000000000
51
360.000000000000
0
ARC
5
449
100
AcDbEntity
8
0-0
6
CONTINUOUS
62
7
100
AcDbCircle
10
3.600000000000
20
51.500000000000
30
0.0
40
0.300000000000
100
AcDbArc
50
0.000000000000
51
90.000000000000
0
ARC
5
44a
100
AcDbEntity
8
0-0
6
CONTINUOUS
62
7
100
AcDbCircle
10
1.800000000000
20
52.100000000000
30
0.0
40
0.300000000000
100
AcDbArc
50
180.000000000000
51
270.000000000000
0
ARC
5
44b
100
AcDbEntity
8
0-0
6
CONTINUOUS
62
7
100
AcDbCircle
10
1.800000000000
20
54.875735931288
30
0.0
40
0.300000000000
100
AcDbArc
50
135.000000000000
51
180.000000000000
0
ARC
5
44c
100
AcDbEntity
8
0-0
6
CONTINUOUS
62
7
100
AcDbCircle
10
2.824264068712
20
55.900000000000
30
0.0
40
0.300000000000
100
AcDbArc
50
90.000000000000
51
135.000000000000
0
ARC
5
44d
100
AcDbEntity
8
0-0
6
CONTINUOUS
62
7
100
AcDbCircle
10
1.000000000000
20
51.000000000000
30
0.0
40
1.000000000000
100
AcDbArc
50
180.000000000000
51
270.000000000000
0
ARC
5
44e
100
AcDbEntity
8
0-0
6
CONTINUOUS
62
7
100
AcDbCircle
10
1.000000000000
20
69.000000000000
30
0.0
40
1.000000000000
100
AcDbArc
50
90.000000000000
51
180.000000000000
0
ARC
5
44f
100
AcDbEntity
8
0-0
6
CONTINUOUS
62
7
100
AcDbCircle
10
3.103589838486
20
69.700000000000
30
0.0
40
0.300000000000
100
AcDbArc
50
60.000000000000
51
90.000000000000
0
ARC
5
450
100
AcDbEntity
8
0-0
6
CONTINUOUS
62
7
100
AcDbCircle
10
4.130384757730
20
69.800000000000
30
0.0
40
0.300000000000
100
AcDbArc
50
240.000000000000
51
270.000000000000
0
ARC
5
451
100
AcDbEntity
8
0-0
6
CONTINUOUS
62
7
100
AcDbCircle
10
1.700000000000
20
58.000000000000
30
0.0
40
0.300000000000
100
AcDbArc
50
180.000000000000
51
270.000000000000
0
ARC
5
452
100
AcDbEntity
8
0-0
6
CONTINUOUS
62
7
100
AcDbCircle
10
1.700000000000
20
67.000000000000
30
0.0
40
0.300000000000
100
AcDbArc
50
90.000000000000
51
180.000000000000
0
ARC
5
453
100
AcDbEntity
8
0-0
6
CONTINUOUS
62
7
100
AcDbCircle
10
13.300000000000
20
58.000000000000
30
0.0
40
0.300000000000
100
AcDbArc
50
270.000000000000
51
360.000000000000
0
ARC
5
454
100
AcDbEntity
8
0-0
6
CONTINUOUS
62
7
100
AcDbCircle
10
13.300000000000
20
67.000000000000
30
0.0
40
0.300000000000
100
AcDbArc
50
0.000000000000
51
90.000000000000
0
LINE
5
455
100
AcDbEntity
8
0-0
6
CONTINUOUS
62
7
100
AcDbLine
10
-0.000000000000
20
51.000000000000
30
0.0
11
-0.000000000000
21
69.000000000000
31
0.0
0
LINE
5
456
100
AcDbEntity
8
0-0
6
CONTINUOUS
62
7
100
AcDbLine
10
3.600000000000
20
50.000000000000
30
0.0
11
1.000000000000
21
50.000000000000
31
0.0
0
LINE
5
457
100
AcDbEntity
8
0-0
6
CONTINUOUS
62
7
100
AcDbLine
10
75.000000000000
20
51.000000000000
30
0.0
11
75.000000000000
21
53.600000000000
31
0.0
0
LINE
5
458
100
AcDbEntity
8
0-0
6
CONTINUOUS
62
7
100
AcDbLine
10
74.700000000000
20
53.900000000000
30
0.0
11
73.500000000000
21
53.900000000000
31
0.0
0
LINE
5
459
100
AcDbEntity
8
0-0
6
CONTINUOUS
62
7
100
AcDbLine
10
73.200000000000
20
53.600000000000
30
0.0
11
73.200000000000
21
51.800000000000
31
0.0
0
LINE
5
45a
100
AcDbEntity
8
0-0
6
CONTINUOUS
62
7
100
AcDbLine
10
72.900000000000
20
51.500000000000
30
0.0
11
70.124264068712
21
51.500000000000
31
0.0
0
LINE
5
45b
100
AcDbEntity
8
0-0
6
CONTINUOUS
62
7
100
AcDbLine
10
69.912132034356
20
51.587867965644
30
0.0
11
68.887867965644
21
52.612132034356
31
0.0
0
LINE
5
45c
100
AcDbEntity
8
0-0
6
CONTINUOUS
62
7
100
AcDbLine
10
68.800000000000
20
52.824264068712
30
0.0
11
68.800000000000
21
62.175735931288
31
0.0
0
LINE
5
45d
100
AcDbEntity
8
0-0
6
CONTINUOUS
62
7
100
AcDbLine
10
68.887867965644
20
62.387867965644
30
0.0
11
69.912132034356
21
63.412132034356
31
0.0
0
LINE
5
45e
100
AcDbEntity
8
0-0
6
CONTINUOUS
62
7
100
AcDbLine
10
70.124264068712
20
63.500000000000
30
0.0
11
72.900000000000
21
63.500000000000
31
0.0
0
LINE
5
45f
100
AcDbEntity
8
0-0
6
CONTINUOUS
62
7
100
AcDbLine
10
73.200000000000
20
63.200000000000
30
0.0
11
73.200000000000
21
61.400000000000
31
0.0
0
LINE
5
460
100
AcDbEntity
8
0-0
6
CONTINUOUS
62
7
100
AcDbLine
10
73.500000000000
20
61.100000000000
30
0.0
11
74.700000000000
21
61.100000000000
31
0.0
0
LINE
5
461
100
AcDbEntity
8
0-0
6
CONTINUOUS
62
7
100
AcDbLine
10
75.000000000000
20
61.400000000000
30
0.0
11
75.000000000000
21
64.000000000000
31
0.0
0
LINE
5
462
100
AcDbEntity
8
0-0
6
CONTINUOUS
62
7
100
AcDbLine
10
74.000000000000
20
65.000000000000
30
0.0
11
68.324264068712
21
65.000000000000
31
0.0
0
LINE
5
463
100
AcDbEntity
8
0-0
6
CONTINUOUS
62
7
100
AcDbLine
10
68.112132034356
20
64.912132034356
30
0.0
11
67.087867965644
21
63.887867965644
31
0.0
0
LINE
5
464
100
AcDbEntity
8
0-0
6
CONTINUOUS
62
7
100
AcDbLine
10
66.875735931288
20
63.800000000000
30
0.0
11
58.124264068712
21
63.800000000000
31
0.0
0
LINE
5
465
100
AcDbEntity
8
0-0
6
CONTINUOUS
62
7
100
AcDbLine
10
57.912132034356
20
63.887867965644
30
0.0
11
56.887867965644
21
64.912132034356
31
0.0
0
LINE
5
466
100
AcDbEntity
8
0-0
6
CONTINUOUS
62
7
100
AcDbLine
10
56.675735931288
20
65.000000000000
30
0.0
11
51.000000000000
21
65.000000000000
31
0.0
0
LINE
5
467
100
AcDbEntity
8
0-0
6
CONTINUOUS
62
7
100
AcDbLine
10
50.000000000000
20
64.000000000000
30
0.0
11
50.000000000000
21
61.400000000000
31
0.0
0
LINE
5
468
100
AcDbEntity
8
0-0
6
CONTINUOUS
62
7
100
AcDbLine
10
50.300000000000
20
61.100000000000
30
0.0
11
51.500000000000
21
61.100000000000
31
0.0
0
LINE
5
469
100
AcDbEntity
8
0-0
6
CONTINUOUS
62
7
100
AcDbLine
10
51.800000000000
20
61.400000000000
30
0.0
11
51.800000000000
21
63.200000000000
31
0.0
0
LINE
5
46a
100
AcDbEntity
8
0-0
6
CONTINUOUS
62
7
100
AcDbLine
10
52.100000000000
20
63.500000000000
30
0.0
11
54.875735931288
21
63.500000000000
31
0.0
0
LINE
5
46b
100
AcDbEntity
8
0-0
6
CONTINUOUS
62
7
100
AcDbLine
10
55.087867965644
20
63.412132034356
30
0.0
11
56.112132034356
21
62.387867965644
31
0.0
0
LINE
5
46c
100
AcDbEntity
8
0-0
6
CONTINUOUS
62
7
100
AcDbLine
10
56.200000000000
20
62.175735931288
30
0.0
11
56.200000000000
21
52.824264068712
31
0.0
0
LINE
5
46d
100
AcDbEntity
8
0-0
6
CONTINUOUS
62
7
100
AcDbLine
10
56.112132034356
20
52.612132034356
30
0.0
11
55.087867965644
21
51.587867965644
31
0.0
0
LINE
5
46e
100
AcDbEntity
8
0-0
6
CONTINUOUS
62
7
100
AcDbLine
10
54.875735931288
20
51.500000000000
30
0.0
11
52.100000000000
21
51.500000000000
31
0.0
0
LINE
5
46f
100
AcDbEntity
8
0-0
6
CONTINUOUS
62
7
100
AcDbLine
10
51.800000000000
20
51.800000000000
30
0.0
11
51.800000000000
21
53.600000000000
31
0.0
0
LINE
5
470
100
AcDbEntity
8
0-0
6
CONTINUOUS
62
7
100
AcDbLine
10
51.500000000000
20
53.900000000000
30
0.0
11
50.300000000000
21
53.900000000000
31
0.0
0
LINE
5
471
100
AcDbEntity
8
0-0
6
CONTINUOUS
62
7
100
AcDbLine
10
50.000000000000
20
53.600000000000
30
0.0
11
50.000000000000
21
51.000000000000
31
0.0
0
LINE
5
472
100
AcDbEntity
8
0-0
6
CONTINUOUS
62
7
100
AcDbLine
10
51.000000000000
20
50.000000000000
30
0.0
11
56.675735931288
21
50.000000000000
31
0.0
0
LINE
5
473
100
AcDbEntity
8
0-0
6
CONTINUOUS
62
7
100
AcDbLine
10
56.887867965644
20
50.087867965644
30
0.0
11
57.912132034356
21
51.112132034356
31
0.0
0
LINE
5
474
100
AcDbEntity
8
0-0
6
CONTINUOUS
62
7
100
AcDbLine
10
58.124264068712
20
51.200000000000
30
0.0
11
66.875735931288
21
51.200000000000
31
0.0
0
LINE
5
475
100
AcDbEntity
8
0-0
6
CONTINUOUS
62
7
100
AcDbLine
10
67.087867965644
20
51.112132034356
30
0.0
11
68.112132034356
21
50.087867965644
31
0.0
0
LINE
5
476
100
AcDbEntity
8
0-0
6
CONTINUOUS
62
7
100
AcDbLine
10
68.324264068712
20
50.000000000000
30
0.0
11
74.000000000000
21
50.000000000000
31
0.0
0
LINE
5
477
100
AcDbEntity
8
0-0
6
CONTINUOUS
62
7
100
AcDbLine
10
67.400000000000
20
53.000000000000
30
0.0
11
67.400000000000
21
62.000000000000
31
0.0
0
LINE
5
478
100
AcDbEntity
8
0-0
6
CONTINUOUS
62
7
100
AcDbLine
10
67.100000000000
20
62.300000000000
30
0.0
11
65.632121885040
21
62.300000000000
31
0.0
0
LINE
5
479
100
AcDbEntity
8
0-0
6
CONTINUOUS
62
7
100
AcDbLine
10
65.342344137153
20
62.077645713531
30
0.0
11
65.059579651493
21
61.022354286469
31
0.0
0
LINE
5
47a
100
AcDbEntity
8
0-0
6
CONTINUOUS
62
7
100
AcDbLine
10
64.769801903606
20
60.800000000000
30
0.0
11
63.938749456994
21
60.800000000000
31
0.0
0
LINE
5
47b
100
AcDbEntity
8
0-0
6
CONTINUOUS
62
7
100
AcDbLine
10
61.061250543006
20
60.800000000000
30
0.0
11
60.230198096393
21
60.800000000000
31
0.0
0
LINE
5
47c
100
AcDbEntity
8
0-0
6
CONTINUOUS
62
7
100
AcDbLine
10
59.940420348507
20
61.022354286469
30
0.0
11
59.657655862846
21
62.077645713531
31
0.0
0
LINE
5
47d
100
AcDbEntity
8
0-0
6
CONTINUOUS
62
7
100
AcDbLine
10
59.367878114960
20
62.300000000000
30
0.0
11
57.900000000000
21
62.300000000000
31
0.0
0
LINE
5
47e
100
AcDbEntity
8
0-0
6
CONTINUOUS
62
7
100
AcDbLine
10
57.600000000000
20
62.000000000000
30
0.0
11
57.600000000000
21
53.000000000000
31
0.0
0
LINE
5
47f
100
AcDbEntity
8
0-0
6
CONTINUOUS
62
7
100
AcDbLine
10
57.900000000000
20
52.700000000000
30
0.0
11
59.367878114960
21
52.700000000000
31
0.0
0
LINE
5
480
100
AcDbEntity
8
0-0
6
CONTINUOUS
62
7
100
AcDbLine
10
59.657655862846
20
52.922354286469
30
0.0
11
59.940420348507
21
53.977645713531
31
0.0
0
LINE
5
481
100
AcDbEntity
8
0-0
6
CONTINUOUS
62
7
100
AcDbLine
10
60.230198096393
20
54.200000000000
30
0.0
11
61.061250543006
21
54.200000000000
31
0.0
0
LINE
5
482
100
AcDbEntity
8
0-0
6
CONTINUOUS
62
7
100
AcDbLine
10
63.938749456993
20
54.200000000000
30
0.0
11
64.769801903606
21
54.200000000000
31
0.0
0
LINE
5
483
100
AcDbEntity
8
0-0
6
CONTINUOUS
62
7
100
AcDbLine
10
65.059579651493
20
53.977645713531
30
0.0
11
65.342344137153
21
52.922354286469
31
0.0
0
LINE
5
484
100
AcDbEntity
8
0-0
6
CONTINUOUS
62
7
100
AcDbLine
10
65.632121885040
20
52.700000000000
30
0.0
11
67.100000000000
21
52.700000000000
31
0.0
0
ARC
5
485
100
AcDbEntity
8
0-0
6
CONTINUOUS
62
7
100
AcDbCircle
10
51.000000000000
20
51.000000000000
30
0.0
40
1.000000000000
100
AcDbArc
50
180.000000000000
51
270.000000000000
0
ARC
5
486
100
AcDbEntity
8
0-0
6
CONTINUOUS
62
7
100
AcDbCircle
10
51.000000000000
20
64.000000000000
30
0.0
40
1.000000000000
100
AcDbArc
50
90.000000000000
51
180.000000000000
0
ARC
5
487
100
AcDbEntity
8
0-0
6
CONTINUOUS
62
7
100
AcDbCircle
10
74.000000000000
20
51.000000000000
30
0.0
40
1.000000000000
100
AcDbArc
50
270.000000000000
51
360.000000000000
0
ARC
5
488
100
AcDbEntity
8
0-0
6
CONTINUOUS
62
7
100
AcDbCircle
10
74.000000000000
20
64.000000000000
30
0.0
40
1.000000000000
100
AcDbArc
50
0.000000000000
51
90.000000000000
0
ARC
5
489
100
AcDbEntity
8
0-0
6
CONTINUOUS
62
7
100
AcDbCircle
10
50.300000000000
20
53.600000000000
30
0.0
40
0.300000000000
100
AcDbArc
50
90.000000000000
51
180.000000000000
0
ARC
5
48a
100
AcDbEntity
8
0-0
6
CONTINUOUS
62
7
100
AcDbCircle
10
51.500000000000
20
53.600000000000
30
0.0
40
0.300000000000
100
AcDbArc
50
0.000000000000
51
90.000000000000
0
ARC
5
48b
100
AcDbEntity
8
0-0
6
CONTINUOUS
62
7
100
AcDbCircle
10
52.100000000000
20
51.800000000000
30
0.0
40
0.300000000000
100
AcDbArc
50
180.000000000000
51
270.000000000000
0
ARC
5
48c
100
AcDbEntity
8
0-0
6
CONTINUOUS
62
7
100
AcDbCircle
10
54.875735931288
20
51.800000000000
30
0.0
40
0.300000000000
100
AcDbArc
50
270.000000000000
51
315.000000000000
0
ARC
5
48d
100
AcDbEntity
8
0-0
6
CONTINUOUS
62
7
100
AcDbCircle
10
55.900000000000
20
52.824264068712
30
0.0
40
0.300000000000
100
AcDbArc
50
315.000000000000
51
360.000000000000
0
ARC
5
48e
100
AcDbEntity
8
0-0
6
CONTINUOUS
62
7
100
AcDbCircle
10
54.875735931288
20
63.200000000000
30
0.0
40
0.300000000000
100
AcDbArc
50
45.000000000000
51
90.000000000000
0
ARC
5
48f
100
AcDbEntity
8
0-0
6
CONTINUOUS
62
7
100
AcDbCircle
10
52.100000000000
20
63.200000000000
30
0.0
40
0.300000000000
100
AcDbArc
50
90.000000000000
51
180.000000000000
0
ARC
5
490
100
AcDbEntity
8
0-0
6
CONTINUOUS
62
7
100
AcDbCircle
10
51.500000000000
20
61.400000000000
30
0.0
40
0.300000000000
100
AcDbArc
50
270.000000000000
51
360.000000000000
0
ARC
5
491
100
AcDbEntity
8
0-0
6
CONTINUOUS
62
7
100
AcDbCircle
10
50.300000000000
20
61.400000000000
30
0.0
40
0.300000000000
100
AcDbArc
50
180.000000000000
51
270.000000000000
0
ARC
5
492
100
AcDbEntity
8
0-0
6
CONTINUOUS
62
7
100
AcDbCircle
10
56.675735931288
20
64.700000000000
30
0.0
40
0.300000000000
100
AcDbArc
50
45.000000000000
51
90.000000000000
0
ARC
5
493
100
AcDbEntity
8
0-0
6
CONTINUOUS
62
7
100
AcDbCircle
10
58.124264068712
20
64.100000000000
30
0.0
40
0.300000000000
100
AcDbArc
50
225.000000000000
51
270.000000000000
0
ARC
5
494
100
AcDbEntity
8
0-0
6
CONTINUOUS
62
7
100
AcDbCircle
10
66.875735931288
20
64.100000000000
30
0.0
40
0.300000000000
100
AcDbArc
50
270.000000000000
51
315.000000000000
0
ARC
5
495
100
AcDbEntity
8
0-0
6
CONTINUOUS
62
7
100
AcDbCircle
10
68.324264068712
20
64.700000000000
30
0.0
40
0.300000000000
100
AcDbArc
50
90.000000000000
51
135.000000000000
0
ARC
5
496
100
AcDbEntity
8
0-0
6
CONTINUOUS
62
7
100
AcDbCircle
10
74.700000000000
20
61.400000000000
30
0.0
40
0.300000000000
100
AcDbArc
50
270.000000000000
51
360.000000000000
0
ARC
5
497
100
AcDbEntity
8
0-0
6
CONTINUOUS
62
7
100
AcDbCircle
10
73.500000000000
20
61.400000000000
30
0.0
40
0.300000000000
100
AcDbArc
50
180.000000000000
51
270.000000000000
0
ARC
5
498
100
AcDbEntity
8
0-0
6
CONTINUOUS
62
7
100
AcDbCircle
10
72.900000000000
20
63.200000000000
30
0.0
40
0.300000000000
100
AcDbArc
50
0.000000000000
51
90.000000000000
0
ARC
5
499
100
AcDbEntity
8
0-0
6
CONTINUOUS
62
7
100
AcDbCircle
10
70.124264068712
20
63.200000000000
30
0.0
40
0.300000000000
100
AcDbArc
50
90.000000000000
51
135.000000000000
0
ARC
5
49a
100
AcDbEntity
8
0-0
6
CONTINUOUS
62
7
100
AcDbCircle
10
69.100000000000
20
62.175735931288
30
0.0
40
0.300000000000
100
AcDbArc
50
135.000000000000
51
180.000000000000
0
ARC
5
49b
100
AcDbEntity
8
0-0
6
CONTINUOUS
62
7
100
AcDbCircle
10
70.124264068712
20
51.800000000000
30
0.0
40
0.300000000000
100
AcDbArc
50
225.000000000000
51
270.000000000000
0
ARC
5
49c
100
AcDbEntity
8
0-0
6
CONTINUOUS
62
7
100
AcDbCircle
10
73.500000000000
20
53.600000000000
30
0.0
40
0.300000000000
100
AcDbArc
50
90.000000000000
51
180.000000000000
0
ARC
5
49d
100
AcDbEntity
8
0-0
6
CONTINUOUS
62
7
100
AcDbCircle
10
74.700000000000
20
53.600000000000
30
0.0
40
0.300000000000
100
AcDbArc
50
0.000000000000
51
90.000000000000
0
ARC
5
49e
100
AcDbEntity
8
0-0
6
CONTINUOUS
62
7
100
AcDbCircle
10
72.900000000000
20
51.800000000000
30
0.0
40
0.300000000000
100
AcDbArc
50
270.000000000000
51
360.000000000000
0
ARC
5
49f
100
AcDbEntity
8
0-0
6
CONTINUOUS
62
7
100
AcDbCircle
10
68.324264068712
20
50.300000000000
30
0.0
40
0.300000000000
100
AcDbArc
50
225.000000000000
51
270.000000000000
0
ARC
5
4a0
100
AcDbEntity
8
0-0
6
CONTINUOUS
62
7
100
AcDbCircle
10
66.875735931288
20
50.900000000000
30
0.0
40
0.300000000000
100
AcDbArc
50
45.000000000000
51
90.000000000000
0
ARC
5
4a1
100
AcDbEntity
8
0-0
6
CONTINUOUS
62
7
100
AcDbCircle
10
58.124264068712
20
50.900000000000
30
0.0
40
0.300000000000
100
AcDbArc
50
90.000000000000
51
135.000000000000
0
ARC
5
4a2
100
AcDbEntity
8
0-0
6
CONTINUOUS
62
7
100
AcDbCircle
10
56.675735931288
20
50.300000000000
30
0.0
40
0.300000000000
100
AcDbArc
50
270.000000000000
51
315.000000000000
0
ARC
5
4a3
100
AcDbEntity
8
0-0
6
CONTINUOUS
62
7
100
AcDbCircle
10
67.100000000000
20
53.000000000000
30
0.0
40
0.300000000000
100
AcDbArc
50
270.000000000000
51
360.000000000000
0
ARC
5
4a4
100
AcDbEntity
8
0-0
6
CONTINUOUS
62
7
100
AcDbCircle
10
65.632121885040
20
53.000000000000
30
0.0
40
0.300000000000
100
AcDbArc
50
195.000000000000
51
270.000000000000
0
ARC
5
4a5
100
AcDbEntity
8
0-0
6
CONTINUOUS
62
7
100
AcDbCircle
10
64.769801903606
20
53.900000000000
30
0.0
40
0.300000000000
100
AcDbArc
50
15.000000000000
51
90.000000000000
0
ARC
5
4a6
100
AcDbEntity
8
0-0
6
CONTINUOUS
62
7
100
AcDbCircle
10
60.230198096393
20
53.900000000000
30
0.0
40
0.300000000000
100
AcDbArc
50
90.000000000000
51
165.000000000000
0
ARC
5
4a7
100
AcDbEntity
8
0-0
6
CONTINUOUS
62
7
100
AcDbCircle
10
59.367878114960
20
53.000000000000
30
0.0
40
0.300000000000
100
AcDbArc
50
270.000000000000
51
345.000000000000
0
ARC
5
4a8
100
AcDbEntity
8
0-0
6
CONTINUOUS
62
7
100
AcDbCircle
10
57.900000000000
20
53.000000000000
30
0.0
40
0.300000000000
100
AcDbArc
50
180.000000000000
51
270.000000000000
0
ARC
5
4a9
100
AcDbEntity
8
0-0
6
CONTINUOUS
62
7
100
AcDbCircle
10
57.900000000000
20
62.000000000000
30
0.0
40
0.300000000000
100
AcDbArc
50
90.000000000000
51
180.000000000000
0
ARC
5
4aa
100
AcDbEntity
8
0-0
6
CONTINUOUS
62
7
100
AcDbCircle
10
59.367878114960
20
62.000000000000
30
0.0
40
0.300000000000
100
AcDbArc
50
15.000000000000
51
90.000000000000
0
ARC
5
4ab
100
AcDbEntity
8
0-0
6
CONTINUOUS
62
7
100
AcDbCircle
10
60.230198096393
20
61.100000000000
30
0.0
40
0.300000000000
100
AcDbArc
50
195.000000000000
51
270.000000000000
0
ARC
5
4ac
100
AcDbEntity
8
0-0
6
CONTINUOUS
62
7
100
AcDbCircle
10
64.769801903606
20
61.100000000000
30
0.0
40
0.300000000000
100
AcDbArc
50
270.000000000000
51
345.000000000000
0
ARC
5
4ad
100
AcDbEntity
8
0-0
6
CONTINUOUS
62
7
100
AcDbCircle
10
65.632121885040
20
62.000000000000
30
0.0
40
0.300000000000
100
AcDbArc
50
90.000000000000
51
165.000000000000
0
ARC
5
4ae
100
AcDbEntity
8
0-0
6
CONTINUOUS
62
7
100
AcDbCircle
10
67.100000000000
20
62.000000000000
30
0.0
40
0.300000000000
100
AcDbArc
50
0.000000000000
51
90.000000000000
0
ARC
5
4af
100
AcDbEntity
8
0-0
6
CONTINUOUS
62
7
100
AcDbCircle
10
55.900000000000
20
62.175735931288
30
0.0
40
0.300000000000
100
AcDbArc
50
0.000000000000
51
45.000000000000
0
ARC
5
4b0
100
AcDbEntity
8
0-0
6
CONTINUOUS
62
7
100
AcDbCircle
10
69.100000000000
20
52.824264068712
30
0.0
40
0.300000000000
100
AcDbArc
50
180.000000000000
51
225.000000000000
0
ARC
5
4b1
100
AcDbEntity
8
0-0
6
CONTINUOUS
62
7
100
AcDbCircle
10
62.500000000000
20
57.500000000000
30
0.0
40
3.600000000000
100
AcDbArc
50
246.443535690906
51
293.556464309094
0
ARC
5
4b2
100
AcDbEntity
8
0-0
6
CONTINUOUS
62
7
100
AcDbCircle
10
62.500000000000
20
57.500000000000
30
0.0
40
3.600000000000
100
AcDbArc
50
66.443535690897
51
113.556464309103
0
LINE
5
4b3
100
AcDbEntity
8
0-1
6
CENTER
62
4
100
AcDbLine
10
50.000000000000
20
57.500000000000
30
0.0
11
75.000000000000
21
57.500000000000
31
0.0
0
LINE
5
4b4
100
AcDbEntity
8
0-1
6
CENTER
62
4
100
AcDbLine
10
62.500000000000
20
50.000000000000
30
0.0
11
62.500000000000
21
65.000000000000
31
0.0
0
LINE
5
4b5
100
AcDbEntity
8
0-0
6
CONTINUOUS
62
7
100
AcDbLine
10
129.000000000000
20
50.000000000000
30
0.0
11
118.900000000000
21
50.000000000000
31
0.0
0
LINE
5
4b6
100
AcDbEntity
8
0-0
6
CONTINUOUS
62
7
100
AcDbLine
10
118.600000000000
20
50.300000000000
30
0.0
11
118.600000000000
21
51.500000000000
31
0.0
0
LINE
5
4b7
100
AcDbEntity
8
0-0
6
CONTINUOUS
62
7
100
AcDbLine
10
118.900000000000
20
51.800000000000
30
0.0
11
121.200000000000
21
51.800000000000
31
0.0
0
LINE
5
4b8
100
AcDbEntity
8
0-0
6
CONTINUOUS
62
7
100
AcDbLine
10
121.500000000000
20
52.100000000000
30
0.0
11
121.500000000000
21
54.875735931288
31
0.0
0
LINE
5
4b9
100
AcDbEntity
8
0-0
6
CONTINUOUS
62
7
100
AcDbLine
10
121.412132034356
20
55.087867965644
30
0.0
11
120.387867965644
21
56.112132034356
31
0.0
0
LINE
5
4ba
100
AcDbEntity
8
0-0
6
CONTINUOUS
62
7
100
AcDbLine
10
120.175735931288
20
56.200000000000
30
0.0
11
109.824264068712
21
56.200000000000
31
0.0
0
LINE
5
4bb
100
AcDbEntity
8
0-0
6
CONTINUOUS
62
7
100
AcDbLine
10
109.612132034356
20
56.112132034356
30
0.0
11
108.587867965644
21
55.087867965644
31
0.0
0
LINE
5
4bc
100
AcDbEntity
8
0-0
6
CONTINUOUS
62
7
100
AcDbLine
10
108.500000000000
20
54.875735931288
30
0.0
11
108.500000000000
21
52.100000000000
31
0.0
0
LINE
5
4bd
100
AcDbEntity
8
0-0
6
CONTINUOUS
62
7
100
AcDbLine
10
108.800000000000
20
51.800000000000
30
0.0
11
111.100000000000
21
51.800000000000
31
0.0
0
LINE
5
4be
100
AcDbEntity
8
0-0
6
CONTINUOUS
62
7
100
AcDbLine
10
111.400000000000
20
51.500000000000
30
0.0
11
111.400000000000
21
50.300000000000
31
0.0
0
LINE
5
4bf
100
AcDbEntity
8
0-0
6
CONTINUOUS
62
7
100
AcDbLine
10
111.100000000000
20
50.000000000000
30
0.0
11
101.000000000000
21
50.000000000000
31
0.0
0
LINE
5
4c0
100
AcDbEntity
8
0-0
6
CONTINUOUS
62
7
100
AcDbLine
10
100.000000000000
20
51.000000000000
30
0.0
11
100.000000000000
21
53.600000000000
31
0.0
0
LINE
5
4c1
100
AcDbEntity
8
0-0
6
CONTINUOUS
62
7
100
AcDbLine
10
100.300000000000
20
53.900000000000
30
0.0
11
101.500000000000
21
53.900000000000
31
0.0
0
LINE
5
4c2
100
AcDbEntity
8
0-0
6
CONTINUOUS
62
7
100
AcDbLine
10
101.800000000000
20
53.600000000000
30
0.0
11
101.800000000000
21
51.800000000000
31
0.0
0
LINE
5
4c3
100
AcDbEntity
8
0-0
6
CONTINUOUS
62
7
100
AcDbLine
10
102.100000000000
20
51.500000000000
30
0.0
11
104.875735931288
21
51.500000000000
31
0.0
0
LINE
5
4c4
100
AcDbEntity
8
0-0
6
CONTINUOUS
62
7
100
AcDbLine
10
105.087867965644
20
51.587867965644
30
0.0
11
106.112132034356
21
52.612132034356
31
0.0
0
LINE
5
4c5
100
AcDbEntity
8
0-0
6
CONTINUOUS
62
7
100
AcDbLine
10
106.200000000000
20
52.824264068712
30
0.0
11
106.200000000000
21
62.175735931288
31
0.0
0
LINE
5
4c6
100
AcDbEntity
8
0-0
6
CONTINUOUS
62
7
100
AcDbLine
10
106.112132034356
20
62.387867965644
30
0.0
11
105.087867965644
21
63.412132034356
31
0.0
0
LINE
5
4c7
100
AcDbEntity
8
0-0
6
CONTINUOUS
62
7
100
AcDbLine
10
104.875735931288
20
63.500000000000
30
0.0
11
102.100000000000
21
63.500000000000
31
0.0
0
LINE
5
4c8
100
AcDbEntity
8
0-0
6
CONTINUOUS
62
7
100
AcDbLine
10
101.800000000000
20
63.200000000000
30
0.0
11
101.800000000000
21
61.400000000000
31
0.0
0
LINE
5
4c9
100
AcDbEntity
8
0-0
6
CONTINUOUS
62
7
100
AcDbLine
10
101.500000000000
20
61.100000000000
30
0.0
11
100.300000000000
21
61.100000000000
31
0.0
0
LINE
5
4ca
100
AcDbEntity
8
0-0
6
CONTINUOUS
62
7
100
AcDbLine
10
100.000000000000
20
61.400000000000
30
0.0
11
100.000000000000
21
64.000000000000
31
0.0
0
LINE
5
4cb
100
AcDbEntity
8
0-0
6
CONTINUOUS
62
7
100
AcDbLine
10
101.000000000000
20
65.000000000000
30
0.0
11
111.100000000000
21
65.000000000000
31
0.0
0
LINE
5
4cc
100
AcDbEntity
8
0-0
6
CONTINUOUS
62
7
100
AcDbLine
10
111.400000000000
20
64.700000000000
30
0.0
11
111.400000000000
21
63.500000000000
31
0.0
0
LINE
5
4cd
100
AcDbEntity
8
0-0
6
CONTINUOUS
62
7
100
AcDbLine
10
111.100000000000
20
63.200000000000
30
0.0
11
108.800000000000
21
63.200000000000
31
0.0
0
LINE
5
4ce
100
AcDbEntity
8
0-0
6
CONTINUOUS
62
7
100
AcDbLine
10
108.500000000000
20
62.900000000000
30
0.0
11
108.500000000000
21
60.124264068712
31
0.0
0
LINE
5
4cf
100
AcDbEntity
8
0-0
6
CONTINUOUS
62
7
100
AcDbLine
10
108.587867965644
20
59.912132034356
30
0.0
11
109.612132034356
21
58.887867965644
31
0.0
0
LINE
5
4d0
100
AcDbEntity
8
0-0
6
CONTINUOUS
62
7
100
AcDbLine
10
109.824264068712
20
58.800000000000
30
0.0
11
120.175735931288
21
58.800000000000
31
0.0
0
LINE
5
4d1
100
AcDbEntity
8
0-0
6
CONTINUOUS
62
7
100
AcDbLine
10
120.387867965644
20
58.887867965644
30
0.0
11
121.412132034356
21
59.912132034356
31
0.0
0
LINE
5
4d2
100
AcDbEntity
8
0-0
6
CONTINUOUS
62
7
100
AcDbLine
10
121.500000000000
20
60.124264068712
30
0.0
11
121.500000000000
21
62.900000000000
31
0.0
0
LINE
5
4d3
100
AcDbEntity
8
0-0
6
CONTINUOUS
62
7
100
AcDbLine
10
121.200000000000
20
63.200000000000
30
0.0
11
118.900000000000
21
63.200000000000
31
0.0
0
LINE
5
4d4
100
AcDbEntity
8
0-0
6
CONTINUOUS
62
7
100
AcDbLine
10
118.600000000000
20
63.500000000000
30
0.0
11
118.600000000000
21
64.700000000000
31
0.0
0
LINE
5
4d5
100
AcDbEntity
8
0-0
6
CONTINUOUS
62
7
100
AcDbLine
10
118.900000000000
20
65.000000000000
30
0.0
11
129.000000000000
21
65.000000000000
31
0.0
0
LINE
5
4d6
100
AcDbEntity
8
0-0
6
CONTINUOUS
62
7
100
AcDbLine
10
130.000000000000
20
64.000000000000
30
0.0
11
130.000000000000
21
61.400000000000
31
0.0
0
LINE
5
4d7
100
AcDbEntity
8
0-0
6
CONTINUOUS
62
7
100
AcDbLine
10
129.700000000000
20
61.100000000000
30
0.0
11
128.500000000000
21
61.100000000000
31
0.0
0
LINE
5
4d8
100
AcDbEntity
8
0-0
6
CONTINUOUS
62
7
100
AcDbLine
10
128.200000000000
20
61.400000000000
30
0.0
11
128.200000000000
21
63.200000000000
31
0.0
0
LINE
5
4d9
100
AcDbEntity
8
0-0
6
CONTINUOUS
62
7
100
AcDbLine
10
127.900000000000
20
63.500000000000
30
0.0
11
125.124264068712
21
63.500000000000
31
0.0
0
LINE
5
4da
100
AcDbEntity
8
0-0
6
CONTINUOUS
62
7
100
AcDbLine
10
124.912132034356
20
63.412132034356
30
0.0
11
123.887867965644
21
62.387867965644
31
0.0
0
LINE
5
4db
100
AcDbEntity
8
0-0
6
CONTINUOUS
62
7
100
AcDbLine
10
123.800000000000
20
62.175735931288
30
0.0
11
123.800000000000
21
52.824264068712
31
0.0
0
LINE
5
4dc
100
AcDbEntity
8
0-0
6
CONTINUOUS
62
7
100
AcDbLine
10
123.887867965644
20
52.612132034356
30
0.0
11
124.912132034356
21
51.587867965644
31
0.0
0
LINE
5
4dd
100
AcDbEntity
8
0-0
6
CONTINUOUS
62
7
100
AcDbLine
10
125.124264068712
20
51.500000000000
30
0.0
11
127.900000000000
21
51.500000000000
31
0.0
0
LINE
5
4de
100
AcDbEntity
8
0-0
6
CONTINUOUS
62
7
100
AcDbLine
10
128.200000000000
20
51.800000000000
30
0.0
11
128.200000000000
21
53.600000000000
31
0.0
0
LINE
5
4df
100
AcDbEntity
8
0-0
6
CONTINUOUS
62
7
100
AcDbLine
10
128.500000000000
20
53.900000000000
30
0.0
11
129.700000000000
21
53.900000000000
31
0.0
0
LINE
5
4e0
100
AcDbEntity
8
0-0
6
CONTINUOUS
62
7
100
AcDbLine
10
130.000000000000
20
53.600000000000
30
0.0
11
130.000000000000
21
51.000000000000
31
0.0
0
ARC
5
4e1
100
AcDbEntity
8
0-0
6
CONTINUOUS
62
7
100
AcDbCircle
10
101.000000000000
20
51.000000000000
30
0.0
40
1.000000000000
100
AcDbArc
50
180.000000000000
51
270.000000000000
0
ARC
5
4e2
100
AcDbEntity
8
0-0
6
CONTINUOUS
62
7
100
AcDbCircle
10
101.000000000000
20
64.000000000000
30
0.0
40
1.000000000000
100
AcDbArc
50
90.000000000000
51
180.000000000000
0
ARC
5
4e3
100
AcDbEntity
8
0-0
6
CONTINUOUS
62
7
100
AcDbCircle
10
100.300000000000
20
53.600000000000
30
0.0
40
0.300000000000
100
AcDbArc
50
90.000000000000
51
180.000000000000
0
ARC
5
4e4
100
AcDbEntity
8
0-0
6
CONTINUOUS
62
7
100
AcDbCircle
10
101.500000000000
20
53.600000000000
30
0.0
40
0.300000000000
100
AcDbArc
50
0.000000000000
51
90.000000000000
0
ARC
5
4e5
100
AcDbEntity
8
0-0
6
CONTINUOUS
62
7
100
AcDbCircle
10
102.100000000000
20
51.800000000000
30
0.0
40
0.300000000000
100
AcDbArc
50
180.000000000000
51
270.000000000000
0
ARC
5
4e6
100
AcDbEntity
8
0-0
6
CONTINUOUS
62
7
100
AcDbCircle
10
104.875735931288
20
51.800000000000
30
0.0
40
0.300000000000
100
AcDbArc
50
270.000000000000
51
315.000000000000
0
ARC
5
4e7
100
AcDbEntity
8
0-0
6
CONTINUOUS
62
7
100
AcDbCircle
10
105.900000000000
20
52.824264068712
30
0.0
40
0.300000000000
100
AcDbArc
50
315.000000000000
51
360.000000000000
0
ARC
5
4e8
100
AcDbEntity
8
0-0
6
CONTINUOUS
62
7
100
AcDbCircle
10
105.900000000000
20
62.175735931288
30
0.0
40
0.300000000000
100
AcDbArc
50
0.000000000000
51
45.000000000000
0
ARC
5
4e9
100
AcDbEntity
8
0-0
6
CONTINUOUS
62
7
100
AcDbCircle
10
104.875735931288
20
63.200000000000
30
0.0
40
0.300000000000
100
AcDbArc
50
45.000000000000
51
90.000000000000
0
ARC
5
4ea
100
AcDbEntity
8
0-0
6
CONTINUOUS
62
7
100
AcDbCircle
10
102.100000000000
20
63.200000000000
30
0.0
40
0.300000000000
100
AcDbArc
50
90.000000000000
51
180.000000000000
0
ARC
5
4eb
100
AcDbEntity
8
0-0
6
CONTINUOUS
62
7
100
AcDbCircle
10
101.500000000000
20
61.400000000000
30
0.0
40
0.300000000000
100
AcDbArc
50
270.000000000000
51
360.000000000000
0
ARC
5
4ec
100
AcDbEntity
8
0-0
6
CONTINUOUS
62
7
100
AcDbCircle
10
100.300000000000
20
61.400000000000
30
0.0
40
0.300000000000
100
AcDbArc
50
180.000000000000
51
270.000000000000
0
ARC
5
4ed
100
AcDbEntity
8
0-0
6
CONTINUOUS
62
7
100
AcDbCircle
10
111.100000000000
20
50.300000000000
30
0.0
40
0.300000000000
100
AcDbArc
50
270.000000000000
51
360.000000000000
0
ARC
5
4ee
100
AcDbEntity
8
0-0
6
CONTINUOUS
62
7
100
AcDbCircle
10
111.100000000000
20
51.500000000000
30
0.0
40
0.300000000000
100
AcDbArc
50
0.000000000000
51
90.000000000000
0
ARC
5
4ef
100
AcDbEntity
8
0-0
6
CONTINUOUS
62
7
100
AcDbCircle
10
108.800000000000
20
52.100000000000
30
0.0
40
0.300000000000
100
AcDbArc
50
180.000000000000
51
270.000000000000
0
ARC
5
4f0
100
AcDbEntity
8
0-0
6
CONTINUOUS
62
7
100
AcDbCircle
10
121.200000000000
20
52.100000000000
30
0.0
40
0.300000000000
100
AcDbArc
50
270.000000000000
51
360.000000000000
0
ARC
5
4f1
100
AcDbEntity
8
0-0
6
CONTINUOUS
62
7
100
AcDbCircle
10
118.900000000000
20
51.500000000000
30
0.0
40
0.300000000000
100
AcDbArc
50
90.000000000000
51
180.000000000000
0
ARC
5
4f2
100
AcDbEntity
8
0-0
6
CONTINUOUS
62
7
100
AcDbCircle
10
118.900000000000
20
50.300000000000
30
0.0
40
0.300000000000
100
AcDbArc
50
180.000000000000
51
270.000000000000
0
ARC
5
4f3
100
AcDbEntity
8
0-0
6
CONTINUOUS
62
7
100
AcDbCircle
10
118.900000000000
20
64.700000000000
30
0.0
40
0.300000000000
100
AcDbArc
50
90.000000000000
51
180.000000000000
0
ARC
5
4f4
100
AcDbEntity
8
0-0
6
CONTINUOUS
62
7
100
AcDbCircle
10
118.900000000000
20
63.500000000000
30
0.0
40
0.300000000000
100
AcDbArc
50
180.000000000000
51
270.000000000000
0
ARC
5
4f5
100
AcDbEntity
8
0-0
6
CONTINUOUS
62
7
100
AcDbCircle
10
121.200000000000
20
62.900000000000
30
0.0
40
0.300000000000
100
AcDbArc
50
0.000000000000
51
90.000000000000
0
ARC
5
4f6
100
AcDbEntity
8
0-0
6
CONTINUOUS
62
7
100
AcDbCircle
10
108.800000000000
20
62.900000000000
30
0.0
40
0.300000000000
100
AcDbArc
50
90.000000000000
51
180.000000000000
0
ARC
5
4f7
100
AcDbEntity
8
0-0
6
CONTINUOUS
62
7
100
AcDbCircle
10
111.100000000000
20
63.500000000000
30
0.0
40
0.300000000000
100
AcDbArc
50
270.000000000000
51
360.000000000000
0
ARC
5
4f8
100
AcDbEntity
8
0-0
6
CONTINUOUS
62
7
100
AcDbCircle
10
111.100000000000
20
64.700000000000
30
0.0
40
0.300000000000
100
AcDbArc
50
0.000000000000
51
90.000000000000
0
ARC
5
4f9
100
AcDbEntity
8
0-0
6
CONTINUOUS
62
7
100
AcDbCircle
10
121.200000000000
20
60.124264068712
30
0.0
40
0.300000000000
100
AcDbArc
50
315.000000000000
51
360.000000000000
0
ARC
5
4fa
100
AcDbEntity
8
0-0
6
CONTINUOUS
62
7
100
AcDbCircle
10
120.175735931288
20
59.100000000000
30
0.0
40
0.300000000000
100
AcDbArc
50
270.000000000000
51
315.000000000000
0
ARC
5
4fb
100
AcDbEntity
8
0-0
6
CONTINUOUS
62
7
100
AcDbCircle
10
109.824264068712
20
59.100000000000
30
0.0
40
0.300000000000
100
AcDbArc
50
225.000000000000
51
270.000000000000
0
ARC
5
4fc
100
AcDbEntity
8
0-0
6
CONTINUOUS
62
7
100
AcDbCircle
10
108.800000000000
20
60.124264068712
30
0.0
40
0.300000000000
100
AcDbArc
50
180.000000000000
51
225.000000000000
0
ARC
5
4fd
100
AcDbEntity
8
0-0
6
CONTINUOUS
62
7
100
AcDbCircle
10
108.800000000000
20
54.875735931288
30
0.0
40
0.300000000000
100
AcDbArc
50
135.000000000000
51
180.000000000000
0
ARC
5
4fe
100
AcDbEntity
8
0-0
6
CONTINUOUS
62
7
100
AcDbCircle
10
109.824264068712
20
55.900000000000
30
0.0
40
0.300000000000
100
AcDbArc
50
90.000000000000
51
135.000000000000
0
ARC
5
4ff
100
AcDbEntity
8
0-0
6
CONTINUOUS
62
7
100
AcDbCircle
10
120.175735931288
20
55.900000000000
30
0.0
40
0.300000000000
100
AcDbArc
50
45.000000000000
51
90.000000000000
0
ARC
5
500
100
AcDbEntity
8
0-0
6
CONTINUOUS
62
7
100
AcDbCircle
10
121.200000000000
20
54.875735931288
30
0.0
40
0.300000000000
100
AcDbArc
50
0.000000000000
51
45.000000000000
0
ARC
5
501
100
AcDbEntity
8
0-0
6
CONTINUOUS
62
7
100
AcDbCircle
10
129.700000000000
20
53.600000000000
30
0.0
40
0.300000000000
100
AcDbArc
50
0.000000000000
51
90.000000000000
0
ARC
5
502
100
AcDbEntity
8
0-0
6
CONTINUOUS
62
7
100
AcDbCircle
10
128.500000000000
20
53.600000000000
30
0.0
40
0.300000000000
100
AcDbArc
50
90.000000000000
51
180.000000000000
0
ARC
5
503
100
AcDbEntity
8
0-0
6
CONTINUOUS
62
7
100
AcDbCircle
10
127.900000000000
20
51.800000000000
30
0.0
40
0.300000000000
100
AcDbArc
50
270.000000000000
51
360.000000000000
0
ARC
5
504
100
AcDbEntity
8
0-0
6
CONTINUOUS
62
7
100
AcDbCircle
10
125.124264068712
20
51.800000000000
30
0.0
40
0.300000000000
100
AcDbArc
50
225.000000000000
51
270.000000000000
0
ARC
5
505
100
AcDbEntity
8
0-0
6
CONTINUOUS
62
7
100
AcDbCircle
10
124.100000000000
20
52.824264068712
30
0.0
40
0.300000000000
100
AcDbArc
50
180.000000000000
51
225.000000000000
0
ARC
5
506
100
AcDbEntity
8
0-0
6
CONTINUOUS
62
7
100
AcDbCircle
10
124.100000000000
20
62.175735931288
30
0.0
40
0.300000000000
100
AcDbArc
50
135.000000000000
51
180.000000000000
0
ARC
5
507
100
AcDbEntity
8
0-0
6
CONTINUOUS
62
7
100
AcDbCircle
10
125.124264068712
20
63.200000000000
30
0.0
40
0.300000000000
100
AcDbArc
50
90.000000000000
51
135.000000000000
0
ARC
5
508
100
AcDbEntity
8
0-0
6
CONTINUOUS
62
7
100
AcDbCircle
10
127.900000000000
20
63.200000000000
30
0.0
40
0.300000000000
100
AcDbArc
50
0.000000000000
51
90.000000000000
0
ARC
5
509
100
AcDbEntity
8
0-0
6
CONTINUOUS
62
7
100
AcDbCircle
10
128.500000000000
20
61.400000000000
30
0.0
40
0.300000000000
100
AcDbArc
50
180.000000000000
51
270.000000000000
0
ARC
5
50a
100
AcDbEntity
8
0-0
6
CONTINUOUS
62
7
100
AcDbCircle
10
129.700000000000
20
61.400000000000
30
0.0
40
0.300000000000
100
AcDbArc
50
270.000000000000
51
360.000000000000
0
ARC
5
50b
100
AcDbEntity
8
0-0
6
CONTINUOUS
62
7
100
AcDbCircle
10
129.000000000000
20
64.000000000000
30
0.0
40
1.000000000000
100
AcDbArc
50
0.000000000000
51
90.000000000000
0
ARC
5
50c
100
AcDbEntity
8
0-0
6
CONTINUOUS
62
7
100
AcDbCircle
10
129.000000000000
20
51.000000000000
30
0.0
40
1.000000000000
100
AcDbArc
50
270.000000000000
51
360.000000000000
0
LINE
5
50d
100
AcDbEntity
8
0-1
6
CENTER
62
4
100
AcDbLine
10
115.000000000000
20
65.000000000000
30
0.0
11
115.000000000000
21
50.000000000000
31
0.0
0
LINE
5
50e
100
AcDbEntity
8
0-1
6
CENTER
62
4
100
AcDbLine
10
100.000000000000
20
57.500000000000
30
0.0
11
130.000000000000
21
57.500000000000
31
0.0
0
LINE
5
50f
100
AcDbEntity
8
0-0
6
CONTINUOUS
62
7
100
AcDbLine
10
190.200000000000
20
61.100000000000
30
0.0
11
189.000000000000
21
61.100000000000
31
0.0
0
LINE
5
510
100
AcDbEntity
8
0-0
6
CONTINUOUS
62
7
100
AcDbLine
10
188.700000000000
20
61.400000000000
30
0.0
11
188.700000000000
21
63.200000000000
31
0.0
0
LINE
5
511
100
AcDbEntity
8
0-0
6
CONTINUOUS
62
7
100
AcDbLine
10
188.400000000000
20
63.500000000000
30
0.0
11
185.624264068712
21
63.500000000000
31
0.0
0
LINE
5
512
100
AcDbEntity
8
0-0
6
CONTINUOUS
62
7
100
AcDbLine
10
185.412132034356
20
63.412132034356
30
0.0
11
184.387867965644
21
62.387867965644
31
0.0
0
LINE
5
513
100
AcDbEntity
8
0-0
6
CONTINUOUS
62
7
100
AcDbLine
10
184.300000000000
20
62.175735931288
30
0.0
11
184.300000000000
21
52.824264068712
31
0.0
0
LINE
5
514
100
AcDbEntity
8
0-0
6
CONTINUOUS
62
7
100
AcDbLine
10
184.387867965644
20
52.612132034356
30
0.0
11
185.412132034356
21
51.587867965644
31
0.0
0
LINE
5
515
100
AcDbEntity
8
0-0
6
CONTINUOUS
62
7
100
AcDbLine
10
185.624264068712
20
51.500000000000
30
0.0
11
188.400000000000
21
51.500000000000
31
0.0
0
LINE
5
516
100
AcDbEntity
8
0-0
6
CONTINUOUS
62
7
100
AcDbLine
10
188.700000000000
20
51.800000000000
30
0.0
11
188.700000000000
21
53.600000000000
31
0.0
0
LINE
5
517
100
AcDbEntity
8
0-0
6
CONTINUOUS
62
7
100
AcDbLine
10
189.000000000000
20
53.900000000000
30
0.0
11
190.200000000000
21
53.900000000000
31
0.0
0
LINE
5
518
100
AcDbEntity
8
0-0
6
CONTINUOUS
62
7
100
AcDbLine
10
190.500000000000
20
53.600000000000
30
0.0
11
190.500000000000
21
51.000000000000
31
0.0
0
LINE
5
519
100
AcDbEntity
8
0-0
6
CONTINUOUS
62
7
100
AcDbLine
10
189.500000000000
20
50.000000000000
30
0.0
11
183.824264068712
21
50.000000000000
31
0.0
0
LINE
5
51a
100
AcDbEntity
8
0-0
6
CONTINUOUS
62
7
100
AcDbLine
10
183.612132034356
20
50.087867965644
30
0.0
11
182.587867965644
21
51.112132034356
31
0.0
0
LINE
5
51b
100
AcDbEntity
8
0-0
6
CONTINUOUS
62
7
100
AcDbLine
10
182.375735931288
20
51.200000000000
30
0.0
11
158.624264068712
21
51.200000000000
31
0.0
0
LINE
5
51c
100
AcDbEntity
8
0-0
6
CONTINUOUS
62
7
100
AcDbLine
10
158.412132034356
20
51.112132034356
30
0.0
11
157.387867965644
21
50.087867965644
31
0.0
0
LINE
5
51d
100
AcDbEntity
8
0-0
6
CONTINUOUS
62
7
100
AcDbLine
10
157.175735931288
20
50.000000000000
30
0.0
11
151.500000000000
21
50.000000000000
31
0.0
0
LINE
5
51e
100
AcDbEntity
8
0-0
6
CONTINUOUS
62
7
100
AcDbLine
10
150.500000000000
20
51.000000000000
30
0.0
11
150.500000000000
21
53.600000000000
31
0.0
0
LINE
5
51f
100
AcDbEntity
8
0-0
6
CONTINUOUS
62
7
100
AcDbLine
10
150.800000000000
20
53.900000000000
30
0.0
11
152.000000000000
21
53.900000000000
31
0.0
0
LINE
5
520
100
AcDbEntity
8
0-0
6
CONTINUOUS
62
7
100
AcDbLine
10
152.300000000000
20
53.600000000000
30
0.0
11
152.300000000000
21
51.800000000000
31
0.0
0
LINE
5
521
100
AcDbEntity
8
0-0
6
CONTINUOUS
62
7
100
AcDbLine
10
152.600000000000
20
51.500000000000
30
0.0
11
155.375735931288
21
51.500000000000
31
0.0
0
LINE
5
522
100
AcDbEntity
8
0-0
6
CONTINUOUS
62
7
100
AcDbLine
10
155.587867965644
20
51.587867965644
30
0.0
11
156.612132034356
21
52.612132034356
31
0.0
0
LINE
5
523
100
AcDbEntity
8
0-0
6
CONTINUOUS
62
7
100
AcDbLine
10
156.700000000000
20
52.824264068712
30
0.0
11
156.700000000000
21
62.175735931288
31
0.0
0
LINE
5
524
100
AcDbEntity
8
0-0
6
CONTINUOUS
62
7
100
AcDbLine
10
156.612132034356
20
62.387867965644
30
0.0
11
155.587867965644
21
63.412132034356
31
0.0
0
LINE
5
525
100
AcDbEntity
8
0-0
6
CONTINUOUS
62
7
100
AcDbLine
10
155.375735931288
20
63.500000000000
30
0.0
11
152.600000000000
21
63.500000000000
31
0.0
0
LINE
5
526
100
AcDbEntity
8
0-0
6
CONTINUOUS
62
7
100
AcDbLine
10
152.300000000000
20
63.200000000000
30
0.0
11
152.300000000000
21
61.400000000000
31
0.0
0
LINE
5
527
100
AcDbEntity
8
0-0
6
CONTINUOUS
62
7
100
AcDbLine
10
152.000000000000
20
61.100000000000
30
0.0
11
150.800000000000
21
61.100000000000
31
0.0
0
LINE
5
528
100
AcDbEntity
8
0-0
6
CONTINUOUS
62
7
100
AcDbLine
10
150.500000000000
20
61.400000000000
30
0.0
11
150.500000000000
21
64.000000000000
31
0.0
0
LINE
5
529
100
AcDbEntity
8
0-0
6
CONTINUOUS
62
7
100
AcDbLine
10
151.500000000000
20
65.000000000000
30
0.0
11
157.175735931288
21
65.000000000000
31
0.0
0
LINE
5
52a
100
AcDbEntity
8
0-0
6
CONTINUOUS
62
7
100
AcDbLine
10
157.387867965644
20
64.912132034356
30
0.0
11
158.412132034356
21
63.887867965644
31
0.0
0
LINE
5
52b
100
AcDbEntity
8
0-0
6
CONTINUOUS
62
7
100
AcDbLine
10
158.624264068712
20
63.800000000000
30
0.0
11
182.375735931288
21
63.800000000000
31
0.0
0
LINE
5
52c
100
AcDbEntity
8
0-0
6
CONTINUOUS
62
7
100
AcDbLine
10
182.587867965644
20
63.887867965644
30
0.0
11
183.612132034356
21
64.912132034356
31
0.0
0
LINE
5
52d
100
AcDbEntity
8
0-0
6
CONTINUOUS
62
7
100
AcDbLine
10
183.824264068712
20
65.000000000000
30
0.0
11
189.500000000000
21
65.000000000000
31
0.0
0
LINE
5
52e
100
AcDbEntity
8
0-0
6
CONTINUOUS
62
7
100
AcDbLine
10
190.500000000000
20
64.000000000000
30
0.0
11
190.500000000000
21
61.400000000000
31
0.0
0
LINE
5
52f
100
AcDbEntity
8
0-0
6
CONTINUOUS
62
7
100
AcDbLine
10
182.900000000000
20
62.000000000000
30
0.0
11
182.900000000000
21
53.000000000000
31
0.0
0
LINE
5
530
100
AcDbEntity
8
0-0
6
CONTINUOUS
62
7
100
AcDbLine
10
182.600000000000
20
52.700000000000
30
0.0
11
181.132121885040
21
52.700000000000
31
0.0
0
LINE
5
531
100
AcDbEntity
8
0-0
6
CONTINUOUS
62
7
100
AcDbLine
10
180.842344137153
20
52.922354286469
30
0.0
11
180.559579651493
21
53.977645713531
31
0.0
0
LINE
5
532
100
AcDbEntity
8
0-0
6
CONTINUOUS
62
7
100
AcDbLine
10
180.269801903606
20
54.200000000000
30
0.0
11
179.438749456993
21
54.200000000000
31
0.0
0
LINE
5
533
100
AcDbEntity
8
0-0
6
CONTINUOUS
62
7
100
AcDbLine
10
176.561250543006
20
54.200000000000
30
0.0
11
175.730198096394
21
54.200000000000
31
0.0
0
LINE
5
534
100
AcDbEntity
8
0-0
6
CONTINUOUS
62
7
100
AcDbLine
10
175.440420348507
20
53.977645713531
30
0.0
11
175.157655862846
21
52.922354286469
31
0.0
0
LINE
5
535
100
AcDbEntity
8
0-0
6
CONTINUOUS
62
7
100
AcDbLine
10
174.867878114960
20
52.700000000000
30
0.0
11
166.132121885040
21
52.700000000000
31
0.0
0
LINE
5
536
100
AcDbEntity
8
0-0
6
CONTINUOUS
62
7
100
AcDbLine
10
165.842344137153
20
52.922354286469
30
0.0
11
165.559579651493
21
53.977645713531
31
0.0
0
LINE
5
537
100
AcDbEntity
8
0-0
6
CONTINUOUS
62
7
100
AcDbLine
10
165.269801903606
20
54.200000000000
30
0.0
11
164.438749456993
21
54.200000000000
31
0.0
0
LINE
5
538
100
AcDbEntity
8
0-0
6
CONTINUOUS
62
7
100
AcDbLine
10
161.561250543006
20
54.200000000000
30
0.0
11
160.730198096394
21
54.200000000000
31
0.0
0
LINE
5
539
100
AcDbEntity
8
0-0
6
CONTINUOUS
62
7
100
AcDbLine
10
160.440420348507
20
53.977645713531
30
0.0
11
160.157655862846
21
52.922354286469
31
0.0
0
LINE
5
53a
100
AcDbEntity
8
0-0
6
CONTINUOUS
62
7
100
AcDbLine
10
159.867878114960
20
52.700000000000
30
0.0
11
158.400000000000
21
52.700000000000
31
0.0
0
LINE
5
53b
100
AcDbEntity
8
0-0
6
CONTINUOUS
62
7
100
AcDbLine
10
158.100000000000
20
53.000000000000
30
0.0
11
158.100000000000
21
62.000000000000
31
0.0
0
LINE
5
53c
100
AcDbEntity
8
0-0
6
CONTINUOUS
62
7
100
AcDbLine
10
158.400000000000
20
62.300000000000
30
0.0
11
159.867878114960
21
62.300000000000
31
0.0
0
LINE
5
53d
100
AcDbEntity
8
0-0
6
CONTINUOUS
62
7
100
AcDbLine
10
160.157655862846
20
62.077645713531
30
0.0
11
160.440420348507
21
61.022354286469
31
0.0
0
LINE
5
53e
100
AcDbEntity
8
0-0
6
CONTINUOUS
62
7
100
AcDbLine
10
160.730198096394
20
60.800000000000
30
0.0
11
161.561250543006
21
60.800000000000
31
0.0
0
LINE
5
53f
100
AcDbEntity
8
0-0
6
CONTINUOUS
62
7
100
AcDbLine
10
164.438749456994
20
60.800000000000
30
0.0
11
165.269801903606
21
60.800000000000
31
0.0
0
LINE
5
540
100
AcDbEntity
8
0-0
6
CONTINUOUS
62
7
100
AcDbLine
10
165.559579651493
20
61.022354286469
30
0.0
11
165.842344137153
21
62.077645713531
31
0.0
0
LINE
5
541
100
AcDbEntity
8
0-0
6
CONTINUOUS
62
7
100
AcDbLine
10
166.132121885040
20
62.300000000000
30
0.0
11
174.867878114960
21
62.300000000000
31
0.0
0
LINE
5
542
100
AcDbEntity
8
0-0
6
CONTINUOUS
62
7
100
AcDbLine
10
175.157655862846
20
62.077645713531
30
0.0
11
175.440420348507
21
61.022354286469
31
0.0
0
LINE
5
543
100
AcDbEntity
8
0-0
6
CONTINUOUS
62
7
100
AcDbLine
10
175.730198096394
20
60.800000000000
30
0.0
11
176.561250543006
21
60.800000000000
31
0.0
0
LINE
5
544
100
AcDbEntity
8
0-0
6
CONTINUOUS
62
7
100
AcDbLine
10
179.438749456993
20
60.800000000000
30
0.0
11
180.269801903606
21
60.800000000000
31
0.0
0
LINE
5
545
100
AcDbEntity
8
0-0
6
CONTINUOUS
62
7
100
AcDbLine
10
180.559579651493
20
61.022354286469
30
0.0
11
180.842344137153
21
62.077645713531
31
0.0
0
LINE
5
546
100
AcDbEntity
8
0-0
6
CONTINUOUS
62
7
100
AcDbLine
10
181.132121885040
20
62.300000000000
30
0.0
11
182.600000000000
21
62.300000000000
31
0.0
0
ARC
5
547
100
AcDbEntity
8
0-0
6
CONTINUOUS
62
7
100
AcDbCircle
10
151.500000000000
20
51.000000000000
30
0.0
40
1.000000000000
100
AcDbArc
50
180.000000000000
51
270.000000000000
0
ARC
5
548
100
AcDbEntity
8
0-0
6
CONTINUOUS
62
7
100
AcDbCircle
10
151.500000000000
20
64.000000000000
30
0.0
40
1.000000000000
100
AcDbArc
50
90.000000000000
51
180.000000000000
0
ARC
5
549
100
AcDbEntity
8
0-0
6
CONTINUOUS
62
7
100
AcDbCircle
10
189.500000000000
20
51.000000000000
30
0.0
40
1.000000000000
100
AcDbArc
50
270.000000000000
51
360.000000000000
0
ARC
5
54a
100
AcDbEntity
8
0-0
6
CONTINUOUS
62
7
100
AcDbCircle
10
189.500000000000
20
64.000000000000
30
0.0
40
1.000000000000
100
AcDbArc
50
0.000000000000
51
90.000000000000
0
ARC
5
54b
100
AcDbEntity
8
0-0
6
CONTINUOUS
62
7
100
AcDbCircle
10
150.800000000000
20
53.600000000000
30
0.0
40
0.300000000000
100
AcDbArc
50
90.000000000000
51
180.000000000000
0
ARC
5
54c
100
AcDbEntity
8
0-0
6
CONTINUOUS
62
7
100
AcDbCircle
10
152.000000000000
20
53.600000000000
30
0.0
40
0.300000000000
100
AcDbArc
50
0.000000000000
51
90.000000000000
0
ARC
5
54d
100
AcDbEntity
8
0-0
6
CONTINUOUS
62
7
100
AcDbCircle
10
152.600000000000
20
51.800000000000
30
0.0
40
0.300000000000
100
AcDbArc
50
180.000000000000
51
270.000000000000
0
ARC
5
54e
100
AcDbEntity
8
0-0
6
CONTINUOUS
62
7
100
AcDbCircle
10
155.375735931288
20
51.800000000000
30
0.0
40
0.300000000000
100
AcDbArc
50
270.000000000000
51
315.000000000000
0
ARC
5
54f
100
AcDbEntity
8
0-0
6
CONTINUOUS
62
7
100
AcDbCircle
10
156.400000000000
20
52.824264068712
30
0.0
40
0.300000000000
100
AcDbArc
50
315.000000000000
51
360.000000000000
0
ARC
5
550
100
AcDbEntity
8
0-0
6
CONTINUOUS
62
7
100
AcDbCircle
10
156.400000000000
20
62.175735931288
30
0.0
40
0.300000000000
100
AcDbArc
50
0.000000000000
51
45.000000000000
0
ARC
5
551
100
AcDbEntity
8
0-0
6
CONTINUOUS
62
7
100
AcDbCircle
10
155.375735931288
20
63.200000000000
30
0.0
40
0.300000000000
100
AcDbArc
50
45.000000000000
51
90.000000000000
0
ARC
5
552
100
AcDbEntity
8
0-0
6
CONTINUOUS
62
7
100
AcDbCircle
10
152.600000000000
20
63.200000000000
30
0.0
40
0.300000000000
100
AcDbArc
50
90.000000000000
51
180.000000000000
0
ARC
5
553
100
AcDbEntity
8
0-0
6
CONTINUOUS
62
7
100
AcDbCircle
10
152.000000000000
20
61.400000000000
30
0.0
40
0.300000000000
100
AcDbArc
50
270.000000000000
51
360.000000000000
0
ARC
5
554
100
AcDbEntity
8
0-0
6
CONTINUOUS
62
7
100
AcDbCircle
10
150.800000000000
20
61.400000000000
30
0.0
40
0.300000000000
100
AcDbArc
50
180.000000000000
51
270.000000000000
0
ARC
5
555
100
AcDbEntity
8
0-0
6
CONTINUOUS
62
7
100
AcDbCircle
10
157.175735931288
20
64.700000000000
30
0.0
40
0.300000000000
100
AcDbArc
50
45.000000000000
51
90.000000000000
0
ARC
5
556
100
AcDbEntity
8
0-0
6
CONTINUOUS
62
7
100
AcDbCircle
10
158.624264068712
20
64.100000000000
30
0.0
40
0.300000000000
100
AcDbArc
50
224.999999999999
51
270.000000000000
0
ARC
5
557
100
AcDbEntity
8
0-0
6
CONTINUOUS
62
7
100
AcDbCircle
10
182.375735931288
20
64.100000000000
30
0.0
40
0.300000000000
100
AcDbArc
50
270.000000000000
51
315.000000000000
0
ARC
5
558
100
AcDbEntity
8
0-0
6
CONTINUOUS
62
7
100
AcDbCircle
10
183.824264068712
20
64.700000000000
30
0.0
40
0.300000000000
100
AcDbArc
50
90.000000000000
51
135.000000000000
0
ARC
5
559
100
AcDbEntity
8
0-0
6
CONTINUOUS
62
7
100
AcDbCircle
10
190.200000000000
20
61.400000000000
30
0.0
40
0.300000000000
100
AcDbArc
50
270.000000000000
51
360.000000000000
0
ARC
5
55a
100
AcDbEntity
8
0-0
6
CONTINUOUS
62
7
100
AcDbCircle
10
189.000000000000
20
61.400000000000
30
0.0
40
0.300000000000
100
AcDbArc
50
180.000000000000
51
270.000000000000
0
ARC
5
55b
100
AcDbEntity
8
0-0
6
CONTINUOUS
62
7
100
AcDbCircle
10
188.400000000000
20
63.200000000000
30
0.0
40
0.300000000000
100
AcDbArc
50
0.000000000000
51
90.000000000000
0
ARC
5
55c
100
AcDbEntity
8
0-0
6
CONTINUOUS
62
7
100
AcDbCircle
10
185.624264068712
20
63.200000000000
30
0.0
40
0.300000000000
100
AcDbArc
50
90.000000000000
51
135.000000000000
0
ARC
5
55d
100
AcDbEntity
8
0-0
6
CONTINUOUS
62
7
100
AcDbCircle
10
184.600000000000
20
62.175735931288
30
0.0
40
0.300000000000
100
AcDbArc
50
135.000000000000
51
180.000000000000
0
ARC
5
55e
100
AcDbEntity
8
0-0
6
CONTINUOUS
62
7
100
AcDbCircle
10
184.600000000000
20
52.824264068712
30
0.0
40
0.300000000000
100
AcDbArc
50
180.000000000000
51
225.000000000000
0
ARC
5
55f
100
AcDbEntity
8
0-0
6
CONTINUOUS
62
7
100
AcDbCircle
10
185.624264068712
20
51.800000000000
30
0.0
40
0.300000000000
100
AcDbArc
50
225.000000000000
51
270.000000000000
0
ARC
5
560
100
AcDbEntity
8
0-0
6
CONTINUOUS
62
7
100
AcDbCircle
10
188.400000000000
20
51.800000000000
30
0.0
40
0.300000000000
100
AcDbArc
50
270.000000000000
51
360.000000000000
0
ARC
5
561
100
AcDbEntity
8
0-0
6
CONTINUOUS
62
7
100
AcDbCircle
10
189.000000000000
20
53.600000000000
30
0.0
40
0.300000000000
100
AcDbArc
50
90.000000000000
51
180.000000000000
0
ARC
5
562
100
AcDbEntity
8
0-0
6
CONTINUOUS
62
7
100
AcDbCircle
10
190.200000000000
20
53.600000000000
30
0.0
40
0.300000000000
100
AcDbArc
50
0.000000000000
51
90.000000000000
0
ARC
5
563
100
AcDbEntity
8
0-0
6
CONTINUOUS
62
7
100
AcDbCircle
10
183.824264068712
20
50.300000000000
30
0.0
40
0.300000000000
100
AcDbArc
50
225.000000000000
51
270.000000000000
0
ARC
5
564
100
AcDbEntity
8
0-0
6
CONTINUOUS
62
7
100
AcDbCircle
10
182.375735931288
20
50.900000000000
30
0.0
40
0.300000000000
100
AcDbArc
50
45.000000000000
51
90.000000000000
0
ARC
5
565
100
AcDbEntity
8
0-0
6
CONTINUOUS
62
7
100
AcDbCircle
10
158.624264068712
20
50.900000000000
30
0.0
40
0.300000000000
100
AcDbArc
50
90.000000000000
51
135.000000000000
0
ARC
5
566
100
AcDbEntity
8
0-0
6
CONTINUOUS
62
7
100
AcDbCircle
10
157.175735931288
20
50.300000000000
30
0.0
40
0.300000000000
100
AcDbArc
50
270.000000000000
51
315.000000000000
0
ARC
5
567
100
AcDbEntity
8
0-0
6
CONTINUOUS
62
7
100
AcDbCircle
10
158.400000000000
20
53.000000000000
30
0.0
40
0.300000000000
100
AcDbArc
50
180.000000000000
51
270.000000000000
0
ARC
5
568
100
AcDbEntity
8
0-0
6
CONTINUOUS
62
7
100
AcDbCircle
10
158.400000000000
20
62.000000000000
30
0.0
40
0.300000000000
100
AcDbArc
50
90.000000000000
51
180.000000000000
0
ARC
5
569
100
AcDbEntity
8
0-0
6
CONTINUOUS
62
7
100
AcDbCircle
10
159.867878114960
20
62.000000000000
30
0.0
40
0.300000000000
100
AcDbArc
50
15.000000000000
51
90.000000000000
0
ARC
5
56a
100
AcDbEntity
8
0-0
6
CONTINUOUS
62
7
100
AcDbCircle
10
160.730198096394
20
61.100000000000
30
0.0
40
0.300000000000
100
AcDbArc
50
195.000000000000
51
270.000000000000
0
ARC
5
56b
100
AcDbEntity
8
0-0
6
CONTINUOUS
62
7
100
AcDbCircle
10
159.867878114960
20
53.000000000000
30
0.0
40
0.300000000000
100
AcDbArc
50
270.000000000000
51
345.000000000000
0
ARC
5
56c
100
AcDbEntity
8
0-0
6
CONTINUOUS
62
7
100
AcDbCircle
10
160.730198096394
20
53.900000000000
30
0.0
40
0.300000000000
100
AcDbArc
50
90.000000000000
51
165.000000000000
0
ARC
5
56d
100
AcDbEntity
8
0-0
6
CONTINUOUS
62
7
100
AcDbCircle
10
165.269801903606
20
53.900000000000
30
0.0
40
0.300000000000
100
AcDbArc
50
15.000000000000
51
90.000000000000
0
ARC
5
56e
100
AcDbEntity
8
0-0
6
CONTINUOUS
62
7
100
AcDbCircle
10
166.132121885040
20
53.000000000000
30
0.0
40
0.300000000000
100
AcDbArc
50
195.000000000000
51
270.000000000000
0
ARC
5
56f
100
AcDbEntity
8
0-0
6
CONTINUOUS
62
7
100
AcDbCircle
10
174.867878114960
20
53.000000000000
30
0.0
40
0.300000000000
100
AcDbArc
50
270.000000000000
51
345.000000000000
0
ARC
5
570
100
AcDbEntity
8
0-0
6
CONTINUOUS
62
7
100
AcDbCircle
10
175.730198096394
20
53.900000000000
30
0.0
40
0.300000000000
100
AcDbArc
50
90.000000000000
51
165.000000000000
0
ARC
5
571
100
AcDbEntity
8
0-0
6
CONTINUOUS
62
7
100
AcDbCircle
10
180.269801903606
20
53.900000000000
30
0.0
40
0.300000000000
100
AcDbArc
50
15.000000000000
51
90.000000000000
0
ARC
5
572
100
AcDbEntity
8
0-0
6
CONTINUOUS
62
7
100
AcDbCircle
10
181.132121885040
20
53.000000000000
30
0.0
40
0.300000000000
100
AcDbArc
50
195.000000000000
51
270.000000000000
0
ARC
5
573
100
AcDbEntity
8
0-0
6
CONTINUOUS
62
7
100
AcDbCircle
10
182.600000000000
20
53.000000000000
30
0.0
40
0.300000000000
100
AcDbArc
50
270.000000000000
51
360.000000000000
0
ARC
5
574
100
AcDbEntity
8
0-0
6
CONTINUOUS
62
7
100
AcDbCircle
10
182.600000000000
20
62.000000000000
30
0.0
40
0.300000000000
100
AcDbArc
50
0.000000000000
51
90.000000000000
0
ARC
5
575
100
AcDbEntity
8
0-0
6
CONTINUOUS
62
7
100
AcDbCircle
10
181.132121885040
20
62.000000000000
30
0.0
40
0.300000000000
100
AcDbArc
50
90.000000000000
51
165.000000000000
0
ARC
5
576
100
AcDbEntity
8
0-0
6
CONTINUOUS
62
7
100
AcDbCircle
10
180.269801903606
20
61.100000000000
30
0.0
40
0.300000000000
100
AcDbArc
50
270.000000000000
51
345.000000000000
0
ARC
5
577
100
AcDbEntity
8
0-0
6
CONTINUOUS
62
7
100
AcDbCircle
10
175.730198096394
20
61.100000000000
30
0.0
40
0.300000000000
100
AcDbArc
50
195.000000000000
51
270.000000000000
0
ARC
5
578
100
AcDbEntity
8
0-0
6
CONTINUOUS
62
7
100
AcDbCircle
10
174.867878114960
20
62.000000000000
30
0.0
40
0.300000000000
100
AcDbArc
50
15.000000000000
51
90.000000000000
0
ARC
5
579
100
AcDbEntity
8
0-0
6
CONTINUOUS
62
7
100
AcDbCircle
10
166.132121885040
20
62.000000000000
30
0.0
40
0.300000000000
100
AcDbArc
50
90.000000000000
51
165.000000000000
0
ARC
5
57a
100
AcDbEntity
8
0-0
6
CONTINUOUS
62
7
100
AcDbCircle
10
165.269801903606
20
61.100000000000
30
0.0
40
0.300000000000
100
AcDbArc
50
270.000000000000
51
345.000000000000
0
ARC
5
57b
100
AcDbEntity
8
0-0
6
CONTINUOUS
62
7
100
AcDbCircle
10
163.000000000000
20
57.500000000000
30
0.0
40
3.600000000000
100
AcDbArc
50
246.443535690906
51
293.556464309094
0
ARC
5
57c
100
AcDbEntity
8
0-0
6
CONTINUOUS
62
7
100
AcDbCircle
10
163.000000000000
20
57.500000000000
30
0.0
40
3.600000000000
100
AcDbArc
50
66.443535690897
51
113.556464309103
0
ARC
5
57d
100
AcDbEntity
8
0-0
6
CONTINUOUS
62
7
100
AcDbCircle
10
178.000000000000
20
57.500000000000
30
0.0
40
3.600000000000
100
AcDbArc
50
246.443535690906
51
293.556464309094
0
ARC
5
57e
100
AcDbEntity
8
0-0
6
CONTINUOUS
62
7
100
AcDbCircle
10
178.000000000000
20
57.500000000000
30
0.0
40
3.600000000000
100
AcDbArc
50
66.443535690897
51
113.556464309103
0
LINE
5
57f
100
AcDbEntity
8
0-1
6
CENTER
62
4
100
AcDbLine
10
150.500000000000
20
57.500000000000
30
0.0
11
190.500000000000
21
57.500000000000
31
0.0
0
LINE
5
580
100
AcDbEntity
8
0-1
6
CENTER
62
4
100
AcDbLine
10
178.000000000000
20
65.000000000000
30
0.0
11
178.000000000000
21
50.000000000000
31
0.0
0
LINE
5
581
100
AcDbEntity
8
0-1
6
CENTER
62
4
100
AcDbLine
10
163.000000000000
20
50.000000000000
30
0.0
11
163.000000000000
21
65.000000000000
31
0.0
0
ARC
5
582
100
AcDbEntity
8
0-0
6
CONTINUOUS
62
7
100
AcDbCircle
10
219.700000000000
20
58.103589838486
30
0.0
40
0.300000000000
100
AcDbArc
50
0.000000000000
51
30.000000000000
0
ARC
5
583
100
AcDbEntity
8
0-0
6
CONTINUOUS
62
7
100
AcDbCircle
10
219.700000000000
20
66.896410161514
30
0.0
40
0.300000000000
100
AcDbArc
50
330.000000000000
51
360.000000000000
0
LINE
5
584
100
AcDbEntity
8
0-0
6
CONTINUOUS
62
7
100
AcDbLine
10
200.000000000000
20
69.000000000000
30
0.0
11
200.000000000000
21
66.400000000000
31
0.0
0
LINE
5
585
100
AcDbEntity
8
0-0
6
CONTINUOUS
62
7
100
AcDbLine
10
200.300000000000
20
66.100000000000
30
0.0
11
201.500000000000
21
66.100000000000
31
0.0
0
LINE
5
586
100
AcDbEntity
8
0-0
6
CONTINUOUS
62
7
100
AcDbLine
10
201.800000000000
20
66.400000000000
30
0.0
11
201.800000000000
21
68.200000000000
31
0.0
0
LINE
5
587
100
AcDbEntity
8
0-0
6
CONTINUOUS
62
7
100
AcDbLine
10
202.100000000000
20
68.500000000000
30
0.0
11
204.875735931288
21
68.500000000000
31
0.0
0
LINE
5
588
100
AcDbEntity
8
0-0
6
CONTINUOUS
62
7
100
AcDbLine
10
205.087867965644
20
68.412132034356
30
0.0
11
206.112132034356
21
67.387867965644
31
0.0
0
LINE
5
589
100
AcDbEntity
8
0-0
6
CONTINUOUS
62
7
100
AcDbLine
10
206.200000000000
20
67.175735931288
30
0.0
11
206.200000000000
21
57.824264068712
31
0.0
0
LINE
5
58a
100
AcDbEntity
8
0-0
6
CONTINUOUS
62
7
100
AcDbLine
10
206.112132034356
20
57.612132034356
30
0.0
11
205.087867965644
21
56.587867965644
31
0.0
0
LINE
5
58b
100
AcDbEntity
8
0-0
6
CONTINUOUS
62
7
100
AcDbLine
10
204.875735931288
20
56.500000000000
30
0.0
11
202.100000000000
21
56.500000000000
31
0.0
0
LINE
5
58c
100
AcDbEntity
8
0-0
6
CONTINUOUS
62
7
100
AcDbLine
10
201.800000000000
20
56.800000000000
30
0.0
11
201.800000000000
21
58.600000000000
31
0.0
0
LINE
5
58d
100
AcDbEntity
8
0-0
6
CONTINUOUS
62
7
100
AcDbLine
10
201.500000000000
20
58.900000000000
30
0.0
11
200.300000000000
21
58.900000000000
31
0.0
0
LINE
5
58e
100
AcDbEntity
8
0-0
6
CONTINUOUS
62
7
100
AcDbLine
10
200.000000000000
20
58.600000000000
30
0.0
11
200.000000000000
21
51.000000000000
31
0.0
0
LINE
5
58f
100
AcDbEntity
8
0-0
6
CONTINUOUS
62
7
100
AcDbLine
10
201.000000000000
20
50.000000000000
30
0.0
11
208.600000000000
21
50.000000000000
31
0.0
0
LINE
5
590
100
AcDbEntity
8
0-0
6
CONTINUOUS
62
7
100
AcDbLine
10
208.900000000000
20
50.300000000000
30
0.0
11
208.900000000000
21
51.500000000000
31
0.0
0
LINE
5
591
100
AcDbEntity
8
0-0
6
CONTINUOUS
62
7
100
AcDbLine
10
208.600000000000
20
51.800000000000
30
0.0
11
206.800000000000
21
51.800000000000
31
0.0
0
LINE
5
592
100
AcDbEntity
8
0-0
6
CONTINUOUS
62
7
100
AcDbLine
10
206.500000000000
20
52.100000000000
30
0.0
11
206.500000000000
21
54.875735931288
31
0.0
0
LINE
5
593
100
AcDbEntity
8
0-0
6
CONTINUOUS
62
7
100
AcDbLine
10
206.587867965644
20
55.087867965644
30
0.0
11
207.612132034356
21
56.112132034356
31
0.0
0
LINE
5
594
100
AcDbEntity
8
0-0
6
CONTINUOUS
62
7
100
AcDbLine
10
217.387867965644
20
56.112132034356
30
0.0
11
218.412132034356
21
55.087867965644
31
0.0
0
LINE
5
595
100
AcDbEntity
8
0-0
6
CONTINUOUS
62
7
100
AcDbLine
10
218.500000000000
20
54.875735931288
30
0.0
11
218.500000000000
21
52.100000000000
31
0.0
0
LINE
5
596
100
AcDbEntity
8
0-0
6
CONTINUOUS
62
7
100
AcDbLine
10
218.200000000000
20
51.800000000000
30
0.0
11
216.400000000000
21
51.800000000000
31
0.0
0
LINE
5
597
100
AcDbEntity
8
0-0
6
CONTINUOUS
62
7
100
AcDbLine
10
216.100000000000
20
51.500000000000
30
0.0
11
216.100000000000
21
50.300000000000
31
0.0
0
LINE
5
598
100
AcDbEntity
8
0-0
6
CONTINUOUS
62
7
100
AcDbLine
10
216.400000000000
20
50.000000000000
30
0.0
11
219.000000000000
21
50.000000000000
31
0.0
0
LINE
5
599
100
AcDbEntity
8
0-0
6
CONTINUOUS
62
7
100
AcDbLine
10
217.100000000000
20
67.300000000000
30
0.0
11
215.632121885040
21
67.300000000000
31
0.0
0
LINE
5
59a
100
AcDbEntity
8
0-0
6
CONTINUOUS
62
7
100
AcDbLine
10
215.342344137153
20
67.077645713531
30
0.0
11
215.059579651493
21
66.022354286469
31
0.0
0
LINE
5
59b
100
AcDbEntity
8
0-0
6
CONTINUOUS
62
7
100
AcDbLine
10
214.769801903606
20
65.800000000000
30
0.0
11
210.230198096393
21
65.800000000000
31
0.0
0
LINE
5
59c
100
AcDbEntity
8
0-0
6
CONTINUOUS
62
7
100
AcDbLine
10
209.940420348507
20
66.022354286469
30
0.0
11
209.657655862846
21
67.077645713531
31
0.0
0
LINE
5
59d
100
AcDbEntity
8
0-0
6
CONTINUOUS
62
7
100
AcDbLine
10
209.367878114959
20
67.300000000000
30
0.0
11
207.900000000000
21
67.300000000000
31
0.0
0
LINE
5
59e
100
AcDbEntity
8
0-0
6
CONTINUOUS
62
7
100
AcDbLine
10
207.600000000000
20
67.000000000000
30
0.0
11
207.600000000000
21
58.000000000000
31
0.0
0
LINE
5
59f
100
AcDbEntity
8
0-0
6
CONTINUOUS
62
7
100
AcDbLine
10
207.900000000000
20
57.700000000000
30
0.0
11
209.367878114959
21
57.700000000000
31
0.0
0
LINE
5
5a0
100
AcDbEntity
8
0-0
6
CONTINUOUS
62
7
100
AcDbLine
10
209.657655862846
20
57.922354286469
30
0.0
11
209.940420348507
21
58.977645713531
31
0.0
0
LINE
5
5a1
100
AcDbEntity
8
0-0
6
CONTINUOUS
62
7
100
AcDbLine
10
210.230198096393
20
59.200000000000
30
0.0
11
214.769801903606
21
59.200000000000
31
0.0
0
LINE
5
5a2
100
AcDbEntity
8
0-0
6
CONTINUOUS
62
7
100
AcDbLine
10
215.059579651493
20
58.977645713531
30
0.0
11
215.342344137153
21
57.922354286469
31
0.0
0
LINE
5
5a3
100
AcDbEntity
8
0-0
6
CONTINUOUS
62
7
100
AcDbLine
10
215.632121885040
20
57.700000000000
30
0.0
11
217.100000000000
21
57.700000000000
31
0.0
0
LINE
5
5a4
100
AcDbEntity
8
0-0
6
CONTINUOUS
62
7
100
AcDbLine
10
217.400000000000
20
58.000000000000
30
0.0
11
217.400000000000
21
67.000000000000
31
0.0
0
ARC
5
5a5
100
AcDbEntity
8
0-0
6
CONTINUOUS
62
7
100
AcDbCircle
10
201.000000000000
20
51.000000000000
30
0.0
40
1.000000000000
100
AcDbArc
50
180.000000000000
51
270.000000000000
0
ARC
5
5a6
100
AcDbEntity
8
0-0
6
CONTINUOUS
62
7
100
AcDbCircle
10
200.300000000000
20
66.400000000000
30
0.0
40
0.300000000000
100
AcDbArc
50
180.000000000000
51
270.000000000000
0
ARC
5
5a7
100
AcDbEntity
8
0-0
6
CONTINUOUS
62
7
100
AcDbCircle
10
200.300000000000
20
58.600000000000
30
0.0
40
0.300000000000
100
AcDbArc
50
90.000000000000
51
180.000000000000
0
ARC
5
5a8
100
AcDbEntity
8
0-0
6
CONTINUOUS
62
7
100
AcDbCircle
10
208.600000000000
20
50.300000000000
30
0.0
40
0.300000000000
100
AcDbArc
50
270.000000000000
51
360.000000000000
0
ARC
5
5a9
100
AcDbEntity
8
0-0
6
CONTINUOUS
62
7
100
AcDbCircle
10
217.100000000000
20
58.000000000000
30
0.0
40
0.300000000000
100
AcDbArc
50
270.000000000000
51
360.000000000000
0
ARC
5
5aa
100
AcDbEntity
8
0-0
6
CONTINUOUS
62
7
100
AcDbCircle
10
215.632121885040
20
58.000000000000
30
0.0
40
0.300000000000
100
AcDbArc
50
195.000000000000
51
270.000000000000
0
ARC
5
5ab
100
AcDbEntity
8
0-0
6
CONTINUOUS
62
7
100
AcDbCircle
10
214.769801903606
20
58.900000000000
30
0.0
40
0.300000000000
100
AcDbArc
50
15.000000000000
51
90.000000000000
0
ARC
5
5ac
100
AcDbEntity
8
0-0
6
CONTINUOUS
62
7
100
AcDbCircle
10
210.230198096393
20
58.900000000000
30
0.0
40
0.300000000000
100
AcDbArc
50
90.000000000000
51
165.000000000000
0
ARC
5
5ad
100
AcDbEntity
8
0-0
6
CONTINUOUS
62
7
100
AcDbCircle
10
209.367878114959
20
58.000000000000
30
0.0
40
0.300000000000
100
AcDbArc
50
270.000000000000
51
345.000000000000
0
ARC
5
5ae
100
AcDbEntity
8
0-0
6
CONTINUOUS
62
7
100
AcDbCircle
10
207.900000000000
20
58.000000000000
30
0.0
40
0.300000000000
100
AcDbArc
50
180.000000000000
51
270.000000000000
0
ARC
5
5af
100
AcDbEntity
8
0-0
6
CONTINUOUS
62
7
100
AcDbCircle
10
206.800000000000
20
54.875735931288
30
0.0
40
0.300000000000
100
AcDbArc
50
135.000000000000
51
180.000000000000
0
ARC
5
5b0
100
AcDbEntity
8
0-0
6
CONTINUOUS
62
7
100
AcDbCircle
10
206.800000000000
20
52.100000000000
30
0.0
40
0.300000000000
100
AcDbArc
50
180.000000000000
51
270.000000000000
0
ARC
5
5b1
100
AcDbEntity
8
0-0
6
CONTINUOUS
62
7
100
AcDbCircle
10
208.600000000000
20
51.500000000000
30
0.0
40
0.300000000000
100
AcDbArc
50
0.000000000000
51
90.000000000000
0
ARC
5
5b2
100
AcDbEntity
8
0-0
6
CONTINUOUS
62
7
100
AcDbCircle
10
207.824264068712
20
55.900000000000
30
0.0
40
0.300000000000
100
AcDbArc
50
90.000000000000
51
135.000000000000
0
ARC
5
5b3
100
AcDbEntity
8
0-0
6
CONTINUOUS
62
7
100
AcDbCircle
10
201.500000000000
20
58.600000000000
30
0.0
40
0.300000000000
100
AcDbArc
50
0.000000000000
51
90.000000000000
0
ARC
5
5b4
100
AcDbEntity
8
0-0
6
CONTINUOUS
62
7
100
AcDbCircle
10
202.100000000000
20
56.800000000000
30
0.0
40
0.300000000000
100
AcDbArc
50
180.000000000000
51
270.000000000000
0
ARC
5
5b5
100
AcDbEntity
8
0-0
6
CONTINUOUS
62
7
100
AcDbCircle
10
204.875735931288
20
56.800000000000
30
0.0
40
0.300000000000
100
AcDbArc
50
270.000000000000
51
315.000000000000
0
ARC
5
5b6
100
AcDbEntity
8
0-0
6
CONTINUOUS
62
7
100
AcDbCircle
10
205.900000000000
20
57.824264068712
30
0.0
40
0.300000000000
100
AcDbArc
50
315.000000000000
51
360.000000000000
0
ARC
5
5b7
100
AcDbEntity
8
0-0
6
CONTINUOUS
62
7
100
AcDbCircle
10
204.875735931288
20
68.200000000000
30
0.0
40
0.300000000000
100
AcDbArc
50
45.000000000000
51
90.000000000000
0
ARC
5
5b8
100
AcDbEntity
8
0-0
6
CONTINUOUS
62
7
100
AcDbCircle
10
202.100000000000
20
68.200000000000
30
0.0
40
0.300000000000
100
AcDbArc
50
90.000000000000
51
180.000000000000
0
ARC
5
5b9
100
AcDbEntity
8
0-0
6
CONTINUOUS
62
7
100
AcDbCircle
10
201.500000000000
20
66.400000000000
30
0.0
40
0.300000000000
100
AcDbArc
50
270.000000000000
51
360.000000000000
0
ARC
5
5ba
100
AcDbEntity
8
0-0
6
CONTINUOUS
62
7
100
AcDbCircle
10
205.900000000000
20
67.175735931288
30
0.0
40
0.300000000000
100
AcDbArc
50
0.000000000000
51
45.000000000000
0
CIRCLE
5
5bb
100
AcDbEntity
8
0-0
6
CONTINUOUS
62
7
100
AcDbCircle
10
203.250000000000
20
53.250000000000
30
0.0
40
2.100000000000
0
ARC
5
5bc
100
AcDbEntity
8
0-0
6
CONTINUOUS
62
7
100
AcDbCircle
10
201.000000000000
20
69.000000000000
30
0.0
40
1.000000000000
100
AcDbArc
50
90.000000000000
51
180.000000000000
0
ARC
5
5bd
100
AcDbEntity
8
0-0
6
CONTINUOUS
62
7
100
AcDbCircle
10
217.100000000000
20
67.000000000000
30
0.0
40
0.300000000000
100
AcDbArc
50
0.000000000000
51
90.000000000000
0
ARC
5
5be
100
AcDbEntity
8
0-0
6
CONTINUOUS
62
7
100
AcDbCircle
10
215.632121885040
20
67.000000000000
30
0.0
40
0.300000000000
100
AcDbArc
50
90.000000000000
51
165.000000000000
0
ARC
5
5bf
100
AcDbEntity
8
0-0
6
CONTINUOUS
62
7
100
AcDbCircle
10
214.769801903606
20
66.100000000000
30
0.0
40
0.300000000000
100
AcDbArc
50
270.000000000000
51
345.000000000000
0
ARC
5
5c0
100
AcDbEntity
8
0-0
6
CONTINUOUS
62
7
100
AcDbCircle
10
210.230198096393
20
66.100000000000
30
0.0
40
0.300000000000
100
AcDbArc
50
195.000000000000
51
270.000000000000
0
ARC
5
5c1
100
AcDbEntity
8
0-0
6
CONTINUOUS
62
7
100
AcDbCircle
10
209.367878114959
20
67.000000000000
30
0.0
40
0.300000000000
100
AcDbArc
50
15.000000000000
51
90.000000000000
0
ARC
5
5c2
100
AcDbEntity
8
0-0
6
CONTINUOUS
62
7
100
AcDbCircle
10
207.900000000000
20
67.000000000000
30
0.0
40
0.300000000000
100
AcDbArc
50
90.000000000000
51
180.000000000000
0
ARC
5
5c3
100
AcDbEntity
8
0-0
6
CONTINUOUS
62
7
100
AcDbCircle
10
216.400000000000
20
50.300000000000
30
0.0
40
0.300000000000
100
AcDbArc
50
180.000000000000
51
270.000000000000
0
ARC
5
5c4
100
AcDbEntity
8
0-0
6
CONTINUOUS
62
7
100
AcDbCircle
10
216.400000000000
20
51.500000000000
30
0.0
40
0.300000000000
100
AcDbArc
50
90.000000000000
51
180.000000000000
0
ARC
5
5c5
100
AcDbEntity
8
0-0
6
CONTINUOUS
62
7
100
AcDbCircle
10
218.200000000000
20
52.100000000000
30
0.0
40
0.300000000000
100
AcDbArc
50
270.000000000000
51
360.000000000000
0
ARC
5
5c6
100
AcDbEntity
8
0-0
6
CONTINUOUS
62
7
100
AcDbCircle
10
218.200000000000
20
54.875735931288
30
0.0
40
0.300000000000
100
AcDbArc
50
0.000000000000
51
45.000000000000
0
ARC
5
5c7
100
AcDbEntity
8
0-0
6
CONTINUOUS
62
7
100
AcDbCircle
10
217.175735931288
20
55.900000000000
30
0.0
40
0.300000000000
100
AcDbArc
50
45.000000000000
51
90.000000000000
0
ARC
5
5c8
100
AcDbEntity
8
0-0
6
CONTINUOUS
62
7
100
AcDbCircle
10
219.000000000000
20
51.000000000000
30
0.0
40
1.000000000000
100
AcDbArc
50
270.000000000000
51
360.000000000000
0
ARC
5
5c9
100
AcDbEntity
8
0-0
6
CONTINUOUS
62
7
100
AcDbCircle
10
219.000000000000
20
69.000000000000
30
0.0
40
1.000000000000
100
AcDbArc
50
0.000000000000
51
90.000000000000
0
LINE
5
5ca
100
AcDbEntity
8
0-0
6
CONTINUOUS
62
7
100
AcDbLine
10
207.824264068712
20
56.200000000000
30
0.0
11
217.175735931288
21
56.200000000000
31
0.0
0
LINE
5
5cb
100
AcDbEntity
8
0-0
6
CONTINUOUS
62
7
100
AcDbLine
10
216.896410161513
20
70.000000000000
30
0.0
11
219.000000000000
21
70.000000000000
31
0.0
0
ARC
5
5cc
100
AcDbEntity
8
0-0
6
CONTINUOUS
62
7
100
AcDbCircle
10
216.896410161513
20
69.700000000000
30
0.0
40
0.300000000000
100
AcDbArc
50
90.000000000000
51
120.000000000000
0
LINE
5
5cd
100
AcDbEntity
8
0-0
6
CONTINUOUS
62
7
100
AcDbLine
10
216.019615242270
20
69.540192378865
30
0.0
11
216.746410161513
21
69.959807621135
31
0.0
0
ARC
5
5ce
100
AcDbEntity
8
0-0
6
CONTINUOUS
62
7
100
AcDbCircle
10
215.869615242270
20
69.800000000000
30
0.0
40
0.300000000000
100
AcDbArc
50
270.000000000000
51
300.000000000000
0
LINE
5
5cf
100
AcDbEntity
8
0-0
6
CONTINUOUS
62
7
100
AcDbLine
10
208.980384757729
20
69.540192378865
30
0.0
11
208.253589838486
21
69.959807621135
31
0.0
0
ARC
5
5d0
100
AcDbEntity
8
0-0
6
CONTINUOUS
62
7
100
AcDbCircle
10
208.103589838486
20
69.700000000000
30
0.0
40
0.300000000000
100
AcDbArc
50
60.000000000000
51
90.000000000000
0
LINE
5
5d1
100
AcDbEntity
8
0-0
6
CONTINUOUS
62
7
100
AcDbLine
10
208.103589838486
20
70.000000000000
30
0.0
11
201.000000000000
21
70.000000000000
31
0.0
0
LINE
5
5d2
100
AcDbEntity
8
0-0
6
CONTINUOUS
62
7
100
AcDbLine
10
215.869615242270
20
69.500000000000
30
0.0
11
209.130384757729
21
69.500000000000
31
0.0
0
ARC
5
5d3
100
AcDbEntity
8
0-0
6
CONTINUOUS
62
7
100
AcDbCircle
10
209.130384757729
20
69.800000000000
30
0.0
40
0.300000000000
100
AcDbArc
50
240.000000000000
51
270.000000000000
0
LINE
5
5d4
100
AcDbEntity
8
0-0
6
CONTINUOUS
62
7
100
AcDbLine
10
219.540192378865
20
58.980384757729
30
0.0
11
219.959807621135
21
58.253589838486
31
0.0
0
ARC
5
5d5
100
AcDbEntity
8
0-0
6
CONTINUOUS
62
7
100
AcDbCircle
10
219.800000000000
20
59.130384757729
30
0.0
40
0.300000000000
100
AcDbArc
50
180.000000000000
51
210.000000000000
0
LINE
5
5d6
100
AcDbEntity
8
0-0
6
CONTINUOUS
62
7
100
AcDbLine
10
219.540192378865
20
66.019615242271
30
0.0
11
219.959807621135
21
66.746410161514
31
0.0
0
LINE
5
5d7
100
AcDbEntity
8
0-0
6
CONTINUOUS
62
7
100
AcDbLine
10
219.500000000000
20
59.130384757729
30
0.0
11
219.500000000000
21
65.869615242271
31
0.0
0
ARC
5
5d8
100
AcDbEntity
8
0-0
6
CONTINUOUS
62
7
100
AcDbCircle
10
219.800000000000
20
65.869615242271
30
0.0
40
0.300000000000
100
AcDbArc
50
150.000000000000
51
180.000000000000
0
LINE
5
5d9
100
AcDbEntity
8
0-0
6
CONTINUOUS
62
7
100
AcDbLine
10
220.000000000000
20
66.896410161514
30
0.0
11
220.000000000000
21
69.000000000000
31
0.0
0
LINE
5
5da
100
AcDbEntity
8
0-0
6
CONTINUOUS
62
7
100
AcDbLine
10
220.000000000000
20
51.000000000000
30
0.0
11
220.000000000000
21
58.103589838486
31
0.0
0
LINE
5
5db
100
AcDbEntity
8
0-0
6
CONTINUOUS
62
7
100
AcDbLine
10
265.342344137153
20
66.987002783207
30
0.0
11
265.059579651493
21
65.931711356146
31
0.0
0
LINE
5
5dc
100
AcDbEntity
8
0-0
6
CONTINUOUS
62
7
100
AcDbLine
10
264.769801903606
20
65.709357069677
30
0.0
11
260.230198096393
21
65.709357069677
31
0.0
0
LINE
5
5dd
100
AcDbEntity
8
0-0
6
CONTINUOUS
62
7
100
AcDbLine
10
259.940420348507
20
65.931711356146
30
0.0
11
259.657655862846
21
66.987002783207
31
0.0
0
ARC
5
5de
100
AcDbEntity
8
0-0
6
CONTINUOUS
62
7
100
AcDbCircle
10
265.632121885040
20
66.909357069677
30
0.0
40
0.300000000000
100
AcDbArc
50
90.000000000000
51
165.000000000000
0
ARC
5
5df
100
AcDbEntity
8
0-0
6
CONTINUOUS
62
7
100
AcDbCircle
10
264.769801903606
20
66.009357069677
30
0.0
40
0.300000000000
100
AcDbArc
50
270.000000000000
51
345.000000000000
0
ARC
5
5e0
100
AcDbEntity
8
0-0
6
CONTINUOUS
62
7
100
AcDbCircle
10
260.230198096393
20
66.009357069677
30
0.0
40
0.300000000000
100
AcDbArc
50
195.000000000000
51
270.000000000000
0
ARC
5
5e1
100
AcDbEntity
8
0-0
6
CONTINUOUS
62
7
100
AcDbCircle
10
259.367878114959
20
66.909357069677
30
0.0
40
0.300000000000
100
AcDbArc
50
15.000000000000
51
90.000000000000
0
LINE
5
5e2
100
AcDbEntity
8
0-0
6
CONTINUOUS
62
7
100
AcDbLine
10
250.000000000000
20
66.309357069677
30
0.0
11
250.000000000000
21
68.909357069677
31
0.0
0
LINE
5
5e3
100
AcDbEntity
8
0-0
6
CONTINUOUS
62
7
100
AcDbLine
10
275.000000000000
20
68.909357069677
30
0.0
11
275.000000000000
21
66.309357069677
31
0.0
0
LINE
5
5e4
100
AcDbEntity
8
0-0
6
CONTINUOUS
62
7
100
AcDbLine
10
274.700000000000
20
66.009357069677
30
0.0
11
273.500000000000
21
66.009357069677
31
0.0
0
LINE
5
5e5
100
AcDbEntity
8
0-0
6
CONTINUOUS
62
7
100
AcDbLine
10
273.200000000000
20
66.309357069676
30
0.0
11
273.200000000000
21
68.109357069677
31
0.0
0
LINE
5
5e6
100
AcDbEntity
8
0-0
6
CONTINUOUS
62
7
100
AcDbLine
10
272.900000000000
20
68.409357069677
30
0.0
11
270.124264068712
21
68.409357069677
31
0.0
0
LINE
5
5e7
100
AcDbEntity
8
0-0
6
CONTINUOUS
62
7
100
AcDbLine
10
269.912132034356
20
68.321489104032
30
0.0
11
268.887867965644
21
67.297225035320
31
0.0
0
LINE
5
5e8
100
AcDbEntity
8
0-0
6
CONTINUOUS
62
7
100
AcDbLine
10
268.800000000000
20
67.085093000965
30
0.0
11
268.800000000000
21
57.733621138389
31
0.0
0
LINE
5
5e9
100
AcDbEntity
8
0-0
6
CONTINUOUS
62
7
100
AcDbLine
10
268.887867965644
20
57.521489104033
30
0.0
11
269.912132034356
21
56.497225035321
31
0.0
0
LINE
5
5ea
100
AcDbEntity
8
0-0
6
CONTINUOUS
62
7
100
AcDbLine
10
270.124264068712
20
56.409357069677
30
0.0
11
272.900000000000
21
56.409357069677
31
0.0
0
LINE
5
5eb
100
AcDbEntity
8
0-0
6
CONTINUOUS
62
7
100
AcDbLine
10
273.200000000000
20
56.709357069677
30
0.0
11
273.200000000000
21
58.509357069677
31
0.0
0
LINE
5
5ec
100
AcDbEntity
8
0-0
6
CONTINUOUS
62
7
100
AcDbLine
10
273.500000000000
20
58.809357069677
30
0.0
11
274.700000000000
21
58.809357069677
31
0.0
0
LINE
5
5ed
100
AcDbEntity
8
0-0
6
CONTINUOUS
62
7
100
AcDbLine
10
275.000000000000
20
58.509357069677
30
0.0
11
275.000000000000
21
50.909357069677
31
0.0
0
LINE
5
5ee
100
AcDbEntity
8
0-0
6
CONTINUOUS
62
7
100
AcDbLine
10
274.000000000000
20
49.909357069677
30
0.0
11
266.400000000000
21
49.909357069677
31
0.0
0
LINE
5
5ef
100
AcDbEntity
8
0-0
6
CONTINUOUS
62
7
100
AcDbLine
10
266.100000000000
20
50.209357069677
30
0.0
11
266.100000000000
21
51.409357069677
31
0.0
0
LINE
5
5f0
100
AcDbEntity
8
0-0
6
CONTINUOUS
62
7
100
AcDbLine
10
266.400000000000
20
51.709357069676
30
0.0
11
268.200000000000
21
51.709357069676
31
0.0
0
LINE
5
5f1
100
AcDbEntity
8
0-0
6
CONTINUOUS
62
7
100
AcDbLine
10
268.500000000000
20
52.009357069677
30
0.0
11
268.500000000000
21
54.785093000965
31
0.0
0
LINE
5
5f2
100
AcDbEntity
8
0-0
6
CONTINUOUS
62
7
100
AcDbLine
10
268.412132034356
20
54.997225035321
30
0.0
11
267.387867965644
21
56.021489104033
31
0.0
0
LINE
5
5f3
100
AcDbEntity
8
0-0
6
CONTINUOUS
62
7
100
AcDbLine
10
257.612132034356
20
56.021489104033
30
0.0
11
256.587867965644
21
54.997225035321
31
0.0
0
LINE
5
5f4
100
AcDbEntity
8
0-0
6
CONTINUOUS
62
7
100
AcDbLine
10
256.500000000000
20
54.785093000965
30
0.0
11
256.500000000000
21
52.009357069677
31
0.0
0
LINE
5
5f5
100
AcDbEntity
8
0-0
6
CONTINUOUS
62
7
100
AcDbLine
10
256.800000000000
20
51.709357069676
30
0.0
11
258.600000000000
21
51.709357069676
31
0.0
0
LINE
5
5f6
100
AcDbEntity
8
0-0
6
CONTINUOUS
62
7
100
AcDbLine
10
258.900000000000
20
51.409357069677
30
0.0
11
258.900000000000
21
50.209357069677
31
0.0
0
LINE
5
5f7
100
AcDbEntity
8
0-0
6
CONTINUOUS
62
7
100
AcDbLine
10
258.600000000000
20
49.909357069677
30
0.0
11
251.000000000000
21
49.909357069677
31
0.0
0
LINE
5
5f8
100
AcDbEntity
8
0-0
6
CONTINUOUS
62
7
100
AcDbLine
10
250.000000000000
20
50.909357069677
30
0.0
11
250.000000000000
21
58.509357069677
31
0.0
0
LINE
5
5f9
100
AcDbEntity
8
0-0
6
CONTINUOUS
62
7
100
AcDbLine
10
250.300000000000
20
58.809357069677
30
0.0
11
251.500000000000
21
58.809357069677
31
0.0
0
LINE
5
5fa
100
AcDbEntity
8
0-0
6
CONTINUOUS
62
7
100
AcDbLine
10
251.800000000000
20
58.509357069677
30
0.0
11
251.800000000000
21
56.709357069677
31
0.0
0
LINE
5
5fb
100
AcDbEntity
8
0-0
6
CONTINUOUS
62
7
100
AcDbLine
10
252.100000000000
20
56.409357069677
30
0.0
11
254.875735931288
21
56.409357069677
31
0.0
0
LINE
5
5fc
100
AcDbEntity
8
0-0
6
CONTINUOUS
62
7
100
AcDbLine
10
255.087867965644
20
56.497225035321
30
0.0
11
256.112132034356
21
57.521489104033
31
0.0
0
LINE
5
5fd
100
AcDbEntity
8
0-0
6
CONTINUOUS
62
7
100
AcDbLine
10
256.200000000000
20
57.733621138389
30
0.0
11
256.200000000000
21
67.085093000965
31
0.0
0
LINE
5
5fe
100
AcDbEntity
8
0-0
6
CONTINUOUS
62
7
100
AcDbLine
10
256.112132034356
20
67.297225035321
30
0.0
11
255.087867965644
21
68.321489104032
31
0.0
0
LINE
5
5ff
100
AcDbEntity
8
0-0
6
CONTINUOUS
62
7
100
AcDbLine
10
254.875735931288
20
68.409357069677
30
0.0
11
252.100000000000
21
68.409357069677
31
0.0
0
LINE
5
600
100
AcDbEntity
8
0-0
6
CONTINUOUS
62
7
100
AcDbLine
10
251.800000000000
20
68.109357069677
30
0.0
11
251.800000000000
21
66.309357069677
31
0.0
0
LINE
5
601
100
AcDbEntity
8
0-0
6
CONTINUOUS
62
7
100
AcDbLine
10
251.500000000000
20
66.009357069677
30
0.0
11
250.300000000000
21
66.009357069677
31
0.0
0
LINE
5
602
100
AcDbEntity
8
0-0
6
CONTINUOUS
62
7
100
AcDbLine
10
257.600000000000
20
66.909357069677
30
0.0
11
257.600000000000
21
57.909357069677
31
0.0
0
LINE
5
603
100
AcDbEntity
8
0-0
6
CONTINUOUS
62
7
100
AcDbLine
10
257.900000000000
20
57.609357069676
30
0.0
11
259.367878114959
21
57.609357069676
31
0.0
0
LINE
5
604
100
AcDbEntity
8
0-0
6
CONTINUOUS
62
7
100
AcDbLine
10
259.657655862846
20
57.831711356146
30
0.0
11
259.940420348507
21
58.887002783207
31
0.0
0
LINE
5
605
100
AcDbEntity
8
0-0
6
CONTINUOUS
62
7
100
AcDbLine
10
260.230198096393
20
59.109357069676
30
0.0
11
264.769801903606
21
59.109357069676
31
0.0
0
LINE
5
606
100
AcDbEntity
8
0-0
6
CONTINUOUS
62
7
100
AcDbLine
10
265.059579651493
20
58.887002783207
30
0.0
11
265.342344137153
21
57.831711356146
31
0.0
0
LINE
5
607
100
AcDbEntity
8
0-0
6
CONTINUOUS
62
7
100
AcDbLine
10
265.632121885040
20
57.609357069676
30
0.0
11
267.100000000000
21
57.609357069676
31
0.0
0
LINE
5
608
100
AcDbEntity
8
0-0
6
CONTINUOUS
62
7
100
AcDbLine
10
267.400000000000
20
57.909357069677
30
0.0
11
267.400000000000
21
66.909357069677
31
0.0
0
LINE
5
609
100
AcDbEntity
8
0-0
6
CONTINUOUS
62
7
100
AcDbLine
10
267.100000000000
20
67.209357069677
30
0.0
11
265.632121885040
21
67.209357069677
31
0.0
0
LINE
5
60a
100
AcDbEntity
8
0-0
6
CONTINUOUS
62
7
100
AcDbLine
10
259.367878114959
20
67.209357069677
30
0.0
11
257.900000000000
21
67.209357069677
31
0.0
0
ARC
5
60b
100
AcDbEntity
8
0-0
6
CONTINUOUS
62
7
100
AcDbCircle
10
274.000000000000
20
50.909357069677
30
0.0
40
1.000000000000
100
AcDbArc
50
270.000000000000
51
360.000000000000
0
ARC
5
60c
100
AcDbEntity
8
0-0
6
CONTINUOUS
62
7
100
AcDbCircle
10
251.000000000000
20
50.909357069677
30
0.0
40
1.000000000000
100
AcDbArc
50
180.000000000000
51
270.000000000000
0
ARC
5
60d
100
AcDbEntity
8
0-0
6
CONTINUOUS
62
7
100
AcDbCircle
10
250.300000000000
20
66.309357069677
30
0.0
40
0.300000000000
100
AcDbArc
50
180.000000000000
51
270.000000000000
0
ARC
5
60e
100
AcDbEntity
8
0-0
6
CONTINUOUS
62
7
100
AcDbCircle
10
250.300000000000
20
58.509357069677
30
0.0
40
0.300000000000
100
AcDbArc
50
90.000000000000
51
180.000000000000
0
ARC
5
60f
100
AcDbEntity
8
0-0
6
CONTINUOUS
62
7
100
AcDbCircle
10
274.700000000000
20
66.309357069677
30
0.0
40
0.300000000000
100
AcDbArc
50
270.000000000000
51
360.000000000000
0
ARC
5
610
100
AcDbEntity
8
0-0
6
CONTINUOUS
62
7
100
AcDbCircle
10
274.700000000000
20
58.509357069677
30
0.0
40
0.300000000000
100
AcDbArc
50
0.000000000000
51
90.000000000000
0
ARC
5
611
100
AcDbEntity
8
0-0
6
CONTINUOUS
62
7
100
AcDbCircle
10
266.400000000000
20
50.209357069677
30
0.0
40
0.300000000000
100
AcDbArc
50
180.000000000000
51
270.000000000000
0
ARC
5
612
100
AcDbEntity
8
0-0
6
CONTINUOUS
62
7
100
AcDbCircle
10
258.600000000000
20
50.209357069677
30
0.0
40
0.300000000000
100
AcDbArc
50
270.000000000000
51
360.000000000000
0
ARC
5
613
100
AcDbEntity
8
0-0
6
CONTINUOUS
62
7
100
AcDbCircle
10
267.100000000000
20
57.909357069677
30
0.0
40
0.300000000000
100
AcDbArc
50
270.000000000000
51
360.000000000000
0
ARC
5
614
100
AcDbEntity
8
0-0
6
CONTINUOUS
62
7
100
AcDbCircle
10
265.632121885040
20
57.909357069677
30
0.0
40
0.300000000000
100
AcDbArc
50
195.000000000000
51
270.000000000000
0
ARC
5
615
100
AcDbEntity
8
0-0
6
CONTINUOUS
62
7
100
AcDbCircle
10
264.769801903606
20
58.809357069677
30
0.0
40
0.300000000000
100
AcDbArc
50
15.000000000000
51
90.000000000000
0
ARC
5
616
100
AcDbEntity
8
0-0
6
CONTINUOUS
62
7
100
AcDbCircle
10
260.230198096393
20
58.809357069677
30
0.0
40
0.300000000000
100
AcDbArc
50
90.000000000000
51
165.000000000000
0
ARC
5
617
100
AcDbEntity
8
0-0
6
CONTINUOUS
62
7
100
AcDbCircle
10
259.367878114959
20
57.909357069677
30
0.0
40
0.300000000000
100
AcDbArc
50
270.000000000000
51
345.000000000000
0
ARC
5
618
100
AcDbEntity
8
0-0
6
CONTINUOUS
62
7
100
AcDbCircle
10
257.900000000000
20
57.909357069677
30
0.0
40
0.300000000000
100
AcDbArc
50
180.000000000000
51
270.000000000000
0
ARC
5
619
100
AcDbEntity
8
0-0
6
CONTINUOUS
62
7
100
AcDbCircle
10
266.400000000000
20
51.409357069677
30
0.0
40
0.300000000000
100
AcDbArc
50
90.000000000000
51
180.000000000000
0
ARC
5
61a
100
AcDbEntity
8
0-0
6
CONTINUOUS
62
7
100
AcDbCircle
10
268.200000000000
20
52.009357069677
30
0.0
40
0.300000000000
100
AcDbArc
50
270.000000000000
51
360.000000000000
0
ARC
5
61b
100
AcDbEntity
8
0-0
6
CONTINUOUS
62
7
100
AcDbCircle
10
268.200000000000
20
54.785093000965
30
0.0
40
0.300000000000
100
AcDbArc
50
0.000000000000
51
45.000000000000
0
ARC
5
61c
100
AcDbEntity
8
0-0
6
CONTINUOUS
62
7
100
AcDbCircle
10
267.175735931288
20
55.809357069676
30
0.0
40
0.300000000000
100
AcDbArc
50
45.000000000000
51
90.000000000000
0
ARC
5
61d
100
AcDbEntity
8
0-0
6
CONTINUOUS
62
7
100
AcDbCircle
10
256.800000000000
20
54.785093000965
30
0.0
40
0.300000000000
100
AcDbArc
50
135.000000000000
51
180.000000000000
0
ARC
5
61e
100
AcDbEntity
8
0-0
6
CONTINUOUS
62
7
100
AcDbCircle
10
256.800000000000
20
52.009357069677
30
0.0
40
0.300000000000
100
AcDbArc
50
180.000000000000
51
270.000000000000
0
ARC
5
61f
100
AcDbEntity
8
0-0
6
CONTINUOUS
62
7
100
AcDbCircle
10
258.600000000000
20
51.409357069677
30
0.0
40
0.300000000000
100
AcDbArc
50
0.000000000000
51
90.000000000000
0
ARC
5
620
100
AcDbEntity
8
0-0
6
CONTINUOUS
62
7
100
AcDbCircle
10
257.824264068712
20
55.809357069676
30
0.0
40
0.300000000000
100
AcDbArc
50
90.000000000000
51
135.000000000000
0
ARC
5
621
100
AcDbEntity
8
0-0
6
CONTINUOUS
62
7
100
AcDbCircle
10
273.500000000000
20
66.309357069676
30
0.0
40
0.300000000000
100
AcDbArc
50
180.000000000000
51
270.000000000000
0
ARC
5
622
100
AcDbEntity
8
0-0
6
CONTINUOUS
62
7
100
AcDbCircle
10
272.900000000000
20
68.109357069677
30
0.0
40
0.300000000000
100
AcDbArc
50
0.000000000000
51
90.000000000000
0
ARC
5
623
100
AcDbEntity
8
0-0
6
CONTINUOUS
62
7
100
AcDbCircle
10
270.124264068712
20
68.109357069677
30
0.0
40
0.300000000000
100
AcDbArc
50
90.000000000000
51
135.000000000000
0
ARC
5
624
100
AcDbEntity
8
0-0
6
CONTINUOUS
62
7
100
AcDbCircle
10
269.100000000000
20
67.085093000965
30
0.0
40
0.300000000000
100
AcDbArc
50
135.000000000000
51
180.000000000000
0
ARC
5
625
100
AcDbEntity
8
0-0
6
CONTINUOUS
62
7
100
AcDbCircle
10
270.124264068712
20
56.709357069677
30
0.0
40
0.300000000000
100
AcDbArc
50
225.000000000000
51
270.000000000000
0
ARC
5
626
100
AcDbEntity
8
0-0
6
CONTINUOUS
62
7
100
AcDbCircle
10
272.900000000000
20
56.709357069677
30
0.0
40
0.300000000000
100
AcDbArc
50
270.000000000000
51
360.000000000000
0
ARC
5
627
100
AcDbEntity
8
0-0
6
CONTINUOUS
62
7
100
AcDbCircle
10
273.500000000000
20
58.509357069677
30
0.0
40
0.300000000000
100
AcDbArc
50
90.000000000000
51
180.000000000000
0
ARC
5
628
100
AcDbEntity
8
0-0
6
CONTINUOUS
62
7
100
AcDbCircle
10
269.100000000000
20
57.733621138389
30
0.0
40
0.300000000000
100
AcDbArc
50
180.000000000000
51
225.000000000000
0
ARC
5
629
100
AcDbEntity
8
0-0
6
CONTINUOUS
62
7
100
AcDbCircle
10
251.500000000000
20
58.509357069677
30
0.0
40
0.300000000000
100
AcDbArc
50
0.000000000000
51
90.000000000000
0
ARC
5
62a
100
AcDbEntity
8
0-0
6
CONTINUOUS
62
7
100
AcDbCircle
10
252.100000000000
20
56.709357069677
30
0.0
40
0.300000000000
100
AcDbArc
50
180.000000000000
51
270.000000000000
0
ARC
5
62b
100
AcDbEntity
8
0-0
6
CONTINUOUS
62
7
100
AcDbCircle
10
254.875735931288
20
56.709357069677
30
0.0
40
0.300000000000
100
AcDbArc
50
270.000000000000
51
315.000000000000
0
ARC
5
62c
100
AcDbEntity
8
0-0
6
CONTINUOUS
62
7
100
AcDbCircle
10
255.900000000000
20
57.733621138389
30
0.0
40
0.300000000000
100
AcDbArc
50
315.000000000000
51
360.000000000000
0
ARC
5
62d
100
AcDbEntity
8
0-0
6
CONTINUOUS
62
7
100
AcDbCircle
10
254.875735931288
20
68.109357069677
30
0.0
40
0.300000000000
100
AcDbArc
50
45.000000000000
51
90.000000000000
0
ARC
5
62e
100
AcDbEntity
8
0-0
6
CONTINUOUS
62
7
100
AcDbCircle
10
252.100000000000
20
68.109357069677
30
0.0
40
0.300000000000
100
AcDbArc
50
90.000000000000
51
180.000000000000
0
ARC
5
62f
100
AcDbEntity
8
0-0
6
CONTINUOUS
62
7
100
AcDbCircle
10
251.500000000000
20
66.309357069677
30
0.0
40
0.300000000000
100
AcDbArc
50
270.000000000000
51
360.000000000000
0
ARC
5
630
100
AcDbEntity
8
0-0
6
CONTINUOUS
62
7
100
AcDbCircle
10
255.900000000000
20
67.085093000965
30
0.0
40
0.300000000000
100
AcDbArc
50
0.000000000000
51
45.000000000000
0
CIRCLE
5
631
100
AcDbEntity
8
0-0
6
CONTINUOUS
62
7
100
AcDbCircle
10
271.750000000000
20
53.159357069677
30
0.0
40
2.100000000000
0
CIRCLE
5
632
100
AcDbEntity
8
0-0
6
CONTINUOUS
62
7
100
AcDbCircle
10
253.250000000000
20
53.159357069677
30
0.0
40
2.100000000000
0
ARC
5
633
100
AcDbEntity
8
0-0
6
CONTINUOUS
62
7
100
AcDbCircle
10
251.000000000000
20
68.909357069677
30
0.0
40
1.000000000000
100
AcDbArc
50
90.000000000000
51
180.000000000000
0
ARC
5
634
100
AcDbEntity
8
0-0
6
CONTINUOUS
62
7
100
AcDbCircle
10
274.000000000000
20
68.909357069677
30
0.0
40
1.000000000000
100
AcDbArc
50
0.000000000000
51
90.000000000000
0
ARC
5
635
100
AcDbEntity
8
0-0
6
CONTINUOUS
62
7
100
AcDbCircle
10
267.100000000000
20
66.909357069677
30
0.0
40
0.300000000000
100
AcDbArc
50
0.000000000000
51
90.000000000000
0
ARC
5
636
100
AcDbEntity
8
0-0
6
CONTINUOUS
62
7
100
AcDbCircle
10
257.900000000000
20
66.909357069677
30
0.0
40
0.300000000000
100
AcDbArc
50
90.000000000000
51
180.000000000000
0
LINE
5
637
100
AcDbEntity
8
0-0
6
CONTINUOUS
62
7
100
AcDbLine
10
267.175735931288
20
56.109357069676
30
0.0
11
257.824264068712
21
56.109357069676
31
0.0
0
LINE
5
638
100
AcDbEntity
8
0-0
6
CONTINUOUS
62
7
100
AcDbLine
10
266.019615242271
20
69.449549448542
30
0.0
11
266.746410161514
21
69.869164690812
31
0.0
0
ARC
5
639
100
AcDbEntity
8
0-0
6
CONTINUOUS
62
7
100
AcDbCircle
10
265.869615242271
20
69.709357069677
30
0.0
40
0.300000000000
100
AcDbArc
50
270.000000000000
51
300.000000000000
0
LINE
5
63a
100
AcDbEntity
8
0-0
6
CONTINUOUS
62
7
100
AcDbLine
10
258.980384757729
20
69.449549448542
30
0.0
11
258.253589838486
21
69.869164690812
31
0.0
0
LINE
5
63b
100
AcDbEntity
8
0-0
6
CONTINUOUS
62
7
100
AcDbLine
10
265.869615242271
20
69.409357069677
30
0.0
11
259.130384757729
21
69.409357069677
31
0.0
0
ARC
5
63c
100
AcDbEntity
8
0-0
6
CONTINUOUS
62
7
100
AcDbCircle
10
259.130384757729
20
69.709357069677
30
0.0
40
0.300000000000
100
AcDbArc
50
240.000000000000
51
270.000000000000
0
ARC
5
63d
100
AcDbEntity
8
0-0
6
CONTINUOUS
62
7
100
AcDbCircle
10
266.896410161514
20
69.609357069677
30
0.0
40
0.300000000000
100
AcDbArc
50
90.000000000000
51
120.000000000000
0
LINE
5
63e
100
AcDbEntity
8
0-0
6
CONTINUOUS
62
7
100
AcDbLine
10
266.896410161514
20
69.909357069677
30
0.0
11
274.000000000000
21
69.909357069677
31
0.0
0
ARC
5
63f
100
AcDbEntity
8
0-0
6
CONTINUOUS
62
7
100
AcDbCircle
10
258.103589838486
20
69.609357069677
30
0.0
40
0.300000000000
100
AcDbArc
50
60.000000000000
51
90.000000000000
0
LINE
5
640
100
AcDbEntity
8
0-0
6
CONTINUOUS
62
7
100
AcDbLine
10
251.000000000000
20
69.909357069677
30
0.0
11
258.103589838486
21
69.909357069677
31
0.0
0
LINE
5
641
100
AcDbEntity
8
0-0
6
CONTINUOUS
62
7
100
AcDbLine
10
16.400000000000
20
-0.000000000000
30
0.0
11
24.000000000000
21
-0.000000000000
31
0.0
0
LINE
5
642
100
AcDbEntity
8
0-0
6
CONTINUOUS
62
7
100
AcDbLine
10
25.000000000000
20
1.000000000000
30
0.0
11
25.000000000000
21
8.600000000000
31
0.0
0
LINE
5
643
100
AcDbEntity
8
0-0
6
CONTINUOUS
62
7
100
AcDbLine
10
24.700000000000
20
8.900000000000
30
0.0
11
23.500000000000
21
8.900000000000
31
0.0
0
LINE
5
644
100
AcDbEntity
8
0-0
6
CONTINUOUS
62
7
100
AcDbLine
10
23.200000000000
20
8.600000000000
30
0.0
11
23.200000000000
21
6.800000000000
31
0.0
0
LINE
5
645
100
AcDbEntity
8
0-0
6
CONTINUOUS
62
7
100
AcDbLine
10
22.900000000000
20
6.500000000000
30
0.0
11
20.124264068712
21
6.500000000000
31
0.0
0
LINE
5
646
100
AcDbEntity
8
0-0
6
CONTINUOUS
62
7
100
AcDbLine
10
19.912132034356
20
6.587867965644
30
0.0
11
18.887867965644
21
7.612132034356
31
0.0
0
LINE
5
647
100
AcDbEntity
8
0-0
6
CONTINUOUS
62
7
100
AcDbLine
10
18.800000000000
20
7.824264068712
30
0.0
11
18.800000000000
21
17.175735931288
31
0.0
0
LINE
5
648
100
AcDbEntity
8
0-0
6
CONTINUOUS
62
7
100
AcDbLine
10
18.887867965644
20
17.387867965644
30
0.0
11
19.912132034356
21
18.412132034356
31
0.0
0
LINE
5
649
100
AcDbEntity
8
0-0
6
CONTINUOUS
62
7
100
AcDbLine
10
20.124264068712
20
18.500000000000
30
0.0
11
22.900000000000
21
18.500000000000
31
0.0
0
LINE
5
64a
100
AcDbEntity
8
0-0
6
CONTINUOUS
62
7
100
AcDbLine
10
23.200000000000
20
18.200000000000
30
0.0
11
23.200000000000
21
16.400000000000
31
0.0
0
LINE
5
64b
100
AcDbEntity
8
0-0
6
CONTINUOUS
62
7
100
AcDbLine
10
23.500000000000
20
16.100000000000
30
0.0
11
24.700000000000
21
16.100000000000
31
0.0
0
LINE
5
64c
100
AcDbEntity
8
0-0
6
CONTINUOUS
62
7
100
AcDbLine
10
25.000000000000
20
16.400000000000
30
0.0
11
25.000000000000
21
24.000000000000
31
0.0
0
LINE
5
64d
100
AcDbEntity
8
0-0
6
CONTINUOUS
62
7
100
AcDbLine
10
24.000000000000
20
25.000000000000
30
0.0
11
16.400000000000
21
25.000000000000
31
0.0
0
LINE
5
64e
100
AcDbEntity
8
0-0
6
CONTINUOUS
62
7
100
AcDbLine
10
16.100000000000
20
24.700000000000
30
0.0
11
16.100000000000
21
23.500000000000
31
0.0
0
LINE
5
64f
100
AcDbEntity
8
0-0
6
CONTINUOUS
62
7
100
AcDbLine
10
16.400000000000
20
23.200000000000
30
0.0
11
18.200000000000
21
23.200000000000
31
0.0
0
LINE
5
650
100
AcDbEntity
8
0-0
6
CONTINUOUS
62
7
100
AcDbLine
10
18.500000000000
20
22.900000000000
30
0.0
11
18.500000000000
21
20.124264068712
31
0.0
0
LINE
5
651
100
AcDbEntity
8
0-0
6
CONTINUOUS
62
7
100
AcDbLine
10
18.412132034356
20
19.912132034356
30
0.0
11
17.387867965644
21
18.887867965644
31
0.0
0
POLYLINE
5
652
100
AcDbEntity
8
0-0
6
CONTINUOUS
62
  7
100
AcDb2dPolyline
66
1
10
0.0
20
0.0
30
0.0
70
0
0
VERTEX
5
653
100
AcDbEntity
8
0-0
6
CONTINUOUS
62
  7
100
AcDbVertex
100
AcDb2dVertex
10
17.175735931288
20
18.800000000000
30
0.0
0
VERTEX
5
654
100
AcDbEntity
8
0-0
6
CONTINUOUS
62
  7
100
AcDbVertex
100
AcDb2dVertex
10
12.700000000000
20
18.800000000000
30
0.0
0
VERTEX
5
655
100
AcDbEntity
8
0-0
6
CONTINUOUS
62
  7
100
AcDbVertex
100
AcDb2dVertex
10
12.500000000000
20
18.600000000000
30
0.0
0
VERTEX
5
656
100
AcDbEntity
8
0-0
6
CONTINUOUS
62
  7
100
AcDbVertex
100
AcDb2dVertex
10
12.300000000000
20
18.800000000000
30
0.0
0
VERTEX
5
657
100
AcDbEntity
8
0-0
6
CONTINUOUS
62
  7
100
AcDbVertex
100
AcDb2dVertex
10
7.824264068712
20
18.800000000000
30
0.0
0
SEQEND
5
658
100
AcDbEntity
8
0-0
0
LINE
5
659
100
AcDbEntity
8
0-0
6
CONTINUOUS
62
7
100
AcDbLine
10
7.612132034356
20
18.887867965644
30
0.0
11
6.587867965644
21
19.912132034356
31
0.0
0
LINE
5
65a
100
AcDbEntity
8
0-0
6
CONTINUOUS
62
7
100
AcDbLine
10
6.500000000000
20
20.124264068712
30
0.0
11
6.500000000000
21
22.900000000000
31
0.0
0
LINE
5
65b
100
AcDbEntity
8
0-0
6
CONTINUOUS
62
7
100
AcDbLine
10
6.800000000000
20
23.200000000000
30
0.0
11
8.600000000000
21
23.200000000000
31
0.0
0
LINE
5
65c
100
AcDbEntity
8
0-0
6
CONTINUOUS
62
7
100
AcDbLine
10
8.900000000000
20
23.500000000000
30
0.0
11
8.900000000000
21
24.700000000000
31
0.0
0
LINE
5
65d
100
AcDbEntity
8
0-0
6
CONTINUOUS
62
7
100
AcDbLine
10
8.600000000000
20
25.000000000000
30
0.0
11
1.000000000000
21
25.000000000000
31
0.0
0
LINE
5
65e
100
AcDbEntity
8
0-0
6
CONTINUOUS
62
7
100
AcDbLine
10
-0.000000000000
20
24.000000000000
30
0.0
11
-0.000000000000
21
16.400000000000
31
0.0
0
LINE
5
65f
100
AcDbEntity
8
0-0
6
CONTINUOUS
62
7
100
AcDbLine
10
0.300000000000
20
16.100000000000
30
0.0
11
1.500000000000
21
16.100000000000
31
0.0
0
LINE
5
660
100
AcDbEntity
8
0-0
6
CONTINUOUS
62
7
100
AcDbLine
10
1.800000000000
20
16.400000000000
30
0.0
11
1.800000000000
21
18.200000000000
31
0.0
0
LINE
5
661
100
AcDbEntity
8
0-0
6
CONTINUOUS
62
7
100
AcDbLine
10
2.100000000000
20
18.500000000000
30
0.0
11
4.875735931288
21
18.500000000000
31
0.0
0
LINE
5
662
100
AcDbEntity
8
0-0
6
CONTINUOUS
62
7
100
AcDbLine
10
5.087867965644
20
18.412132034356
30
0.0
11
6.112132034356
21
17.387867965644
31
0.0
0
LINE
5
663
100
AcDbEntity
8
0-0
6
CONTINUOUS
62
7
100
AcDbLine
10
6.200000000000
20
17.175735931288
30
0.0
11
6.200000000000
21
7.824264068712
31
0.0
0
LINE
5
664
100
AcDbEntity
8
0-0
6
CONTINUOUS
62
7
100
AcDbLine
10
6.112132034356
20
7.612132034356
30
0.0
11
5.087867965644
21
6.587867965644
31
0.0
0
LINE
5
665
100
AcDbEntity
8
0-0
6
CONTINUOUS
62
7
100
AcDbLine
10
4.875735931288
20
6.500000000000
30
0.0
11
2.100000000000
21
6.500000000000
31
0.0
0
LINE
5
666
100
AcDbEntity
8
0-0
6
CONTINUOUS
62
7
100
AcDbLine
10
1.800000000000
20
6.800000000000
30
0.0
11
1.800000000000
21
8.600000000000
31
0.0
0
LINE
5
667
100
AcDbEntity
8
0-0
6
CONTINUOUS
62
7
100
AcDbLine
10
1.500000000000
20
8.900000000000
30
0.0
11
0.300000000000
21
8.900000000000
31
0.0
0
LINE
5
668
100
AcDbEntity
8
0-0
6
CONTINUOUS
62
7
100
AcDbLine
10
-0.000000000000
20
8.600000000000
30
0.0
11
-0.000000000000
21
1.000000000000
31
0.0
0
LINE
5
669
100
AcDbEntity
8
0-0
6
CONTINUOUS
62
7
100
AcDbLine
10
1.000000000000
20
-0.000000000000
30
0.0
11
8.600000000000
21
-0.000000000000
31
0.0
0
LINE
5
66a
100
AcDbEntity
8
0-0
6
CONTINUOUS
62
7
100
AcDbLine
10
8.900000000000
20
0.300000000000
30
0.0
11
8.900000000000
21
1.500000000000
31
0.0
0
LINE
5
66b
100
AcDbEntity
8
0-0
6
CONTINUOUS
62
7
100
AcDbLine
10
8.600000000000
20
1.800000000000
30
0.0
11
6.800000000000
21
1.800000000000
31
0.0
0
LINE
5
66c
100
AcDbEntity
8
0-0
6
CONTINUOUS
62
7
100
AcDbLine
10
6.500000000000
20
2.100000000000
30
0.0
11
6.500000000000
21
4.875735931288
31
0.0
0
LINE
5
66d
100
AcDbEntity
8
0-0
6
CONTINUOUS
62
7
100
AcDbLine
10
6.587867965644
20
5.087867965644
30
0.0
11
7.612132034356
21
6.112132034356
31
0.0
0
POLYLINE
5
66e
100
AcDbEntity
8
0-0
6
CONTINUOUS
62
  7
100
AcDb2dPolyline
66
1
10
0.0
20
0.0
30
0.0
70
0
0
VERTEX
5
66f
100
AcDbEntity
8
0-0
6
CONTINUOUS
62
  7
100
AcDbVertex
100
AcDb2dVertex
10
7.824264068712
20
6.200000000000
30
0.0
0
VERTEX
5
670
100
AcDbEntity
8
0-0
6
CONTINUOUS
62
  7
100
AcDbVertex
100
AcDb2dVertex
10
12.300000000000
20
6.200000000000
30
0.0
0
VERTEX
5
671
100
AcDbEntity
8
0-0
6
CONTINUOUS
62
  7
100
AcDbVertex
100
AcDb2dVertex
10
12.500000000000
20
6.400000000000
30
0.0
0
VERTEX
5
672
100
AcDbEntity
8
0-0
6
CONTINUOUS
62
  7
100
AcDbVertex
100
AcDb2dVertex
10
12.700000000000
20
6.200000000000
30
0.0
0
VERTEX
5
673
100
AcDbEntity
8
0-0
6
CONTINUOUS
62
  7
100
AcDbVertex
100
AcDb2dVertex
10
17.175735931288
20
6.200000000000
30
0.0
0
SEQEND
5
674
100
AcDbEntity
8
0-0
0
LINE
5
675
100
AcDbEntity
8
0-0
6
CONTINUOUS
62
7
100
AcDbLine
10
17.387867965644
20
6.112132034356
30
0.0
11
18.412132034356
21
5.087867965644
31
0.0
0
LINE
5
676
100
AcDbEntity
8
0-0
6
CONTINUOUS
62
7
100
AcDbLine
10
18.500000000000
20
4.875735931288
30
0.0
11
18.500000000000
21
2.100000000000
31
0.0
0
LINE
5
677
100
AcDbEntity
8
0-0
6
CONTINUOUS
62
7
100
AcDbLine
10
18.200000000000
20
1.800000000000
30
0.0
11
16.400000000000
21
1.800000000000
31
0.0
0
LINE
5
678
100
AcDbEntity
8
0-0
6
CONTINUOUS
62
7
100
AcDbLine
10
16.100000000000
20
1.500000000000
30
0.0
11
16.100000000000
21
0.300000000000
31
0.0
0
LINE
5
679
100
AcDbEntity
8
0-0
6
CONTINUOUS
62
7
100
AcDbLine
10
15.632121885040
20
7.700000000000
30
0.0
11
17.100000000000
21
7.700000000000
31
0.0
0
LINE
5
67a
100
AcDbEntity
8
0-0
6
CONTINUOUS
62
7
100
AcDbLine
10
17.400000000000
20
8.000000000000
30
0.0
11
17.400000000000
21
17.000000000000
31
0.0
0
LINE
5
67b
100
AcDbEntity
8
0-0
6
CONTINUOUS
62
7
100
AcDbLine
10
17.100000000000
20
17.300000000000
30
0.0
11
15.632121885040
21
17.300000000000
31
0.0
0
LINE
5
67c
100
AcDbEntity
8
0-0
6
CONTINUOUS
62
7
100
AcDbLine
10
15.342344137153
20
17.077645713531
30
0.0
11
15.059579651493
21
16.022354286469
31
0.0
0
LINE
5
67d
100
AcDbEntity
8
0-0
6
CONTINUOUS
62
7
100
AcDbLine
10
14.769801903606
20
15.800000000000
30
0.0
11
10.230198096393
21
15.800000000000
31
0.0
0
LINE
5
67e
100
AcDbEntity
8
0-0
6
CONTINUOUS
62
7
100
AcDbLine
10
9.940420348507
20
16.022354286469
30
0.0
11
9.657655862846
21
17.077645713531
31
0.0
0
LINE
5
67f
100
AcDbEntity
8
0-0
6
CONTINUOUS
62
7
100
AcDbLine
10
9.367878114959
20
17.300000000000
30
0.0
11
7.900000000000
21
17.300000000000
31
0.0
0
LINE
5
680
100
AcDbEntity
8
0-0
6
CONTINUOUS
62
7
100
AcDbLine
10
7.600000000000
20
17.000000000000
30
0.0
11
7.600000000000
21
8.000000000000
31
0.0
0
LINE
5
681
100
AcDbEntity
8
0-0
6
CONTINUOUS
62
7
100
AcDbLine
10
7.900000000000
20
7.700000000000
30
0.0
11
9.367878114959
21
7.700000000000
31
0.0
0
LINE
5
682
100
AcDbEntity
8
0-0
6
CONTINUOUS
62
7
100
AcDbLine
10
9.657655862846
20
7.922354286469
30
0.0
11
9.940420348507
21
8.977645713531
31
0.0
0
LINE
5
683
100
AcDbEntity
8
0-0
6
CONTINUOUS
62
7
100
AcDbLine
10
10.230198096393
20
9.200000000000
30
0.0
11
14.769801903606
21
9.200000000000
31
0.0
0
LINE
5
684
100
AcDbEntity
8
0-0
6
CONTINUOUS
62
7
100
AcDbLine
10
15.059579651493
20
8.977645713531
30
0.0
11
15.342344137153
21
7.922354286469
31
0.0
0
ARC
5
685
100
AcDbEntity
8
0-0
6
CONTINUOUS
62
7
100
AcDbCircle
10
1.000000000000
20
24.000000000000
30
0.0
40
1.000000000000
100
AcDbArc
50
90.000000000000
51
180.000000000000
0
ARC
5
686
100
AcDbEntity
8
0-0
6
CONTINUOUS
62
7
100
AcDbCircle
10
24.000000000000
20
24.000000000000
30
0.0
40
1.000000000000
100
AcDbArc
50
0.000000000000
51
90.000000000000
0
ARC
5
687
100
AcDbEntity
8
0-0
6
CONTINUOUS
62
7
100
AcDbCircle
10
24.000000000000
20
1.000000000000
30
0.0
40
1.000000000000
100
AcDbArc
50
270.000000000000
51
360.000000000000
0
ARC
5
688
100
AcDbEntity
8
0-0
6
CONTINUOUS
62
7
100
AcDbCircle
10
1.000000000000
20
1.000000000000
30
0.0
40
1.000000000000
100
AcDbArc
50
180.000000000000
51
270.000000000000
0
ARC
5
689
100
AcDbEntity
8
0-0
6
CONTINUOUS
62
7
100
AcDbCircle
10
8.600000000000
20
24.700000000000
30
0.0
40
0.300000000000
100
AcDbArc
50
0.000000000000
51
90.000000000000
0
ARC
5
68a
100
AcDbEntity
8
0-0
6
CONTINUOUS
62
7
100
AcDbCircle
10
16.400000000000
20
24.700000000000
30
0.0
40
0.300000000000
100
AcDbArc
50
90.000000000000
51
180.000000000000
0
ARC
5
68b
100
AcDbEntity
8
0-0
6
CONTINUOUS
62
7
100
AcDbCircle
10
0.300000000000
20
16.400000000000
30
0.0
40
0.300000000000
100
AcDbArc
50
180.000000000000
51
270.000000000000
0
ARC
5
68c
100
AcDbEntity
8
0-0
6
CONTINUOUS
62
7
100
AcDbCircle
10
0.300000000000
20
8.600000000000
30
0.0
40
0.300000000000
100
AcDbArc
50
90.000000000000
51
180.000000000000
0
ARC
5
68d
100
AcDbEntity
8
0-0
6
CONTINUOUS
62
7
100
AcDbCircle
10
24.700000000000
20
16.400000000000
30
0.0
40
0.300000000000
100
AcDbArc
50
270.000000000000
51
360.000000000000
0
ARC
5
68e
100
AcDbEntity
8
0-0
6
CONTINUOUS
62
7
100
AcDbCircle
10
24.700000000000
20
8.600000000000
30
0.0
40
0.300000000000
100
AcDbArc
50
0.000000000000
51
90.000000000000
0
ARC
5
68f
100
AcDbEntity
8
0-0
6
CONTINUOUS
62
7
100
AcDbCircle
10
16.400000000000
20
0.300000000000
30
0.0
40
0.300000000000
100
AcDbArc
50
180.000000000000
51
270.000000000000
0
ARC
5
690
100
AcDbEntity
8
0-0
6
CONTINUOUS
62
7
100
AcDbCircle
10
8.600000000000
20
0.300000000000
30
0.0
40
0.300000000000
100
AcDbArc
50
270.000000000000
51
360.000000000000
0
ARC
5
691
100
AcDbEntity
8
0-0
6
CONTINUOUS
62
7
100
AcDbCircle
10
7.900000000000
20
17.000000000000
30
0.0
40
0.300000000000
100
AcDbArc
50
90.000000000000
51
180.000000000000
0
ARC
5
692
100
AcDbEntity
8
0-0
6
CONTINUOUS
62
7
100
AcDbCircle
10
9.367878114959
20
17.000000000000
30
0.0
40
0.300000000000
100
AcDbArc
50
15.000000000000
51
90.000000000000
0
ARC
5
693
100
AcDbEntity
8
0-0
6
CONTINUOUS
62
7
100
AcDbCircle
10
10.230198096393
20
16.100000000000
30
0.0
40
0.300000000000
100
AcDbArc
50
195.000000000000
51
270.000000000000
0
ARC
5
694
100
AcDbEntity
8
0-0
6
CONTINUOUS
62
7
100
AcDbCircle
10
14.769801903606
20
16.100000000000
30
0.0
40
0.300000000000
100
AcDbArc
50
270.000000000000
51
345.000000000000
0
ARC
5
695
100
AcDbEntity
8
0-0
6
CONTINUOUS
62
7
100
AcDbCircle
10
15.632121885040
20
17.000000000000
30
0.0
40
0.300000000000
100
AcDbArc
50
90.000000000000
51
165.000000000000
0
ARC
5
696
100
AcDbEntity
8
0-0
6
CONTINUOUS
62
7
100
AcDbCircle
10
17.100000000000
20
17.000000000000
30
0.0
40
0.300000000000
100
AcDbArc
50
0.000000000000
51
90.000000000000
0
ARC
5
697
100
AcDbEntity
8
0-0
6
CONTINUOUS
62
7
100
AcDbCircle
10
17.100000000000
20
8.000000000000
30
0.0
40
0.300000000000
100
AcDbArc
50
270.000000000000
51
360.000000000000
0
ARC
5
698
100
AcDbEntity
8
0-0
6
CONTINUOUS
62
7
100
AcDbCircle
10
15.632121885040
20
8.000000000000
30
0.0
40
0.300000000000
100
AcDbArc
50
195.000000000000
51
270.000000000000
0
ARC
5
699
100
AcDbEntity
8
0-0
6
CONTINUOUS
62
7
100
AcDbCircle
10
14.769801903606
20
8.900000000000
30
0.0
40
0.300000000000
100
AcDbArc
50
15.000000000000
51
90.000000000000
0
ARC
5
69a
100
AcDbEntity
8
0-0
6
CONTINUOUS
62
7
100
AcDbCircle
10
10.230198096393
20
8.900000000000
30
0.0
40
0.300000000000
100
AcDbArc
50
90.000000000000
51
165.000000000000
0
ARC
5
69b
100
AcDbEntity
8
0-0
6
CONTINUOUS
62
7
100
AcDbCircle
10
9.367878114959
20
8.000000000000
30
0.0
40
0.300000000000
100
AcDbArc
50
270.000000000000
51
345.000000000000
0
ARC
5
69c
100
AcDbEntity
8
0-0
6
CONTINUOUS
62
7
100
AcDbCircle
10
7.900000000000
20
8.000000000000
30
0.0
40
0.300000000000
100
AcDbArc
50
180.000000000000
51
270.000000000000
0
ARC
5
69d
100
AcDbEntity
8
0-0
6
CONTINUOUS
62
7
100
AcDbCircle
10
16.400000000000
20
1.500000000000
30
0.0
40
0.300000000000
100
AcDbArc
50
90.000000000000
51
180.000000000000
0
ARC
5
69e
100
AcDbEntity
8
0-0
6
CONTINUOUS
62
7
100
AcDbCircle
10
18.200000000000
20
2.100000000000
30
0.0
40
0.300000000000
100
AcDbArc
50
270.000000000000
51
360.000000000000
0
ARC
5
69f
100
AcDbEntity
8
0-0
6
CONTINUOUS
62
7
100
AcDbCircle
10
18.200000000000
20
4.875735931288
30
0.0
40
0.300000000000
100
AcDbArc
50
0.000000000000
51
45.000000000000
0
ARC
5
6a0
100
AcDbEntity
8
0-0
6
CONTINUOUS
62
7
100
AcDbCircle
10
17.175735931288
20
5.900000000000
30
0.0
40
0.300000000000
100
AcDbArc
50
45.000000000000
51
90.000000000000
0
ARC
5
6a1
100
AcDbEntity
8
0-0
6
CONTINUOUS
62
7
100
AcDbCircle
10
6.800000000000
20
4.875735931288
30
0.0
40
0.300000000000
100
AcDbArc
50
135.000000000000
51
180.000000000000
0
ARC
5
6a2
100
AcDbEntity
8
0-0
6
CONTINUOUS
62
7
100
AcDbCircle
10
6.800000000000
20
2.100000000000
30
0.0
40
0.300000000000
100
AcDbArc
50
180.000000000000
51
270.000000000000
0
ARC
5
6a3
100
AcDbEntity
8
0-0
6
CONTINUOUS
62
7
100
AcDbCircle
10
8.600000000000
20
1.500000000000
30
0.0
40
0.300000000000
100
AcDbArc
50
0.000000000000
51
90.000000000000
0
ARC
5
6a4
100
AcDbEntity
8
0-0
6
CONTINUOUS
62
7
100
AcDbCircle
10
7.824264068712
20
5.900000000000
30
0.0
40
0.300000000000
100
AcDbArc
50
90.000000000000
51
135.000000000000
0
ARC
5
6a5
100
AcDbEntity
8
0-0
6
CONTINUOUS
62
7
100
AcDbCircle
10
23.500000000000
20
16.400000000000
30
0.0
40
0.300000000000
100
AcDbArc
50
180.000000000000
51
270.000000000000
0
ARC
5
6a6
100
AcDbEntity
8
0-0
6
CONTINUOUS
62
7
100
AcDbCircle
10
22.900000000000
20
18.200000000000
30
0.0
40
0.300000000000
100
AcDbArc
50
0.000000000000
51
90.000000000000
0
ARC
5
6a7
100
AcDbEntity
8
0-0
6
CONTINUOUS
62
7
100
AcDbCircle
10
20.124264068712
20
18.200000000000
30
0.0
40
0.300000000000
100
AcDbArc
50
90.000000000000
51
135.000000000000
0
ARC
5
6a8
100
AcDbEntity
8
0-0
6
CONTINUOUS
62
7
100
AcDbCircle
10
19.100000000000
20
17.175735931288
30
0.0
40
0.300000000000
100
AcDbArc
50
135.000000000000
51
180.000000000000
0
ARC
5
6a9
100
AcDbEntity
8
0-0
6
CONTINUOUS
62
7
100
AcDbCircle
10
20.124264068712
20
6.800000000000
30
0.0
40
0.300000000000
100
AcDbArc
50
225.000000000000
51
270.000000000000
0
ARC
5
6aa
100
AcDbEntity
8
0-0
6
CONTINUOUS
62
7
100
AcDbCircle
10
22.900000000000
20
6.800000000000
30
0.0
40
0.300000000000
100
AcDbArc
50
270.000000000000
51
360.000000000000
0
ARC
5
6ab
100
AcDbEntity
8
0-0
6
CONTINUOUS
62
7
100
AcDbCircle
10
23.500000000000
20
8.600000000000
30
0.0
40
0.300000000000
100
AcDbArc
50
90.000000000000
51
180.000000000000
0
ARC
5
6ac
100
AcDbEntity
8
0-0
6
CONTINUOUS
62
7
100
AcDbCircle
10
19.100000000000
20
7.824264068712
30
0.0
40
0.300000000000
100
AcDbArc
50
180.000000000000
51
225.000000000000
0
ARC
5
6ad
100
AcDbEntity
8
0-0
6
CONTINUOUS
62
7
100
AcDbCircle
10
8.600000000000
20
23.500000000000
30
0.0
40
0.300000000000
100
AcDbArc
50
270.000000000000
51
360.000000000000
0
ARC
5
6ae
100
AcDbEntity
8
0-0
6
CONTINUOUS
62
7
100
AcDbCircle
10
6.800000000000
20
22.900000000000
30
0.0
40
0.300000000000
100
AcDbArc
50
90.000000000000
51
180.000000000000
0
ARC
5
6af
100
AcDbEntity
8
0-0
6
CONTINUOUS
62
7
100
AcDbCircle
10
6.800000000000
20
20.124264068712
30
0.0
40
0.300000000000
100
AcDbArc
50
180.000000000000
51
225.000000000000
0
ARC
5
6b0
100
AcDbEntity
8
0-0
6
CONTINUOUS
62
7
100
AcDbCircle
10
7.824264068712
20
19.100000000000
30
0.0
40
0.300000000000
100
AcDbArc
50
225.000000000000
51
270.000000000000
0
ARC
5
6b1
100
AcDbEntity
8
0-0
6
CONTINUOUS
62
7
100
AcDbCircle
10
18.200000000000
20
20.124264068712
30
0.0
40
0.300000000000
100
AcDbArc
50
315.000000000000
51
360.000000000000
0
ARC
5
6b2
100
AcDbEntity
8
0-0
6
CONTINUOUS
62
7
100
AcDbCircle
10
18.200000000000
20
22.900000000000
30
0.0
40
0.300000000000
100
AcDbArc
50
0.000000000000
51
90.000000000000
0
ARC
5
6b3
100
AcDbEntity
8
0-0
6
CONTINUOUS
62
7
100
AcDbCircle
10
16.400000000000
20
23.500000000000
30
0.0
40
0.300000000000
100
AcDbArc
50
180.000000000000
51
270.000000000000
0
ARC
5
6b4
100
AcDbEntity
8
0-0
6
CONTINUOUS
62
7
100
AcDbCircle
10
17.175735931288
20
19.100000000000
30
0.0
40
0.300000000000
100
AcDbArc
50
270.000000000000
51
315.000000000000
0
ARC
5
6b5
100
AcDbEntity
8
0-0
6
CONTINUOUS
62
7
100
AcDbCircle
10
1.500000000000
20
8.600000000000
30
0.0
40
0.300000000000
100
AcDbArc
50
0.000000000000
51
90.000000000000
0
ARC
5
6b6
100
AcDbEntity
8
0-0
6
CONTINUOUS
62
7
100
AcDbCircle
10
2.100000000000
20
6.800000000000
30
0.0
40
0.300000000000
100
AcDbArc
50
180.000000000000
51
270.000000000000
0
ARC
5
6b7
100
AcDbEntity
8
0-0
6
CONTINUOUS
62
7
100
AcDbCircle
10
4.875735931288
20
6.800000000000
30
0.0
40
0.300000000000
100
AcDbArc
50
270.000000000000
51
315.000000000000
0
ARC
5
6b8
100
AcDbEntity
8
0-0
6
CONTINUOUS
62
7
100
AcDbCircle
10
5.900000000000
20
7.824264068712
30
0.0
40
0.300000000000
100
AcDbArc
50
315.000000000000
51
360.000000000000
0
ARC
5
6b9
100
AcDbEntity
8
0-0
6
CONTINUOUS
62
7
100
AcDbCircle
10
4.875735931288
20
18.200000000000
30
0.0
40
0.300000000000
100
AcDbArc
50
45.000000000000
51
90.000000000000
0
ARC
5
6ba
100
AcDbEntity
8
0-0
6
CONTINUOUS
62
7
100
AcDbCircle
10
2.100000000000
20
18.200000000000
30
0.0
40
0.300000000000
100
AcDbArc
50
90.000000000000
51
180.000000000000
0
ARC
5
6bb
100
AcDbEntity
8
0-0
6
CONTINUOUS
62
7
100
AcDbCircle
10
1.500000000000
20
16.400000000000
30
0.0
40
0.300000000000
100
AcDbArc
50
270.000000000000
51
360.000000000000
0
ARC
5
6bc
100
AcDbEntity
8
0-0
6
CONTINUOUS
62
7
100
AcDbCircle
10
5.900000000000
20
17.175735931288
30
0.0
40
0.300000000000
100
AcDbArc
50
0.000000000000
51
45.000000000000
0
CIRCLE
5
6bd
100
AcDbEntity
8
0-0
6
CONTINUOUS
62
7
100
AcDbCircle
10
3.250000000000
20
21.750000000000
30
0.0
40
2.100000000000
0
CIRCLE
5
6be
100
AcDbEntity
8
0-0
6
CONTINUOUS
62
7
100
AcDbCircle
10
21.750000000000
20
21.750000000000
30
0.0
40
2.100000000000
0
CIRCLE
5
6bf
100
AcDbEntity
8
0-0
6
CONTINUOUS
62
7
100
AcDbCircle
10
21.750000000000
20
3.250000000000
30
0.0
40
2.100000000000
0
CIRCLE
5
6c0
100
AcDbEntity
8
0-0
6
CONTINUOUS
62
7
100
AcDbCircle
10
3.250000000000
20
3.250000000000
30
0.0
40
2.100000000000
0
LINE
5
6c1
100
AcDbEntity
8
0-1
6
CENTER2
62
4
100
AcDbLine
10
12.500000000000
20
25.000000000000
30
0.0
11
12.500000000000
21
-0.000000000000
31
0.0
0
LINE
5
6c2
100
AcDbEntity
8
0-1
6
CENTER2
62
4
100
AcDbLine
10
25.000000000000
20
12.500000000000
30
0.0
11
-0.000000000000
21
12.500000000000
31
0.0
0
LINE
5
6c3
100
AcDbEntity
8
0-0
6
CONTINUOUS
62
7
100
AcDbLine
10
90.000000000000
20
1.000000000000
30
0.0
11
90.000000000000
21
8.600000000000
31
0.0
0
LINE
5
6c4
100
AcDbEntity
8
0-0
6
CONTINUOUS
62
7
100
AcDbLine
10
89.700000000000
20
8.900000000000
30
0.0
11
88.500000000000
21
8.900000000000
31
0.0
0
LINE
5
6c5
100
AcDbEntity
8
0-0
6
CONTINUOUS
62
7
100
AcDbLine
10
88.200000000000
20
8.600000000000
30
0.0
11
88.200000000000
21
6.800000000000
31
0.0
0
LINE
5
6c6
100
AcDbEntity
8
0-0
6
CONTINUOUS
62
7
100
AcDbLine
10
87.900000000000
20
6.500000000000
30
0.0
11
85.124264068712
21
6.500000000000
31
0.0
0
LINE
5
6c7
100
AcDbEntity
8
0-0
6
CONTINUOUS
62
7
100
AcDbLine
10
84.912132034356
20
6.587867965644
30
0.0
11
83.887867965644
21
7.612132034356
31
0.0
0
LINE
5
6c8
100
AcDbEntity
8
0-0
6
CONTINUOUS
62
7
100
AcDbLine
10
83.800000000000
20
7.824264068712
30
0.0
11
83.800000000000
21
17.175735931288
31
0.0
0
LINE
5
6c9
100
AcDbEntity
8
0-0
6
CONTINUOUS
62
7
100
AcDbLine
10
83.887867965644
20
17.387867965644
30
0.0
11
84.912132034356
21
18.412132034356
31
0.0
0
LINE
5
6ca
100
AcDbEntity
8
0-0
6
CONTINUOUS
62
7
100
AcDbLine
10
85.124264068712
20
18.500000000000
30
0.0
11
87.900000000000
21
18.500000000000
31
0.0
0
LINE
5
6cb
100
AcDbEntity
8
0-0
6
CONTINUOUS
62
7
100
AcDbLine
10
88.200000000000
20
18.200000000000
30
0.0
11
88.200000000000
21
16.400000000000
31
0.0
0
LINE
5
6cc
100
AcDbEntity
8
0-0
6
CONTINUOUS
62
7
100
AcDbLine
10
88.500000000000
20
16.100000000000
30
0.0
11
89.700000000000
21
16.100000000000
31
0.0
0
LINE
5
6cd
100
AcDbEntity
8
0-0
6
CONTINUOUS
62
7
100
AcDbLine
10
90.000000000000
20
16.400000000000
30
0.0
11
90.000000000000
21
24.000000000000
31
0.0
0
LINE
5
6ce
100
AcDbEntity
8
0-0
6
CONTINUOUS
62
7
100
AcDbLine
10
89.000000000000
20
25.000000000000
30
0.0
11
81.400000000000
21
25.000000000000
31
0.0
0
LINE
5
6cf
100
AcDbEntity
8
0-0
6
CONTINUOUS
62
7
100
AcDbLine
10
81.100000000000
20
24.700000000000
30
0.0
11
81.100000000000
21
23.500000000000
31
0.0
0
LINE
5
6d0
100
AcDbEntity
8
0-0
6
CONTINUOUS
62
7
100
AcDbLine
10
81.400000000000
20
23.200000000000
30
0.0
11
83.200000000000
21
23.200000000000
31
0.0
0
LINE
5
6d1
100
AcDbEntity
8
0-0
6
CONTINUOUS
62
7
100
AcDbLine
10
83.500000000000
20
22.900000000000
30
0.0
11
83.500000000000
21
20.124264068712
31
0.0
0
LINE
5
6d2
100
AcDbEntity
8
0-0
6
CONTINUOUS
62
7
100
AcDbLine
10
83.412132034356
20
19.912132034356
30
0.0
11
82.387867965644
21
18.887867965644
31
0.0
0
POLYLINE
5
6d3
100
AcDbEntity
8
0-0
6
CONTINUOUS
62
  7
100
AcDb2dPolyline
66
1
10
0.0
20
0.0
30
0.0
70
0
0
VERTEX
5
6d4
100
AcDbEntity
8
0-0
6
CONTINUOUS
62
  7
100
AcDbVertex
100
AcDb2dVertex
10
82.175735931288
20
18.800000000000
30
0.0
0
VERTEX
5
6d5
100
AcDbEntity
8
0-0
6
CONTINUOUS
62
  7
100
AcDbVertex
100
AcDb2dVertex
10
77.700000000000
20
18.800000000000
30
0.0
0
VERTEX
5
6d6
100
AcDbEntity
8
0-0
6
CONTINUOUS
62
  7
100
AcDbVertex
100
AcDb2dVertex
10
77.500000000000
20
18.600000000000
30
0.0
0
VERTEX
5
6d7
100
AcDbEntity
8
0-0
6
CONTINUOUS
62
  7
100
AcDbVertex
100
AcDb2dVertex
10
77.300000000000
20
18.800000000000
30
0.0
0
VERTEX
5
6d8
100
AcDbEntity
8
0-0
6
CONTINUOUS
62
  7
100
AcDbVertex
100
AcDb2dVertex
10
72.824264068712
20
18.800000000000
30
0.0
0
SEQEND
5
6d9
100
AcDbEntity
8
0-0
0
LINE
5
6da
100
AcDbEntity
8
0-0
6
CONTINUOUS
62
7
100
AcDbLine
10
72.612132034356
20
18.887867965644
30
0.0
11
71.287867965644
21
20.212132034356
31
0.0
0
LINE
5
6db
100
AcDbEntity
8
0-0
6
CONTINUOUS
62
7
100
AcDbLine
10
71.200000000000
20
20.424264068712
30
0.0
11
71.200000000000
21
22.900000000000
31
0.0
0
LINE
5
6dc
100
AcDbEntity
8
0-0
6
CONTINUOUS
62
7
100
AcDbLine
10
71.500000000000
20
23.200000000000
30
0.0
11
73.600000000000
21
23.200000000000
31
0.0
0
LINE
5
6dd
100
AcDbEntity
8
0-0
6
CONTINUOUS
62
7
100
AcDbLine
10
73.900000000000
20
23.500000000000
30
0.0
11
73.900000000000
21
24.700000000000
31
0.0
0
LINE
5
6de
100
AcDbEntity
8
0-0
6
CONTINUOUS
62
7
100
AcDbLine
10
73.600000000000
20
25.000000000000
30
0.0
11
66.400000000000
21
25.000000000000
31
0.0
0
LINE
5
6df
100
AcDbEntity
8
0-0
6
CONTINUOUS
62
7
100
AcDbLine
10
66.100000000000
20
24.700000000000
30
0.0
11
66.100000000000
21
23.500000000000
31
0.0
0
LINE
5
6e0
100
AcDbEntity
8
0-0
6
CONTINUOUS
62
7
100
AcDbLine
10
66.400000000000
20
23.200000000000
30
0.0
11
68.500000000000
21
23.200000000000
31
0.0
0
LINE
5
6e1
100
AcDbEntity
8
0-0
6
CONTINUOUS
62
7
100
AcDbLine
10
68.800000000000
20
22.900000000000
30
0.0
11
68.800000000000
21
20.424264068712
31
0.0
0
LINE
5
6e2
100
AcDbEntity
8
0-0
6
CONTINUOUS
62
7
100
AcDbLine
10
68.712132034356
20
20.212132034356
30
0.0
11
67.387867965644
21
18.887867965644
31
0.0
0
POLYLINE
5
6e3
100
AcDbEntity
8
0-0
6
CONTINUOUS
62
  7
100
AcDb2dPolyline
66
1
10
0.0
20
0.0
30
0.0
70
0
0
VERTEX
5
6e4
100
AcDbEntity
8
0-0
6
CONTINUOUS
62
  7
100
AcDbVertex
100
AcDb2dVertex
10
67.175735931288
20
18.800000000000
30
0.0
0
VERTEX
5
6e5
100
AcDbEntity
8
0-0
6
CONTINUOUS
62
  7
100
AcDbVertex
100
AcDb2dVertex
10
62.700000000000
20
18.800000000000
30
0.0
0
VERTEX
5
6e6
100
AcDbEntity
8
0-0
6
CONTINUOUS
62
  7
100
AcDbVertex
100
AcDb2dVertex
10
62.500000000000
20
18.600000000000
30
0.0
0
VERTEX
5
6e7
100
AcDbEntity
8
0-0
6
CONTINUOUS
62
  7
100
AcDbVertex
100
AcDb2dVertex
10
62.300000000000
20
18.800000000000
30
0.0
0
VERTEX
5
6e8
100
AcDbEntity
8
0-0
6
CONTINUOUS
62
  7
100
AcDbVertex
100
AcDb2dVertex
10
57.824264068712
20
18.800000000000
30
0.0
0
SEQEND
5
6e9
100
AcDbEntity
8
0-0
0
LINE
5
6ea
100
AcDbEntity
8
0-0
6
CONTINUOUS
62
7
100
AcDbLine
10
57.612132034356
20
18.887867965644
30
0.0
11
56.587867965644
21
19.912132034356
31
0.0
0
LINE
5
6eb
100
AcDbEntity
8
0-0
6
CONTINUOUS
62
7
100
AcDbLine
10
56.500000000000
20
20.124264068712
30
0.0
11
56.500000000000
21
22.900000000000
31
0.0
0
LINE
5
6ec
100
AcDbEntity
8
0-0
6
CONTINUOUS
62
7
100
AcDbLine
10
56.800000000000
20
23.200000000000
30
0.0
11
58.600000000000
21
23.200000000000
31
0.0
0
LINE
5
6ed
100
AcDbEntity
8
0-0
6
CONTINUOUS
62
7
100
AcDbLine
10
58.900000000000
20
23.500000000000
30
0.0
11
58.900000000000
21
24.700000000000
31
0.0
0
LINE
5
6ee
100
AcDbEntity
8
0-0
6
CONTINUOUS
62
7
100
AcDbLine
10
58.600000000000
20
25.000000000000
30
0.0
11
51.000000000000
21
25.000000000000
31
0.0
0
LINE
5
6ef
100
AcDbEntity
8
0-0
6
CONTINUOUS
62
7
100
AcDbLine
10
50.000000000000
20
24.000000000000
30
0.0
11
50.000000000000
21
16.400000000000
31
0.0
0
LINE
5
6f0
100
AcDbEntity
8
0-0
6
CONTINUOUS
62
7
100
AcDbLine
10
50.300000000000
20
16.100000000000
30
0.0
11
51.500000000000
21
16.100000000000
31
0.0
0
LINE
5
6f1
100
AcDbEntity
8
0-0
6
CONTINUOUS
62
7
100
AcDbLine
10
51.799999999999
20
16.400000000000
30
0.0
11
51.799999999999
21
18.200000000000
31
0.0
0
LINE
5
6f2
100
AcDbEntity
8
0-0
6
CONTINUOUS
62
7
100
AcDbLine
10
52.100000000000
20
18.500000000000
30
0.0
11
54.875735931288
21
18.500000000000
31
0.0
0
LINE
5
6f3
100
AcDbEntity
8
0-0
6
CONTINUOUS
62
7
100
AcDbLine
10
55.087867965644
20
18.412132034356
30
0.0
11
56.112132034356
21
17.387867965644
31
0.0
0
LINE
5
6f4
100
AcDbEntity
8
0-0
6
CONTINUOUS
62
7
100
AcDbLine
10
56.199999999999
20
17.175735931288
30
0.0
11
56.199999999999
21
7.824264068712
31
0.0
0
LINE
5
6f5
100
AcDbEntity
8
0-0
6
CONTINUOUS
62
7
100
AcDbLine
10
56.112132034356
20
7.612132034356
30
0.0
11
55.087867965644
21
6.587867965644
31
0.0
0
LINE
5
6f6
100
AcDbEntity
8
0-0
6
CONTINUOUS
62
7
100
AcDbLine
10
54.875735931288
20
6.500000000000
30
0.0
11
52.100000000000
21
6.500000000000
31
0.0
0
LINE
5
6f7
100
AcDbEntity
8
0-0
6
CONTINUOUS
62
7
100
AcDbLine
10
51.799999999999
20
6.800000000000
30
0.0
11
51.799999999999
21
8.600000000000
31
0.0
0
LINE
5
6f8
100
AcDbEntity
8
0-0
6
CONTINUOUS
62
7
100
AcDbLine
10
51.500000000000
20
8.900000000000
30
0.0
11
50.300000000000
21
8.900000000000
31
0.0
0
LINE
5
6f9
100
AcDbEntity
8
0-0
6
CONTINUOUS
62
7
100
AcDbLine
10
50.000000000000
20
8.600000000000
30
0.0
11
50.000000000000
21
1.000000000000
31
0.0
0
LINE
5
6fa
100
AcDbEntity
8
0-0
6
CONTINUOUS
62
7
100
AcDbLine
10
51.000000000000
20
-0.000000000000
30
0.0
11
58.600000000000
21
-0.000000000000
31
0.0
0
LINE
5
6fb
100
AcDbEntity
8
0-0
6
CONTINUOUS
62
7
100
AcDbLine
10
58.900000000000
20
0.300000000000
30
0.0
11
58.900000000000
21
1.500000000000
31
0.0
0
LINE
5
6fc
100
AcDbEntity
8
0-0
6
CONTINUOUS
62
7
100
AcDbLine
10
58.600000000000
20
1.800000000000
30
0.0
11
56.800000000000
21
1.800000000000
31
0.0
0
LINE
5
6fd
100
AcDbEntity
8
0-0
6
CONTINUOUS
62
7
100
AcDbLine
10
56.500000000000
20
2.100000000000
30
0.0
11
56.500000000000
21
4.875735931288
31
0.0
0
LINE
5
6fe
100
AcDbEntity
8
0-0
6
CONTINUOUS
62
7
100
AcDbLine
10
56.587867965644
20
5.087867965644
30
0.0
11
57.612132034356
21
6.112132034356
31
0.0
0
POLYLINE
5
6ff
100
AcDbEntity
8
0-0
6
CONTINUOUS
62
  7
100
AcDb2dPolyline
66
1
10
0.0
20
0.0
30
0.0
70
0
0
VERTEX
5
700
100
AcDbEntity
8
0-0
6
CONTINUOUS
62
  7
100
AcDbVertex
100
AcDb2dVertex
10
57.824264068712
20
6.200000000000
30
0.0
0
VERTEX
5
701
100
AcDbEntity
8
0-0
6
CONTINUOUS
62
  7
100
AcDbVertex
100
AcDb2dVertex
10
62.300000000000
20
6.200000000000
30
0.0
0
VERTEX
5
702
100
AcDbEntity
8
0-0
6
CONTINUOUS
62
  7
100
AcDbVertex
100
AcDb2dVertex
10
62.500000000000
20
6.400000000000
30
0.0
0
VERTEX
5
703
100
AcDbEntity
8
0-0
6
CONTINUOUS
62
  7
100
AcDbVertex
100
AcDb2dVertex
10
62.700000000000
20
6.200000000000
30
0.0
0
VERTEX
5
704
100
AcDbEntity
8
0-0
6
CONTINUOUS
62
  7
100
AcDbVertex
100
AcDb2dVertex
10
67.175735931288
20
6.200000000000
30
0.0
0
SEQEND
5
705
100
AcDbEntity
8
0-0
0
LINE
5
706
100
AcDbEntity
8
0-0
6
CONTINUOUS
62
7
100
AcDbLine
10
67.387867965644
20
6.112132034356
30
0.0
11
68.712132034356
21
4.787867965644
31
0.0
0
LINE
5
707
100
AcDbEntity
8
0-0
6
CONTINUOUS
62
7
100
AcDbLine
10
68.800000000000
20
4.575735931288
30
0.0
11
68.800000000000
21
2.100000000000
31
0.0
0
LINE
5
708
100
AcDbEntity
8
0-0
6
CONTINUOUS
62
7
100
AcDbLine
10
68.500000000000
20
1.800000000000
30
0.0
11
66.400000000000
21
1.800000000000
31
0.0
0
LINE
5
709
100
AcDbEntity
8
0-0
6
CONTINUOUS
62
7
100
AcDbLine
10
66.100000000000
20
1.500000000000
30
0.0
11
66.100000000000
21
0.300000000000
31
0.0
0
LINE
5
70a
100
AcDbEntity
8
0-0
6
CONTINUOUS
62
7
100
AcDbLine
10
66.400000000000
20
-0.000000000000
30
0.0
11
73.600000000000
21
-0.000000000000
31
0.0
0
LINE
5
70b
100
AcDbEntity
8
0-0
6
CONTINUOUS
62
7
100
AcDbLine
10
73.900000000000
20
0.300000000000
30
0.0
11
73.900000000000
21
1.500000000000
31
0.0
0
LINE
5
70c
100
AcDbEntity
8
0-0
6
CONTINUOUS
62
7
100
AcDbLine
10
73.600000000000
20
1.800000000000
30
0.0
11
71.500000000000
21
1.800000000000
31
0.0
0
LINE
5
70d
100
AcDbEntity
8
0-0
6
CONTINUOUS
62
7
100
AcDbLine
10
71.200000000000
20
2.100000000000
30
0.0
11
71.200000000000
21
4.575735931288
31
0.0
0
LINE
5
70e
100
AcDbEntity
8
0-0
6
CONTINUOUS
62
7
100
AcDbLine
10
71.287867965644
20
4.787867965644
30
0.0
11
72.612132034356
21
6.112132034356
31
0.0
0
POLYLINE
5
70f
100
AcDbEntity
8
0-0
6
CONTINUOUS
62
  7
100
AcDb2dPolyline
66
1
10
0.0
20
0.0
30
0.0
70
0
0
VERTEX
5
710
100
AcDbEntity
8
0-0
6
CONTINUOUS
62
  7
100
AcDbVertex
100
AcDb2dVertex
10
72.824264068712
20
6.200000000000
30
0.0
0
VERTEX
5
711
100
AcDbEntity
8
0-0
6
CONTINUOUS
62
  7
100
AcDbVertex
100
AcDb2dVertex
10
77.300000000000
20
6.200000000000
30
0.0
0
VERTEX
5
712
100
AcDbEntity
8
0-0
6
CONTINUOUS
62
  7
100
AcDbVertex
100
AcDb2dVertex
10
77.500000000000
20
6.400000000000
30
0.0
0
VERTEX
5
713
100
AcDbEntity
8
0-0
6
CONTINUOUS
62
  7
100
AcDbVertex
100
AcDb2dVertex
10
77.700000000000
20
6.200000000000
30
0.0
0
VERTEX
5
714
100
AcDbEntity
8
0-0
6
CONTINUOUS
62
  7
100
AcDbVertex
100
AcDb2dVertex
10
82.175735931288
20
6.200000000000
30
0.0
0
SEQEND
5
715
100
AcDbEntity
8
0-0
0
LINE
5
716
100
AcDbEntity
8
0-0
6
CONTINUOUS
62
7
100
AcDbLine
10
82.387867965644
20
6.112132034356
30
0.0
11
83.412132034356
21
5.087867965644
31
0.0
0
LINE
5
717
100
AcDbEntity
8
0-0
6
CONTINUOUS
62
7
100
AcDbLine
10
83.500000000000
20
4.875735931288
30
0.0
11
83.500000000000
21
2.100000000000
31
0.0
0
LINE
5
718
100
AcDbEntity
8
0-0
6
CONTINUOUS
62
7
100
AcDbLine
10
83.200000000000
20
1.800000000000
30
0.0
11
81.400000000000
21
1.800000000000
31
0.0
0
LINE
5
719
100
AcDbEntity
8
0-0
6
CONTINUOUS
62
7
100
AcDbLine
10
81.100000000000
20
1.500000000000
30
0.0
11
81.100000000000
21
0.300000000000
31
0.0
0
LINE
5
71a
100
AcDbEntity
8
0-0
6
CONTINUOUS
62
7
100
AcDbLine
10
81.400000000000
20
-0.000000000000
30
0.0
11
89.000000000000
21
-0.000000000000
31
0.0
0
LINE
5
71b
100
AcDbEntity
8
0-0
6
CONTINUOUS
62
7
100
AcDbLine
10
82.100000000000
20
7.700000000000
30
0.0
11
80.632121885040
21
7.700000000000
31
0.0
0
LINE
5
71c
100
AcDbEntity
8
0-0
6
CONTINUOUS
62
7
100
AcDbLine
10
80.342344137153
20
7.922354286469
30
0.0
11
80.059579651493
21
8.977645713531
31
0.0
0
LINE
5
71d
100
AcDbEntity
8
0-0
6
CONTINUOUS
62
7
100
AcDbLine
10
79.769801903606
20
9.200000000000
30
0.0
11
78.938749456993
21
9.200000000000
31
0.0
0
LINE
5
71e
100
AcDbEntity
8
0-0
6
CONTINUOUS
62
7
100
AcDbLine
10
76.061250543006
20
9.200000000000
30
0.0
11
75.230198096393
21
9.200000000000
31
0.0
0
LINE
5
71f
100
AcDbEntity
8
0-0
6
CONTINUOUS
62
7
100
AcDbLine
10
74.940420348507
20
8.977645713531
30
0.0
11
74.657655862846
21
7.922354286469
31
0.0
0
LINE
5
720
100
AcDbEntity
8
0-0
6
CONTINUOUS
62
7
100
AcDbLine
10
74.367878114959
20
7.700000000000
30
0.0
11
65.632121885040
21
7.700000000000
31
0.0
0
LINE
5
721
100
AcDbEntity
8
0-0
6
CONTINUOUS
62
7
100
AcDbLine
10
65.342344137153
20
7.922354286469
30
0.0
11
65.059579651493
21
8.977645713531
31
0.0
0
LINE
5
722
100
AcDbEntity
8
0-0
6
CONTINUOUS
62
7
100
AcDbLine
10
64.769801903606
20
9.200000000000
30
0.0
11
63.938749456993
21
9.200000000000
31
0.0
0
LINE
5
723
100
AcDbEntity
8
0-0
6
CONTINUOUS
62
7
100
AcDbLine
10
61.061250543006
20
9.200000000000
30
0.0
11
60.230198096393
21
9.200000000000
31
0.0
0
LINE
5
724
100
AcDbEntity
8
0-0
6
CONTINUOUS
62
7
100
AcDbLine
10
59.940420348507
20
8.977645713531
30
0.0
11
59.657655862846
21
7.922354286469
31
0.0
0
LINE
5
725
100
AcDbEntity
8
0-0
6
CONTINUOUS
62
7
100
AcDbLine
10
59.367878114959
20
7.700000000000
30
0.0
11
57.900000000000
21
7.700000000000
31
0.0
0
LINE
5
726
100
AcDbEntity
8
0-0
6
CONTINUOUS
62
7
100
AcDbLine
10
57.600000000000
20
8.000000000000
30
0.0
11
57.600000000000
21
17.000000000000
31
0.0
0
LINE
5
727
100
AcDbEntity
8
0-0
6
CONTINUOUS
62
7
100
AcDbLine
10
57.900000000000
20
17.300000000000
30
0.0
11
59.367878114959
21
17.300000000000
31
0.0
0
LINE
5
728
100
AcDbEntity
8
0-0
6
CONTINUOUS
62
7
100
AcDbLine
10
59.657655862846
20
17.077645713531
30
0.0
11
59.940420348507
21
16.022354286469
31
0.0
0
LINE
5
729
100
AcDbEntity
8
0-0
6
CONTINUOUS
62
7
100
AcDbLine
10
60.230198096393
20
15.800000000000
30
0.0
11
61.061250543006
21
15.800000000000
31
0.0
0
LINE
5
72a
100
AcDbEntity
8
0-0
6
CONTINUOUS
62
7
100
AcDbLine
10
63.938749456994
20
15.800000000000
30
0.0
11
64.769801903606
21
15.800000000000
31
0.0
0
LINE
5
72b
100
AcDbEntity
8
0-0
6
CONTINUOUS
62
7
100
AcDbLine
10
65.059579651493
20
16.022354286469
30
0.0
11
65.342344137153
21
17.077645713531
31
0.0
0
LINE
5
72c
100
AcDbEntity
8
0-0
6
CONTINUOUS
62
7
100
AcDbLine
10
65.632121885040
20
17.300000000000
30
0.0
11
74.367878114959
21
17.300000000000
31
0.0
0
LINE
5
72d
100
AcDbEntity
8
0-0
6
CONTINUOUS
62
7
100
AcDbLine
10
74.657655862846
20
17.077645713531
30
0.0
11
74.940420348507
21
16.022354286469
31
0.0
0
LINE
5
72e
100
AcDbEntity
8
0-0
6
CONTINUOUS
62
7
100
AcDbLine
10
75.230198096393
20
15.800000000000
30
0.0
11
76.061250543006
21
15.800000000000
31
0.0
0
LINE
5
72f
100
AcDbEntity
8
0-0
6
CONTINUOUS
62
7
100
AcDbLine
10
78.938749456994
20
15.800000000000
30
0.0
11
79.769801903606
21
15.800000000000
31
0.0
0
LINE
5
730
100
AcDbEntity
8
0-0
6
CONTINUOUS
62
7
100
AcDbLine
10
80.059579651493
20
16.022354286469
30
0.0
11
80.342344137153
21
17.077645713531
31
0.0
0
LINE
5
731
100
AcDbEntity
8
0-0
6
CONTINUOUS
62
7
100
AcDbLine
10
80.632121885040
20
17.300000000000
30
0.0
11
82.100000000000
21
17.300000000000
31
0.0
0
LINE
5
732
100
AcDbEntity
8
0-0
6
CONTINUOUS
62
7
100
AcDbLine
10
82.400000000000
20
17.000000000000
30
0.0
11
82.400000000000
21
8.000000000000
31
0.0
0
ARC
5
733
100
AcDbEntity
8
0-0
6
CONTINUOUS
62
7
100
AcDbCircle
10
51.000000000000
20
24.000000000000
30
0.0
40
1.000000000000
100
AcDbArc
50
90.000000000000
51
180.000000000000
0
ARC
5
734
100
AcDbEntity
8
0-0
6
CONTINUOUS
62
7
100
AcDbCircle
10
51.000000000000
20
1.000000000000
30
0.0
40
1.000000000000
100
AcDbArc
50
180.000000000000
51
270.000000000000
0
ARC
5
735
100
AcDbEntity
8
0-0
6
CONTINUOUS
62
7
100
AcDbCircle
10
58.600000000000
20
24.700000000000
30
0.0
40
0.300000000000
100
AcDbArc
50
0.000000000000
51
90.000000000000
0
ARC
5
736
100
AcDbEntity
8
0-0
6
CONTINUOUS
62
7
100
AcDbCircle
10
66.400000000000
20
24.700000000000
30
0.0
40
0.300000000000
100
AcDbArc
50
90.000000000000
51
180.000000000000
0
ARC
5
737
100
AcDbEntity
8
0-0
6
CONTINUOUS
62
7
100
AcDbCircle
10
50.300000000000
20
16.400000000000
30
0.0
40
0.300000000000
100
AcDbArc
50
180.000000000000
51
270.000000000000
0
ARC
5
738
100
AcDbEntity
8
0-0
6
CONTINUOUS
62
7
100
AcDbCircle
10
50.300000000000
20
8.600000000000
30
0.0
40
0.300000000000
100
AcDbArc
50
90.000000000000
51
180.000000000000
0
ARC
5
739
100
AcDbEntity
8
0-0
6
CONTINUOUS
62
7
100
AcDbCircle
10
66.400000000000
20
0.300000000000
30
0.0
40
0.300000000000
100
AcDbArc
50
180.000000000000
51
270.000000000000
0
ARC
5
73a
100
AcDbEntity
8
0-0
6
CONTINUOUS
62
7
100
AcDbCircle
10
58.600000000000
20
0.300000000000
30
0.0
40
0.300000000000
100
AcDbArc
50
270.000000000000
51
360.000000000000
0
ARC
5
73b
100
AcDbEntity
8
0-0
6
CONTINUOUS
62
7
100
AcDbCircle
10
66.400000000000
20
1.500000000000
30
0.0
40
0.300000000000
100
AcDbArc
50
90.000000000000
51
180.000000000000
0
ARC
5
73c
100
AcDbEntity
8
0-0
6
CONTINUOUS
62
7
100
AcDbCircle
10
67.175735931288
20
5.900000000000
30
0.0
40
0.300000000000
100
AcDbArc
50
45.000000000000
51
90.000000000000
0
ARC
5
73d
100
AcDbEntity
8
0-0
6
CONTINUOUS
62
7
100
AcDbCircle
10
56.800000000000
20
4.875735931288
30
0.0
40
0.300000000000
100
AcDbArc
50
135.000000000000
51
180.000000000000
0
ARC
5
73e
100
AcDbEntity
8
0-0
6
CONTINUOUS
62
7
100
AcDbCircle
10
56.800000000000
20
2.100000000000
30
0.0
40
0.300000000000
100
AcDbArc
50
180.000000000000
51
270.000000000000
0
ARC
5
73f
100
AcDbEntity
8
0-0
6
CONTINUOUS
62
7
100
AcDbCircle
10
58.600000000000
20
1.500000000000
30
0.0
40
0.300000000000
100
AcDbArc
50
0.000000000000
51
90.000000000000
0
ARC
5
740
100
AcDbEntity
8
0-0
6
CONTINUOUS
62
7
100
AcDbCircle
10
57.824264068712
20
5.900000000000
30
0.0
40
0.300000000000
100
AcDbArc
50
90.000000000000
51
135.000000000000
0
ARC
5
741
100
AcDbEntity
8
0-0
6
CONTINUOUS
62
7
100
AcDbCircle
10
58.600000000000
20
23.500000000000
30
0.0
40
0.300000000000
100
AcDbArc
50
270.000000000000
51
360.000000000000
0
ARC
5
742
100
AcDbEntity
8
0-0
6
CONTINUOUS
62
7
100
AcDbCircle
10
56.800000000000
20
22.900000000000
30
0.0
40
0.300000000000
100
AcDbArc
50
90.000000000000
51
180.000000000000
0
ARC
5
743
100
AcDbEntity
8
0-0
6
CONTINUOUS
62
7
100
AcDbCircle
10
56.800000000000
20
20.124264068712
30
0.0
40
0.300000000000
100
AcDbArc
50
180.000000000000
51
225.000000000000
0
ARC
5
744
100
AcDbEntity
8
0-0
6
CONTINUOUS
62
7
100
AcDbCircle
10
57.824264068712
20
19.100000000000
30
0.0
40
0.300000000000
100
AcDbArc
50
225.000000000000
51
270.000000000000
0
ARC
5
745
100
AcDbEntity
8
0-0
6
CONTINUOUS
62
7
100
AcDbCircle
10
66.400000000000
20
23.500000000000
30
0.0
40
0.300000000000
100
AcDbArc
50
180.000000000000
51
270.000000000000
0
ARC
5
746
100
AcDbEntity
8
0-0
6
CONTINUOUS
62
7
100
AcDbCircle
10
67.175735931288
20
19.100000000000
30
0.0
40
0.300000000000
100
AcDbArc
50
270.000000000000
51
315.000000000000
0
ARC
5
747
100
AcDbEntity
8
0-0
6
CONTINUOUS
62
7
100
AcDbCircle
10
51.500000000000
20
8.600000000000
30
0.0
40
0.300000000000
100
AcDbArc
50
0.000000000000
51
90.000000000000
0
ARC
5
748
100
AcDbEntity
8
0-0
6
CONTINUOUS
62
7
100
AcDbCircle
10
52.100000000000
20
6.800000000000
30
0.0
40
0.300000000000
100
AcDbArc
50
180.000000000000
51
270.000000000000
0
ARC
5
749
100
AcDbEntity
8
0-0
6
CONTINUOUS
62
7
100
AcDbCircle
10
54.875735931288
20
6.800000000000
30
0.0
40
0.300000000000
100
AcDbArc
50
270.000000000000
51
315.000000000000
0
ARC
5
74a
100
AcDbEntity
8
0-0
6
CONTINUOUS
62
7
100
AcDbCircle
10
55.899999999999
20
7.824264068712
30
0.0
40
0.300000000000
100
AcDbArc
50
315.000000000000
51
360.000000000000
0
ARC
5
74b
100
AcDbEntity
8
0-0
6
CONTINUOUS
62
7
100
AcDbCircle
10
54.875735931288
20
18.200000000000
30
0.0
40
0.300000000000
100
AcDbArc
50
45.000000000000
51
90.000000000000
0
ARC
5
74c
100
AcDbEntity
8
0-0
6
CONTINUOUS
62
7
100
AcDbCircle
10
52.100000000000
20
18.200000000000
30
0.0
40
0.300000000000
100
AcDbArc
50
90.000000000000
51
180.000000000000
0
ARC
5
74d
100
AcDbEntity
8
0-0
6
CONTINUOUS
62
7
100
AcDbCircle
10
51.500000000000
20
16.400000000000
30
0.0
40
0.300000000000
100
AcDbArc
50
270.000000000000
51
360.000000000000
0
ARC
5
74e
100
AcDbEntity
8
0-0
6
CONTINUOUS
62
7
100
AcDbCircle
10
55.899999999999
20
17.175735931288
30
0.0
40
0.300000000000
100
AcDbArc
50
0.000000000000
51
45.000000000000
0
CIRCLE
5
74f
100
AcDbEntity
8
0-0
6
CONTINUOUS
62
7
100
AcDbCircle
10
53.250000000000
20
21.750000000000
30
0.0
40
2.100000000000
0
CIRCLE
5
750
100
AcDbEntity
8
0-0
6
CONTINUOUS
62
7
100
AcDbCircle
10
53.250000000000
20
3.250000000000
30
0.0
40
2.100000000000
0
ARC
5
751
100
AcDbEntity
8
0-0
6
CONTINUOUS
62
7
100
AcDbCircle
10
89.000000000000
20
24.000000000000
30
0.0
40
1.000000000000
100
AcDbArc
50
0.000000000000
51
90.000000000000
0
ARC
5
752
100
AcDbEntity
8
0-0
6
CONTINUOUS
62
7
100
AcDbCircle
10
89.000000000000
20
1.000000000000
30
0.0
40
1.000000000000
100
AcDbArc
50
270.000000000000
51
360.000000000000
0
ARC
5
753
100
AcDbEntity
8
0-0
6
CONTINUOUS
62
7
100
AcDbCircle
10
89.700000000000
20
16.400000000000
30
0.0
40
0.300000000000
100
AcDbArc
50
270.000000000000
51
360.000000000000
0
ARC
5
754
100
AcDbEntity
8
0-0
6
CONTINUOUS
62
7
100
AcDbCircle
10
89.700000000000
20
8.600000000000
30
0.0
40
0.300000000000
100
AcDbArc
50
0.000000000000
51
90.000000000000
0
ARC
5
755
100
AcDbEntity
8
0-0
6
CONTINUOUS
62
7
100
AcDbCircle
10
88.500000000000
20
16.400000000000
30
0.0
40
0.300000000000
100
AcDbArc
50
180.000000000000
51
270.000000000000
0
ARC
5
756
100
AcDbEntity
8
0-0
6
CONTINUOUS
62
7
100
AcDbCircle
10
87.900000000000
20
18.200000000000
30
0.0
40
0.300000000000
100
AcDbArc
50
0.000000000000
51
90.000000000000
0
ARC
5
757
100
AcDbEntity
8
0-0
6
CONTINUOUS
62
7
100
AcDbCircle
10
85.124264068712
20
18.200000000000
30
0.0
40
0.300000000000
100
AcDbArc
50
90.000000000000
51
135.000000000000
0
ARC
5
758
100
AcDbEntity
8
0-0
6
CONTINUOUS
62
7
100
AcDbCircle
10
84.100000000000
20
17.175735931288
30
0.0
40
0.300000000000
100
AcDbArc
50
135.000000000000
51
180.000000000000
0
ARC
5
759
100
AcDbEntity
8
0-0
6
CONTINUOUS
62
7
100
AcDbCircle
10
85.124264068712
20
6.800000000000
30
0.0
40
0.300000000000
100
AcDbArc
50
225.000000000000
51
270.000000000000
0
ARC
5
75a
100
AcDbEntity
8
0-0
6
CONTINUOUS
62
7
100
AcDbCircle
10
87.900000000000
20
6.800000000000
30
0.0
40
0.300000000000
100
AcDbArc
50
270.000000000000
51
360.000000000000
0
ARC
5
75b
100
AcDbEntity
8
0-0
6
CONTINUOUS
62
7
100
AcDbCircle
10
88.500000000000
20
8.600000000000
30
0.0
40
0.300000000000
100
AcDbArc
50
90.000000000000
51
180.000000000000
0
ARC
5
75c
100
AcDbEntity
8
0-0
6
CONTINUOUS
62
7
100
AcDbCircle
10
84.100000000000
20
7.824264068712
30
0.0
40
0.300000000000
100
AcDbArc
50
180.000000000000
51
225.000000000000
0
CIRCLE
5
75d
100
AcDbEntity
8
0-0
6
CONTINUOUS
62
7
100
AcDbCircle
10
86.750000000000
20
21.750000000000
30
0.0
40
2.100000000000
0
CIRCLE
5
75e
100
AcDbEntity
8
0-0
6
CONTINUOUS
62
7
100
AcDbCircle
10
86.750000000000
20
3.250000000000
30
0.0
40
2.100000000000
0
ARC
5
75f
100
AcDbEntity
8
0-0
6
CONTINUOUS
62
7
100
AcDbCircle
10
81.400000000000
20
24.700000000000
30
0.0
40
0.300000000000
100
AcDbArc
50
90.000000000000
51
180.000000000000
0
ARC
5
760
100
AcDbEntity
8
0-0
6
CONTINUOUS
62
7
100
AcDbCircle
10
73.600000000000
20
24.700000000000
30
0.0
40
0.300000000000
100
AcDbArc
50
0.000000000000
51
90.000000000000
0
ARC
5
761
100
AcDbEntity
8
0-0
6
CONTINUOUS
62
7
100
AcDbCircle
10
73.600000000000
20
0.300000000000
30
0.0
40
0.300000000000
100
AcDbArc
50
270.000000000000
51
360.000000000000
0
ARC
5
762
100
AcDbEntity
8
0-0
6
CONTINUOUS
62
7
100
AcDbCircle
10
81.400000000000
20
0.300000000000
30
0.0
40
0.300000000000
100
AcDbArc
50
180.000000000000
51
270.000000000000
0
ARC
5
763
100
AcDbEntity
8
0-0
6
CONTINUOUS
62
7
100
AcDbCircle
10
73.600000000000
20
1.500000000000
30
0.0
40
0.300000000000
100
AcDbArc
50
0.000000000000
51
90.000000000000
0
ARC
5
764
100
AcDbEntity
8
0-0
6
CONTINUOUS
62
7
100
AcDbCircle
10
72.824264068712
20
5.900000000000
30
0.0
40
0.300000000000
100
AcDbArc
50
90.000000000000
51
135.000000000000
0
ARC
5
765
100
AcDbEntity
8
0-0
6
CONTINUOUS
62
7
100
AcDbCircle
10
83.200000000000
20
4.875735931288
30
0.0
40
0.300000000000
100
AcDbArc
50
0.000000000000
51
45.000000000000
0
ARC
5
766
100
AcDbEntity
8
0-0
6
CONTINUOUS
62
7
100
AcDbCircle
10
83.200000000000
20
2.100000000000
30
0.0
40
0.300000000000
100
AcDbArc
50
270.000000000000
51
360.000000000000
0
ARC
5
767
100
AcDbEntity
8
0-0
6
CONTINUOUS
62
7
100
AcDbCircle
10
81.400000000000
20
1.500000000000
30
0.0
40
0.300000000000
100
AcDbArc
50
90.000000000000
51
180.000000000000
0
ARC
5
768
100
AcDbEntity
8
0-0
6
CONTINUOUS
62
7
100
AcDbCircle
10
82.175735931288
20
5.900000000000
30
0.0
40
0.300000000000
100
AcDbArc
50
45.000000000000
51
90.000000000000
0
ARC
5
769
100
AcDbEntity
8
0-0
6
CONTINUOUS
62
7
100
AcDbCircle
10
81.400000000000
20
23.500000000000
30
0.0
40
0.300000000000
100
AcDbArc
50
180.000000000000
51
270.000000000000
0
ARC
5
76a
100
AcDbEntity
8
0-0
6
CONTINUOUS
62
7
100
AcDbCircle
10
83.200000000000
20
22.900000000000
30
0.0
40
0.300000000000
100
AcDbArc
50
0.000000000000
51
90.000000000000
0
ARC
5
76b
100
AcDbEntity
8
0-0
6
CONTINUOUS
62
7
100
AcDbCircle
10
83.200000000000
20
20.124264068712
30
0.0
40
0.300000000000
100
AcDbArc
50
315.000000000000
51
360.000000000000
0
ARC
5
76c
100
AcDbEntity
8
0-0
6
CONTINUOUS
62
7
100
AcDbCircle
10
82.175735931288
20
19.100000000000
30
0.0
40
0.300000000000
100
AcDbArc
50
270.000000000000
51
315.000000000000
0
ARC
5
76d
100
AcDbEntity
8
0-0
6
CONTINUOUS
62
7
100
AcDbCircle
10
73.600000000000
20
23.500000000000
30
0.0
40
0.300000000000
100
AcDbArc
50
270.000000000000
51
360.000000000000
0
ARC
5
76e
100
AcDbEntity
8
0-0
6
CONTINUOUS
62
7
100
AcDbCircle
10
72.824264068712
20
19.100000000000
30
0.0
40
0.300000000000
100
AcDbArc
50
225.000000000000
51
270.000000000000
0
ARC
5
76f
100
AcDbEntity
8
0-0
6
CONTINUOUS
62
7
100
AcDbCircle
10
68.500000000000
20
2.100000000000
30
0.0
40
0.300000000000
100
AcDbArc
50
270.000000000000
51
360.000000000000
0
ARC
5
770
100
AcDbEntity
8
0-0
6
CONTINUOUS
62
7
100
AcDbCircle
10
68.500000000000
20
4.575735931288
30
0.0
40
0.300000000000
100
AcDbArc
50
0.000000000000
51
45.000000000000
0
ARC
5
771
100
AcDbEntity
8
0-0
6
CONTINUOUS
62
7
100
AcDbCircle
10
71.500000000000
20
4.575735931288
30
0.0
40
0.300000000000
100
AcDbArc
50
135.000000000000
51
180.000000000000
0
ARC
5
772
100
AcDbEntity
8
0-0
6
CONTINUOUS
62
7
100
AcDbCircle
10
71.500000000000
20
2.100000000000
30
0.0
40
0.300000000000
100
AcDbArc
50
180.000000000000
51
270.000000000000
0
ARC
5
773
100
AcDbEntity
8
0-0
6
CONTINUOUS
62
7
100
AcDbCircle
10
68.500000000000
20
20.424264068712
30
0.0
40
0.300000000000
100
AcDbArc
50
315.000000000006
51
360.000000000000
0
ARC
5
774
100
AcDbEntity
8
0-0
6
CONTINUOUS
62
7
100
AcDbCircle
10
68.500000000000
20
22.900000000000
30
0.0
40
0.300000000000
100
AcDbArc
50
0.000000000000
51
90.000000000000
0
ARC
5
775
100
AcDbEntity
8
0-0
6
CONTINUOUS
62
7
100
AcDbCircle
10
71.500000000000
20
22.900000000000
30
0.0
40
0.300000000000
100
AcDbArc
50
90.000000000000
51
180.000000000000
0
ARC
5
776
100
AcDbEntity
8
0-0
6
CONTINUOUS
62
7
100
AcDbCircle
10
71.500000000000
20
20.424264068712
30
0.0
40
0.300000000000
100
AcDbArc
50
180.000000000000
51
224.999999999994
0
ARC
5
777
100
AcDbEntity
8
0-0
6
CONTINUOUS
62
7
100
AcDbCircle
10
57.900000000000
20
17.000000000000
30
0.0
40
0.300000000000
100
AcDbArc
50
90.000000000000
51
180.000000000000
0
ARC
5
778
100
AcDbEntity
8
0-0
6
CONTINUOUS
62
7
100
AcDbCircle
10
59.367878114959
20
17.000000000000
30
0.0
40
0.300000000000
100
AcDbArc
50
15.000000000000
51
90.000000000000
0
ARC
5
779
100
AcDbEntity
8
0-0
6
CONTINUOUS
62
7
100
AcDbCircle
10
65.632121885040
20
17.000000000000
30
0.0
40
0.300000000000
100
AcDbArc
50
90.000000000000
51
165.000000000000
0
ARC
5
77a
100
AcDbEntity
8
0-0
6
CONTINUOUS
62
7
100
AcDbCircle
10
65.632121885040
20
8.000000000000
30
0.0
40
0.300000000000
100
AcDbArc
50
195.000000000000
51
270.000000000000
0
ARC
5
77b
100
AcDbEntity
8
0-0
6
CONTINUOUS
62
7
100
AcDbCircle
10
59.367878114959
20
8.000000000000
30
0.0
40
0.300000000000
100
AcDbArc
50
270.000000000000
51
345.000000000000
0
ARC
5
77c
100
AcDbEntity
8
0-0
6
CONTINUOUS
62
7
100
AcDbCircle
10
57.900000000000
20
8.000000000000
30
0.0
40
0.300000000000
100
AcDbArc
50
180.000000000000
51
270.000000000000
0
ARC
5
77d
100
AcDbEntity
8
0-0
6
CONTINUOUS
62
7
100
AcDbCircle
10
82.100000000000
20
17.000000000000
30
0.0
40
0.300000000000
100
AcDbArc
50
0.000000000000
51
90.000000000000
0
ARC
5
77e
100
AcDbEntity
8
0-0
6
CONTINUOUS
62
7
100
AcDbCircle
10
80.632121885040
20
17.000000000000
30
0.0
40
0.300000000000
100
AcDbArc
50
90.000000000000
51
165.000000000000
0
ARC
5
77f
100
AcDbEntity
8
0-0
6
CONTINUOUS
62
7
100
AcDbCircle
10
74.367878114959
20
17.000000000000
30
0.0
40
0.300000000000
100
AcDbArc
50
15.000000000000
51
90.000000000000
0
ARC
5
780
100
AcDbEntity
8
0-0
6
CONTINUOUS
62
7
100
AcDbCircle
10
74.367878114959
20
8.000000000000
30
0.0
40
0.300000000000
100
AcDbArc
50
270.000000000000
51
345.000000000000
0
ARC
5
781
100
AcDbEntity
8
0-0
6
CONTINUOUS
62
7
100
AcDbCircle
10
80.632121885040
20
8.000000000000
30
0.0
40
0.300000000000
100
AcDbArc
50
195.000000000000
51
270.000000000000
0
ARC
5
782
100
AcDbEntity
8
0-0
6
CONTINUOUS
62
7
100
AcDbCircle
10
82.100000000000
20
8.000000000000
30
0.0
40
0.300000000000
100
AcDbArc
50
270.000000000000
51
360.000000000000
0
ARC
5
783
100
AcDbEntity
8
0-0
6
CONTINUOUS
62
7
100
AcDbCircle
10
60.230198096393
20
16.100000000000
30
0.0
40
0.300000000000
100
AcDbArc
50
195.000000000000
51
270.000000000000
0
ARC
5
784
100
AcDbEntity
8
0-0
6
CONTINUOUS
62
7
100
AcDbCircle
10
64.769801903606
20
16.100000000000
30
0.0
40
0.300000000000
100
AcDbArc
50
270.000000000000
51
345.000000000000
0
ARC
5
785
100
AcDbEntity
8
0-0
6
CONTINUOUS
62
7
100
AcDbCircle
10
64.769801903606
20
8.900000000000
30
0.0
40
0.300000000000
100
AcDbArc
50
15.000000000000
51
90.000000000000
0
ARC
5
786
100
AcDbEntity
8
0-0
6
CONTINUOUS
62
7
100
AcDbCircle
10
60.230198096393
20
8.900000000000
30
0.0
40
0.300000000000
100
AcDbArc
50
90.000000000000
51
165.000000000000
0
ARC
5
787
100
AcDbEntity
8
0-0
6
CONTINUOUS
62
7
100
AcDbCircle
10
62.500000000000
20
12.500000000000
30
0.0
40
3.600000000000
100
AcDbArc
50
246.443535690906
51
293.556464309094
0
ARC
5
788
100
AcDbEntity
8
0-0
6
CONTINUOUS
62
7
100
AcDbCircle
10
62.500000000000
20
12.500000000000
30
0.0
40
3.600000000000
100
AcDbArc
50
66.443535690897
51
113.556464309103
0
ARC
5
789
100
AcDbEntity
8
0-0
6
CONTINUOUS
62
7
100
AcDbCircle
10
75.230198096393
20
16.100000000000
30
0.0
40
0.300000000000
100
AcDbArc
50
195.000000000000
51
270.000000000000
0
ARC
5
78a
100
AcDbEntity
8
0-0
6
CONTINUOUS
62
7
100
AcDbCircle
10
79.769801903606
20
16.100000000000
30
0.0
40
0.300000000000
100
AcDbArc
50
270.000000000000
51
345.000000000000
0
ARC
5
78b
100
AcDbEntity
8
0-0
6
CONTINUOUS
62
7
100
AcDbCircle
10
79.769801903606
20
8.900000000000
30
0.0
40
0.300000000000
100
AcDbArc
50
15.000000000000
51
90.000000000000
0
ARC
5
78c
100
AcDbEntity
8
0-0
6
CONTINUOUS
62
7
100
AcDbCircle
10
75.230198096393
20
8.900000000000
30
0.0
40
0.300000000000
100
AcDbArc
50
90.000000000000
51
165.000000000000
0
ARC
5
78d
100
AcDbEntity
8
0-0
6
CONTINUOUS
62
7
100
AcDbCircle
10
77.500000000000
20
12.500000000000
30
0.0
40
3.600000000000
100
AcDbArc
50
246.443535690906
51
293.556464309094
0
ARC
5
78e
100
AcDbEntity
8
0-0
6
CONTINUOUS
62
7
100
AcDbCircle
10
77.500000000000
20
12.500000000000
30
0.0
40
3.600000000000
100
AcDbArc
50
66.443535690897
51
113.556464309103
0
LINE
5
78f
100
AcDbEntity
8
0-1
6
CENTER
62
4
100
AcDbLine
10
77.500000000000
20
-0.000000000000
30
0.0
11
77.500000000000
21
25.000000000000
31
0.0
0
LINE
5
790
100
AcDbEntity
8
0-1
6
CENTER
62
4
100
AcDbLine
10
70.000000000000
20
25.000000000000
30
0.0
11
70.000000000000
21
-0.000000000000
31
0.0
0
LINE
5
791
100
AcDbEntity
8
0-1
6
CENTER
62
4
100
AcDbLine
10
62.500000000000
20
-0.000000000000
30
0.0
11
62.500000000000
21
25.000000000000
31
0.0
0
LINE
5
792
100
AcDbEntity
8
0-1
6
CENTER
62
4
100
AcDbLine
10
50.000000000000
20
12.500000000000
30
0.0
11
90.000000000000
21
12.500000000000
31
0.0
0
LINE
5
793
100
AcDbEntity
8
0-0
6
CONTINUOUS
62
7
100
AcDbLine
10
154.700000000000
20
16.100000000000
30
0.0
11
153.500000000000
21
16.100000000000
31
0.0
0
LINE
5
794
100
AcDbEntity
8
0-0
6
CONTINUOUS
62
7
100
AcDbLine
10
153.200000000000
20
16.400000000000
30
0.0
11
153.200000000000
21
18.200000000000
31
0.0
0
LINE
5
795
100
AcDbEntity
8
0-0
6
CONTINUOUS
62
7
100
AcDbLine
10
152.900000000000
20
18.500000000000
30
0.0
11
150.124264068712
21
18.500000000000
31
0.0
0
LINE
5
796
100
AcDbEntity
8
0-0
6
CONTINUOUS
62
7
100
AcDbLine
10
149.912132034356
20
18.412132034356
30
0.0
11
148.887867965644
21
17.387867965644
31
0.0
0
LINE
5
797
100
AcDbEntity
8
0-0
6
CONTINUOUS
62
7
100
AcDbLine
10
148.800000000000
20
17.175735931288
30
0.0
11
148.800000000000
21
7.824264068712
31
0.0
0
LINE
5
798
100
AcDbEntity
8
0-0
6
CONTINUOUS
62
7
100
AcDbLine
10
148.887867965644
20
7.612132034356
30
0.0
11
149.912132034356
21
6.587867965644
31
0.0
0
LINE
5
799
100
AcDbEntity
8
0-0
6
CONTINUOUS
62
7
100
AcDbLine
10
150.124264068712
20
6.500000000000
30
0.0
11
152.900000000000
21
6.500000000000
31
0.0
0
LINE
5
79a
100
AcDbEntity
8
0-0
6
CONTINUOUS
62
7
100
AcDbLine
10
153.200000000000
20
6.800000000000
30
0.0
11
153.200000000000
21
8.600000000000
31
0.0
0
LINE
5
79b
100
AcDbEntity
8
0-0
6
CONTINUOUS
62
7
100
AcDbLine
10
153.500000000000
20
8.900000000000
30
0.0
11
154.700000000000
21
8.900000000000
31
0.0
0
LINE
5
79c
100
AcDbEntity
8
0-0
6
CONTINUOUS
62
7
100
AcDbLine
10
155.000000000000
20
8.600000000000
30
0.0
11
155.000000000000
21
1.000000000000
31
0.0
0
LINE
5
79d
100
AcDbEntity
8
0-0
6
CONTINUOUS
62
7
100
AcDbLine
10
154.000000000000
20
-0.000000000000
30
0.0
11
146.400000000000
21
-0.000000000000
31
0.0
0
LINE
5
79e
100
AcDbEntity
8
0-0
6
CONTINUOUS
62
7
100
AcDbLine
10
146.100000000000
20
0.300000000000
30
0.0
11
146.100000000000
21
1.500000000000
31
0.0
0
LINE
5
79f
100
AcDbEntity
8
0-0
6
CONTINUOUS
62
7
100
AcDbLine
10
146.400000000000
20
1.800000000000
30
0.0
11
148.200000000000
21
1.800000000000
31
0.0
0
LINE
5
7a0
100
AcDbEntity
8
0-0
6
CONTINUOUS
62
7
100
AcDbLine
10
148.500000000000
20
2.100000000000
30
0.0
11
148.500000000000
21
4.875735931288
31
0.0
0
LINE
5
7a1
100
AcDbEntity
8
0-0
6
CONTINUOUS
62
7
100
AcDbLine
10
148.412132034356
20
5.087867965644
30
0.0
11
147.387867965644
21
6.112132034356
31
0.0
0
POLYLINE
5
7a2
100
AcDbEntity
8
0-0
6
CONTINUOUS
62
  7
100
AcDb2dPolyline
66
1
10
0.0
20
0.0
30
0.0
70
0
0
VERTEX
5
7a3
100
AcDbEntity
8
0-0
6
CONTINUOUS
62
  7
100
AcDbVertex
100
AcDb2dVertex
10
147.175735931288
20
6.200000000000
30
0.0
0
VERTEX
5
7a4
100
AcDbEntity
8
0-0
6
CONTINUOUS
62
  7
100
AcDbVertex
100
AcDb2dVertex
10
142.700000000000
20
6.200000000000
30
0.0
0
VERTEX
5
7a5
100
AcDbEntity
8
0-0
6
CONTINUOUS
62
  7
100
AcDbVertex
100
AcDb2dVertex
10
142.500000000000
20
6.400000000000
30
0.0
0
VERTEX
5
7a6
100
AcDbEntity
8
0-0
6
CONTINUOUS
62
  7
100
AcDbVertex
100
AcDb2dVertex
10
142.300000000000
20
6.200000000000
30
0.0
0
VERTEX
5
7a7
100
AcDbEntity
8
0-0
6
CONTINUOUS
62
  7
100
AcDbVertex
100
AcDb2dVertex
10
137.824264068712
20
6.200000000000
30
0.0
0
SEQEND
5
7a8
100
AcDbEntity
8
0-0
0
LINE
5
7a9
100
AcDbEntity
8
0-0
6
CONTINUOUS
62
7
100
AcDbLine
10
137.612132034356
20
6.112132034356
30
0.0
11
136.287867965644
21
4.787867965644
31
0.0
0
LINE
5
7aa
100
AcDbEntity
8
0-0
6
CONTINUOUS
62
7
100
AcDbLine
10
136.200000000000
20
4.575735931288
30
0.0
11
136.200000000000
21
2.100000000000
31
0.0
0
LINE
5
7ab
100
AcDbEntity
8
0-0
6
CONTINUOUS
62
7
100
AcDbLine
10
136.500000000000
20
1.800000000000
30
0.0
11
138.600000000000
21
1.800000000000
31
0.0
0
LINE
5
7ac
100
AcDbEntity
8
0-0
6
CONTINUOUS
62
7
100
AcDbLine
10
138.900000000000
20
1.500000000000
30
0.0
11
138.900000000000
21
0.300000000000
31
0.0
0
LINE
5
7ad
100
AcDbEntity
8
0-0
6
CONTINUOUS
62
7
100
AcDbLine
10
138.600000000000
20
-0.000000000000
30
0.0
11
131.400000000000
21
-0.000000000000
31
0.0
0
LINE
5
7ae
100
AcDbEntity
8
0-0
6
CONTINUOUS
62
7
100
AcDbLine
10
131.100000000000
20
0.300000000000
30
0.0
11
131.100000000000
21
1.500000000000
31
0.0
0
LINE
5
7af
100
AcDbEntity
8
0-0
6
CONTINUOUS
62
7
100
AcDbLine
10
131.400000000000
20
1.800000000000
30
0.0
11
133.499999999999
21
1.800000000000
31
0.0
0
LINE
5
7b0
100
AcDbEntity
8
0-0
6
CONTINUOUS
62
7
100
AcDbLine
10
133.800000000000
20
2.100000000000
30
0.0
11
133.800000000000
21
4.575735931288
31
0.0
0
LINE
5
7b1
100
AcDbEntity
8
0-0
6
CONTINUOUS
62
7
100
AcDbLine
10
133.712132034356
20
4.787867965644
30
0.0
11
132.387867965644
21
6.112132034356
31
0.0
0
POLYLINE
5
7b2
100
AcDbEntity
8
0-0
6
CONTINUOUS
62
  7
100
AcDb2dPolyline
66
1
10
0.0
20
0.0
30
0.0
70
0
0
VERTEX
5
7b3
100
AcDbEntity
8
0-0
6
CONTINUOUS
62
  7
100
AcDbVertex
100
AcDb2dVertex
10
132.175735931288
20
6.200000000000
30
0.0
0
VERTEX
5
7b4
100
AcDbEntity
8
0-0
6
CONTINUOUS
62
  7
100
AcDbVertex
100
AcDb2dVertex
10
127.700000000000
20
6.200000000000
30
0.0
0
VERTEX
5
7b5
100
AcDbEntity
8
0-0
6
CONTINUOUS
62
  7
100
AcDbVertex
100
AcDb2dVertex
10
127.500000000000
20
6.400000000000
30
0.0
0
VERTEX
5
7b6
100
AcDbEntity
8
0-0
6
CONTINUOUS
62
  7
100
AcDbVertex
100
AcDb2dVertex
10
127.300000000000
20
6.200000000000
30
0.0
0
VERTEX
5
7b7
100
AcDbEntity
8
0-0
6
CONTINUOUS
62
  7
100
AcDbVertex
100
AcDb2dVertex
10
122.824264068712
20
6.200000000000
30
0.0
0
SEQEND
5
7b8
100
AcDbEntity
8
0-0
0
LINE
5
7b9
100
AcDbEntity
8
0-0
6
CONTINUOUS
62
7
100
AcDbLine
10
122.612132034356
20
6.112132034356
30
0.0
11
121.287867965644
21
4.787867965644
31
0.0
0
LINE
5
7ba
100
AcDbEntity
8
0-0
6
CONTINUOUS
62
7
100
AcDbLine
10
121.200000000000
20
4.575735931288
30
0.0
11
121.200000000000
21
2.100000000000
31
0.0
0
LINE
5
7bb
100
AcDbEntity
8
0-0
6
CONTINUOUS
62
7
100
AcDbLine
10
121.500000000000
20
1.800000000000
30
0.0
11
123.600000000000
21
1.800000000000
31
0.0
0
LINE
5
7bc
100
AcDbEntity
8
0-0
6
CONTINUOUS
62
7
100
AcDbLine
10
123.900000000000
20
1.500000000000
30
0.0
11
123.900000000000
21
0.300000000000
31
0.0
0
LINE
5
7bd
100
AcDbEntity
8
0-0
6
CONTINUOUS
62
7
100
AcDbLine
10
123.600000000000
20
-0.000000000000
30
0.0
11
116.400000000000
21
-0.000000000000
31
0.0
0
LINE
5
7be
100
AcDbEntity
8
0-0
6
CONTINUOUS
62
7
100
AcDbLine
10
116.100000000000
20
0.300000000000
30
0.0
11
116.100000000000
21
1.500000000000
31
0.0
0
LINE
5
7bf
100
AcDbEntity
8
0-0
6
CONTINUOUS
62
7
100
AcDbLine
10
116.400000000000
20
1.800000000000
30
0.0
11
118.499999999999
21
1.800000000000
31
0.0
0
LINE
5
7c0
100
AcDbEntity
8
0-0
6
CONTINUOUS
62
7
100
AcDbLine
10
118.800000000000
20
2.100000000000
30
0.0
11
118.800000000000
21
4.575735931288
31
0.0
0
LINE
5
7c1
100
AcDbEntity
8
0-0
6
CONTINUOUS
62
7
100
AcDbLine
10
118.712132034356
20
4.787867965644
30
0.0
11
117.387867965644
21
6.112132034356
31
0.0
0
POLYLINE
5
7c2
100
AcDbEntity
8
0-0
6
CONTINUOUS
62
  7
100
AcDb2dPolyline
66
1
10
0.0
20
0.0
30
0.0
70
0
0
VERTEX
5
7c3
100
AcDbEntity
8
0-0
6
CONTINUOUS
62
  7
100
AcDbVertex
100
AcDb2dVertex
10
117.175735931288
20
6.200000000000
30
0.0
0
VERTEX
5
7c4
100
AcDbEntity
8
0-0
6
CONTINUOUS
62
  7
100
AcDbVertex
100
AcDb2dVertex
10
112.700000000000
20
6.200000000000
30
0.0
0
VERTEX
5
7c5
100
AcDbEntity
8
0-0
6
CONTINUOUS
62
  7
100
AcDbVertex
100
AcDb2dVertex
10
112.500000000000
20
6.400000000000
30
0.0
0
VERTEX
5
7c6
100
AcDbEntity
8
0-0
6
CONTINUOUS
62
  7
100
AcDbVertex
100
AcDb2dVertex
10
112.300000000000
20
6.200000000000
30
0.0
0
VERTEX
5
7c7
100
AcDbEntity
8
0-0
6
CONTINUOUS
62
  7
100
AcDbVertex
100
AcDb2dVertex
10
107.824264068712
20
6.200000000000
30
0.0
0
SEQEND
5
7c8
100
AcDbEntity
8
0-0
0
LINE
5
7c9
100
AcDbEntity
8
0-0
6
CONTINUOUS
62
7
100
AcDbLine
10
107.612132034356
20
6.112132034356
30
0.0
11
106.587867965644
21
5.087867965644
31
0.0
0
LINE
5
7ca
100
AcDbEntity
8
0-0
6
CONTINUOUS
62
7
100
AcDbLine
10
106.500000000000
20
4.875735931288
30
0.0
11
106.500000000000
21
2.100000000000
31
0.0
0
LINE
5
7cb
100
AcDbEntity
8
0-0
6
CONTINUOUS
62
7
100
AcDbLine
10
106.800000000000
20
1.800000000000
30
0.0
11
108.600000000000
21
1.800000000000
31
0.0
0
LINE
5
7cc
100
AcDbEntity
8
0-0
6
CONTINUOUS
62
7
100
AcDbLine
10
108.900000000000
20
1.500000000000
30
0.0
11
108.900000000000
21
0.300000000000
31
0.0
0
LINE
5
7cd
100
AcDbEntity
8
0-0
6
CONTINUOUS
62
7
100
AcDbLine
10
108.600000000000
20
-0.000000000000
30
0.0
11
101.000000000000
21
-0.000000000000
31
0.0
0
LINE
5
7ce
100
AcDbEntity
8
0-0
6
CONTINUOUS
62
7
100
AcDbLine
10
100.000000000000
20
1.000000000000
30
0.0
11
100.000000000000
21
8.600000000000
31
0.0
0
LINE
5
7cf
100
AcDbEntity
8
0-0
6
CONTINUOUS
62
7
100
AcDbLine
10
100.300000000000
20
8.900000000000
30
0.0
11
101.500000000000
21
8.900000000000
31
0.0
0
LINE
5
7d0
100
AcDbEntity
8
0-0
6
CONTINUOUS
62
7
100
AcDbLine
10
101.800000000000
20
8.600000000000
30
0.0
11
101.800000000000
21
6.800000000000
31
0.0
0
LINE
5
7d1
100
AcDbEntity
8
0-0
6
CONTINUOUS
62
7
100
AcDbLine
10
102.100000000000
20
6.500000000000
30
0.0
11
104.875735931288
21
6.500000000000
31
0.0
0
LINE
5
7d2
100
AcDbEntity
8
0-0
6
CONTINUOUS
62
7
100
AcDbLine
10
105.087867965644
20
6.587867965644
30
0.0
11
106.112132034356
21
7.612132034356
31
0.0
0
LINE
5
7d3
100
AcDbEntity
8
0-0
6
CONTINUOUS
62
7
100
AcDbLine
10
106.200000000000
20
7.824264068712
30
0.0
11
106.200000000000
21
17.175735931288
31
0.0
0
LINE
5
7d4
100
AcDbEntity
8
0-0
6
CONTINUOUS
62
7
100
AcDbLine
10
106.112132034356
20
17.387867965644
30
0.0
11
105.087867965644
21
18.412132034356
31
0.0
0
LINE
5
7d5
100
AcDbEntity
8
0-0
6
CONTINUOUS
62
7
100
AcDbLine
10
104.875735931288
20
18.500000000000
30
0.0
11
102.100000000000
21
18.500000000000
31
0.0
0
LINE
5
7d6
100
AcDbEntity
8
0-0
6
CONTINUOUS
62
7
100
AcDbLine
10
101.800000000000
20
18.200000000000
30
0.0
11
101.800000000000
21
16.400000000000
31
0.0
0
LINE
5
7d7
100
AcDbEntity
8
0-0
6
CONTINUOUS
62
7
100
AcDbLine
10
101.500000000000
20
16.100000000000
30
0.0
11
100.300000000000
21
16.100000000000
31
0.0
0
LINE
5
7d8
100
AcDbEntity
8
0-0
6
CONTINUOUS
62
7
100
AcDbLine
10
100.000000000000
20
16.400000000000
30
0.0
11
100.000000000000
21
24.000000000000
31
0.0
0
LINE
5
7d9
100
AcDbEntity
8
0-0
6
CONTINUOUS
62
7
100
AcDbLine
10
101.000000000000
20
25.000000000000
30
0.0
11
108.600000000000
21
25.000000000000
31
0.0
0
LINE
5
7da
100
AcDbEntity
8
0-0
6
CONTINUOUS
62
7
100
AcDbLine
10
108.900000000000
20
24.700000000000
30
0.0
11
108.900000000000
21
23.500000000000
31
0.0
0
LINE
5
7db
100
AcDbEntity
8
0-0
6
CONTINUOUS
62
7
100
AcDbLine
10
108.600000000000
20
23.200000000000
30
0.0
11
106.800000000000
21
23.200000000000
31
0.0
0
LINE
5
7dc
100
AcDbEntity
8
0-0
6
CONTINUOUS
62
7
100
AcDbLine
10
106.500000000000
20
22.900000000000
30
0.0
11
106.500000000000
21
20.124264068712
31
0.0
0
LINE
5
7dd
100
AcDbEntity
8
0-0
6
CONTINUOUS
62
7
100
AcDbLine
10
106.587867965644
20
19.912132034356
30
0.0
11
107.612132034356
21
18.887867965644
31
0.0
0
POLYLINE
5
7de
100
AcDbEntity
8
0-0
6
CONTINUOUS
62
  7
100
AcDb2dPolyline
66
1
10
0.0
20
0.0
30
0.0
70
0
0
VERTEX
5
7df
100
AcDbEntity
8
0-0
6
CONTINUOUS
62
  7
100
AcDbVertex
100
AcDb2dVertex
10
107.824264068712
20
18.800000000000
30
0.0
0
VERTEX
5
7e0
100
AcDbEntity
8
0-0
6
CONTINUOUS
62
  7
100
AcDbVertex
100
AcDb2dVertex
10
112.300000000000
20
18.800000000000
30
0.0
0
VERTEX
5
7e1
100
AcDbEntity
8
0-0
6
CONTINUOUS
62
  7
100
AcDbVertex
100
AcDb2dVertex
10
112.500000000000
20
18.600000000000
30
0.0
0
VERTEX
5
7e2
100
AcDbEntity
8
0-0
6
CONTINUOUS
62
  7
100
AcDbVertex
100
AcDb2dVertex
10
112.700000000000
20
18.800000000000
30
0.0
0
VERTEX
5
7e3
100
AcDbEntity
8
0-0
6
CONTINUOUS
62
  7
100
AcDbVertex
100
AcDb2dVertex
10
117.175735931288
20
18.800000000000
30
0.0
0
SEQEND
5
7e4
100
AcDbEntity
8
0-0
0
LINE
5
7e5
100
AcDbEntity
8
0-0
6
CONTINUOUS
62
7
100
AcDbLine
10
117.387867965644
20
18.887867965644
30
0.0
11
118.712132034356
21
20.212132034356
31
0.0
0
LINE
5
7e6
100
AcDbEntity
8
0-0
6
CONTINUOUS
62
7
100
AcDbLine
10
118.800000000000
20
20.424264068712
30
0.0
11
118.800000000000
21
22.900000000000
31
0.0
0
LINE
5
7e7
100
AcDbEntity
8
0-0
6
CONTINUOUS
62
7
100
AcDbLine
10
118.499999999999
20
23.200000000000
30
0.0
11
116.400000000000
21
23.200000000000
31
0.0
0
LINE
5
7e8
100
AcDbEntity
8
0-0
6
CONTINUOUS
62
7
100
AcDbLine
10
116.100000000000
20
23.500000000000
30
0.0
11
116.100000000000
21
24.700000000000
31
0.0
0
LINE
5
7e9
100
AcDbEntity
8
0-0
6
CONTINUOUS
62
7
100
AcDbLine
10
116.400000000000
20
25.000000000000
30
0.0
11
123.600000000000
21
25.000000000000
31
0.0
0
LINE
5
7ea
100
AcDbEntity
8
0-0
6
CONTINUOUS
62
7
100
AcDbLine
10
123.900000000000
20
24.700000000000
30
0.0
11
123.900000000000
21
23.500000000000
31
0.0
0
LINE
5
7eb
100
AcDbEntity
8
0-0
6
CONTINUOUS
62
7
100
AcDbLine
10
123.600000000000
20
23.200000000000
30
0.0
11
121.500000000000
21
23.200000000000
31
0.0
0
LINE
5
7ec
100
AcDbEntity
8
0-0
6
CONTINUOUS
62
7
100
AcDbLine
10
121.200000000000
20
22.900000000000
30
0.0
11
121.200000000000
21
20.424264068712
31
0.0
0
LINE
5
7ed
100
AcDbEntity
8
0-0
6
CONTINUOUS
62
7
100
AcDbLine
10
121.287867965644
20
20.212132034356
30
0.0
11
122.612132034356
21
18.887867965644
31
0.0
0
POLYLINE
5
7ee
100
AcDbEntity
8
0-0
6
CONTINUOUS
62
  7
100
AcDb2dPolyline
66
1
10
0.0
20
0.0
30
0.0
70
0
0
VERTEX
5
7ef
100
AcDbEntity
8
0-0
6
CONTINUOUS
62
  7
100
AcDbVertex
100
AcDb2dVertex
10
122.824264068712
20
18.800000000000
30
0.0
0
VERTEX
5
7f0
100
AcDbEntity
8
0-0
6
CONTINUOUS
62
  7
100
AcDbVertex
100
AcDb2dVertex
10
127.300000000000
20
18.800000000000
30
0.0
0
VERTEX
5
7f1
100
AcDbEntity
8
0-0
6
CONTINUOUS
62
  7
100
AcDbVertex
100
AcDb2dVertex
10
127.500000000000
20
18.600000000000
30
0.0
0
VERTEX
5
7f2
100
AcDbEntity
8
0-0
6
CONTINUOUS
62
  7
100
AcDbVertex
100
AcDb2dVertex
10
127.700000000000
20
18.800000000000
30
0.0
0
VERTEX
5
7f3
100
AcDbEntity
8
0-0
6
CONTINUOUS
62
  7
100
AcDbVertex
100
AcDb2dVertex
10
132.175735931288
20
18.800000000000
30
0.0
0
SEQEND
5
7f4
100
AcDbEntity
8
0-0
0
LINE
5
7f5
100
AcDbEntity
8
0-0
6
CONTINUOUS
62
7
100
AcDbLine
10
132.387867965644
20
18.887867965644
30
0.0
11
133.712132034356
21
20.212132034356
31
0.0
0
LINE
5
7f6
100
AcDbEntity
8
0-0
6
CONTINUOUS
62
7
100
AcDbLine
10
133.800000000000
20
20.424264068712
30
0.0
11
133.800000000000
21
22.900000000000
31
0.0
0
LINE
5
7f7
100
AcDbEntity
8
0-0
6
CONTINUOUS
62
7
100
AcDbLine
10
133.499999999999
20
23.200000000000
30
0.0
11
131.400000000000
21
23.200000000000
31
0.0
0
LINE
5
7f8
100
AcDbEntity
8
0-0
6
CONTINUOUS
62
7
100
AcDbLine
10
131.100000000000
20
23.500000000000
30
0.0
11
131.100000000000
21
24.700000000000
31
0.0
0
LINE
5
7f9
100
AcDbEntity
8
0-0
6
CONTINUOUS
62
7
100
AcDbLine
10
131.400000000000
20
25.000000000000
30
0.0
11
138.600000000000
21
25.000000000000
31
0.0
0
LINE
5
7fa
100
AcDbEntity
8
0-0
6
CONTINUOUS
62
7
100
AcDbLine
10
138.900000000000
20
24.700000000000
30
0.0
11
138.900000000000
21
23.500000000000
31
0.0
0
LINE
5
7fb
100
AcDbEntity
8
0-0
6
CONTINUOUS
62
7
100
AcDbLine
10
138.600000000000
20
23.200000000000
30
0.0
11
136.500000000000
21
23.200000000000
31
0.0
0
LINE
5
7fc
100
AcDbEntity
8
0-0
6
CONTINUOUS
62
7
100
AcDbLine
10
136.200000000000
20
22.900000000000
30
0.0
11
136.200000000000
21
20.424264068712
31
0.0
0
LINE
5
7fd
100
AcDbEntity
8
0-0
6
CONTINUOUS
62
7
100
AcDbLine
10
136.287867965644
20
20.212132034356
30
0.0
11
137.612132034356
21
18.887867965644
31
0.0
0
POLYLINE
5
7fe
100
AcDbEntity
8
0-0
6
CONTINUOUS
62
  7
100
AcDb2dPolyline
66
1
10
0.0
20
0.0
30
0.0
70
0
0
VERTEX
5
7ff
100
AcDbEntity
8
0-0
6
CONTINUOUS
62
  7
100
AcDbVertex
100
AcDb2dVertex
10
137.824264068712
20
18.800000000000
30
0.0
0
VERTEX
5
800
100
AcDbEntity
8
0-0
6
CONTINUOUS
62
  7
100
AcDbVertex
100
AcDb2dVertex
10
142.300000000000
20
18.800000000000
30
0.0
0
VERTEX
5
801
100
AcDbEntity
8
0-0
6
CONTINUOUS
62
  7
100
AcDbVertex
100
AcDb2dVertex
10
142.500000000000
20
18.600000000000
30
0.0
0
VERTEX
5
802
100
AcDbEntity
8
0-0
6
CONTINUOUS
62
  7
100
AcDbVertex
100
AcDb2dVertex
10
142.700000000000
20
18.800000000000
30
0.0
0
VERTEX
5
803
100
AcDbEntity
8
0-0
6
CONTINUOUS
62
  7
100
AcDbVertex
100
AcDb2dVertex
10
147.175735931288
20
18.800000000000
30
0.0
0
SEQEND
5
804
100
AcDbEntity
8
0-0
0
LINE
5
805
100
AcDbEntity
8
0-0
6
CONTINUOUS
62
7
100
AcDbLine
10
147.387867965644
20
18.887867965644
30
0.0
11
148.412132034356
21
19.912132034356
31
0.0
0
LINE
5
806
100
AcDbEntity
8
0-0
6
CONTINUOUS
62
7
100
AcDbLine
10
148.500000000000
20
20.124264068712
30
0.0
11
148.500000000000
21
22.900000000000
31
0.0
0
LINE
5
807
100
AcDbEntity
8
0-0
6
CONTINUOUS
62
7
100
AcDbLine
10
148.200000000000
20
23.200000000000
30
0.0
11
146.400000000000
21
23.200000000000
31
0.0
0
LINE
5
808
100
AcDbEntity
8
0-0
6
CONTINUOUS
62
7
100
AcDbLine
10
146.100000000000
20
23.500000000000
30
0.0
11
146.100000000000
21
24.700000000000
31
0.0
0
LINE
5
809
100
AcDbEntity
8
0-0
6
CONTINUOUS
62
7
100
AcDbLine
10
146.400000000000
20
25.000000000000
30
0.0
11
154.000000000000
21
25.000000000000
31
0.0
0
LINE
5
80a
100
AcDbEntity
8
0-0
6
CONTINUOUS
62
7
100
AcDbLine
10
155.000000000000
20
24.000000000000
30
0.0
11
155.000000000000
21
16.400000000000
31
0.0
0
LINE
5
80b
100
AcDbEntity
8
0-0
6
CONTINUOUS
62
7
100
AcDbLine
10
147.400000000000
20
17.000000000000
30
0.0
11
147.400000000000
21
8.000000000000
31
0.0
0
LINE
5
80c
100
AcDbEntity
8
0-0
6
CONTINUOUS
62
7
100
AcDbLine
10
147.100000000000
20
7.700000000000
30
0.0
11
145.632121885041
21
7.700000000000
31
0.0
0
LINE
5
80d
100
AcDbEntity
8
0-0
6
CONTINUOUS
62
7
100
AcDbLine
10
145.342344137154
20
7.922354286469
30
0.0
11
145.059579651493
21
8.977645713531
31
0.0
0
LINE
5
80e
100
AcDbEntity
8
0-0
6
CONTINUOUS
62
7
100
AcDbLine
10
144.769801903606
20
9.200000000000
30
0.0
11
143.938749456994
21
9.200000000000
31
0.0
0
LINE
5
80f
100
AcDbEntity
8
0-0
6
CONTINUOUS
62
7
100
AcDbLine
10
141.061250543006
20
9.200000000000
30
0.0
11
140.230198096394
21
9.200000000000
31
0.0
0
LINE
5
810
100
AcDbEntity
8
0-0
6
CONTINUOUS
62
7
100
AcDbLine
10
139.940420348507
20
8.977645713531
30
0.0
11
139.657655862847
21
7.922354286469
31
0.0
0
LINE
5
811
100
AcDbEntity
8
0-0
6
CONTINUOUS
62
7
100
AcDbLine
10
139.367878114960
20
7.700000000000
30
0.0
11
130.632121885040
21
7.700000000000
31
0.0
0
LINE
5
812
100
AcDbEntity
8
0-0
6
CONTINUOUS
62
7
100
AcDbLine
10
130.342344137153
20
7.922354286469
30
0.0
11
130.059579651493
21
8.977645713531
31
0.0
0
LINE
5
813
100
AcDbEntity
8
0-0
6
CONTINUOUS
62
7
100
AcDbLine
10
129.769801903606
20
9.200000000000
30
0.0
11
128.938749456994
21
9.200000000000
31
0.0
0
LINE
5
814
100
AcDbEntity
8
0-0
6
CONTINUOUS
62
7
100
AcDbLine
10
126.061250543006
20
9.200000000000
30
0.0
11
125.230198096393
21
9.200000000000
31
0.0
0
LINE
5
815
100
AcDbEntity
8
0-0
6
CONTINUOUS
62
7
100
AcDbLine
10
124.940420348507
20
8.977645713531
30
0.0
11
124.657655862846
21
7.922354286469
31
0.0
0
LINE
5
816
100
AcDbEntity
8
0-0
6
CONTINUOUS
62
7
100
AcDbLine
10
124.367878114959
20
7.700000000000
30
0.0
11
115.632121885040
21
7.700000000000
31
0.0
0
LINE
5
817
100
AcDbEntity
8
0-0
6
CONTINUOUS
62
7
100
AcDbLine
10
115.342344137153
20
7.922354286469
30
0.0
11
115.059579651493
21
8.977645713531
31
0.0
0
LINE
5
818
100
AcDbEntity
8
0-0
6
CONTINUOUS
62
7
100
AcDbLine
10
114.769801903606
20
9.200000000000
30
0.0
11
113.938749456994
21
9.200000000000
31
0.0
0
LINE
5
819
100
AcDbEntity
8
0-0
6
CONTINUOUS
62
7
100
AcDbLine
10
111.061250543006
20
9.200000000000
30
0.0
11
110.230198096393
21
9.200000000000
31
0.0
0
LINE
5
81a
100
AcDbEntity
8
0-0
6
CONTINUOUS
62
7
100
AcDbLine
10
109.940420348507
20
8.977645713531
30
0.0
11
109.657655862846
21
7.922354286469
31
0.0
0
LINE
5
81b
100
AcDbEntity
8
0-0
6
CONTINUOUS
62
7
100
AcDbLine
10
109.367878114959
20
7.700000000000
30
0.0
11
107.900000000000
21
7.700000000000
31
0.0
0
LINE
5
81c
100
AcDbEntity
8
0-0
6
CONTINUOUS
62
7
100
AcDbLine
10
107.600000000000
20
8.000000000000
30
0.0
11
107.600000000000
21
17.000000000000
31
0.0
0
LINE
5
81d
100
AcDbEntity
8
0-0
6
CONTINUOUS
62
7
100
AcDbLine
10
107.900000000000
20
17.300000000000
30
0.0
11
109.367878114959
21
17.300000000000
31
0.0
0
LINE
5
81e
100
AcDbEntity
8
0-0
6
CONTINUOUS
62
7
100
AcDbLine
10
109.657655862846
20
17.077645713531
30
0.0
11
109.940420348507
21
16.022354286469
31
0.0
0
LINE
5
81f
100
AcDbEntity
8
0-0
6
CONTINUOUS
62
7
100
AcDbLine
10
110.230198096393
20
15.800000000000
30
0.0
11
111.061250543006
21
15.800000000000
31
0.0
0
LINE
5
820
100
AcDbEntity
8
0-0
6
CONTINUOUS
62
7
100
AcDbLine
10
113.938749456993
20
15.800000000000
30
0.0
11
114.769801903606
21
15.800000000000
31
0.0
0
LINE
5
821
100
AcDbEntity
8
0-0
6
CONTINUOUS
62
7
100
AcDbLine
10
115.059579651493
20
16.022354286469
30
0.0
11
115.342344137153
21
17.077645713531
31
0.0
0
LINE
5
822
100
AcDbEntity
8
0-0
6
CONTINUOUS
62
7
100
AcDbLine
10
115.632121885040
20
17.300000000000
30
0.0
11
124.367878114959
21
17.300000000000
31
0.0
0
LINE
5
823
100
AcDbEntity
8
0-0
6
CONTINUOUS
62
7
100
AcDbLine
10
124.657655862846
20
17.077645713531
30
0.0
11
124.940420348507
21
16.022354286469
31
0.0
0
LINE
5
824
100
AcDbEntity
8
0-0
6
CONTINUOUS
62
7
100
AcDbLine
10
125.230198096393
20
15.800000000000
30
0.0
11
126.061250543006
21
15.800000000000
31
0.0
0
LINE
5
825
100
AcDbEntity
8
0-0
6
CONTINUOUS
62
7
100
AcDbLine
10
128.938749456993
20
15.800000000000
30
0.0
11
129.769801903606
21
15.800000000000
31
0.0
0
LINE
5
826
100
AcDbEntity
8
0-0
6
CONTINUOUS
62
7
100
AcDbLine
10
130.059579651493
20
16.022354286469
30
0.0
11
130.342344137153
21
17.077645713531
31
0.0
0
LINE
5
827
100
AcDbEntity
8
0-0
6
CONTINUOUS
62
7
100
AcDbLine
10
130.632121885040
20
17.300000000000
30
0.0
11
139.367878114960
21
17.300000000000
31
0.0
0
LINE
5
828
100
AcDbEntity
8
0-0
6
CONTINUOUS
62
7
100
AcDbLine
10
139.657655862847
20
17.077645713531
30
0.0
11
139.940420348507
21
16.022354286469
31
0.0
0
LINE
5
829
100
AcDbEntity
8
0-0
6
CONTINUOUS
62
7
100
AcDbLine
10
140.230198096394
20
15.800000000000
30
0.0
11
141.061250543007
21
15.800000000000
31
0.0
0
LINE
5
82a
100
AcDbEntity
8
0-0
6
CONTINUOUS
62
7
100
AcDbLine
10
143.938749456993
20
15.800000000000
30
0.0
11
144.769801903606
21
15.800000000000
31
0.0
0
LINE
5
82b
100
AcDbEntity
8
0-0
6
CONTINUOUS
62
7
100
AcDbLine
10
145.059579651493
20
16.022354286469
30
0.0
11
145.342344137154
21
17.077645713531
31
0.0
0
LINE
5
82c
100
AcDbEntity
8
0-0
6
CONTINUOUS
62
7
100
AcDbLine
10
145.632121885041
20
17.300000000000
30
0.0
11
147.100000000000
21
17.300000000000
31
0.0
0
ARC
5
82d
100
AcDbEntity
8
0-0
6
CONTINUOUS
62
7
100
AcDbCircle
10
127.500000000000
20
12.500000000000
30
0.0
40
3.600000000000
100
AcDbArc
50
246.443535690897
51
293.556464309103
0
ARC
5
82e
100
AcDbEntity
8
0-0
6
CONTINUOUS
62
7
100
AcDbCircle
10
127.500000000000
20
12.500000000000
30
0.0
40
3.600000000000
100
AcDbArc
50
66.443535690906
51
113.556464309094
0
ARC
5
82f
100
AcDbEntity
8
0-0
6
CONTINUOUS
62
7
100
AcDbCircle
10
129.769801903606
20
16.100000000000
30
0.0
40
0.300000000000
100
AcDbArc
50
270.000000000000
51
345.000000000000
0
ARC
5
830
100
AcDbEntity
8
0-0
6
CONTINUOUS
62
7
100
AcDbCircle
10
125.230198096393
20
16.100000000000
30
0.0
40
0.300000000000
100
AcDbArc
50
195.000000000000
51
270.000000000000
0
ARC
5
831
100
AcDbEntity
8
0-0
6
CONTINUOUS
62
7
100
AcDbCircle
10
125.230198096393
20
8.900000000000
30
0.0
40
0.300000000000
100
AcDbArc
50
90.000000000000
51
165.000000000000
0
ARC
5
832
100
AcDbEntity
8
0-0
6
CONTINUOUS
62
7
100
AcDbCircle
10
129.769801903606
20
8.900000000000
30
0.0
40
0.300000000000
100
AcDbArc
50
15.000000000000
51
90.000000000000
0
ARC
5
833
100
AcDbEntity
8
0-0
6
CONTINUOUS
62
7
100
AcDbCircle
10
124.367878114959
20
17.000000000000
30
0.0
40
0.300000000000
100
AcDbArc
50
15.000000000000
51
90.000000000000
0
ARC
5
834
100
AcDbEntity
8
0-0
6
CONTINUOUS
62
7
100
AcDbCircle
10
130.632121885040
20
17.000000000000
30
0.0
40
0.300000000000
100
AcDbArc
50
90.000000000000
51
165.000000000000
0
ARC
5
835
100
AcDbEntity
8
0-0
6
CONTINUOUS
62
7
100
AcDbCircle
10
130.632121885040
20
8.000000000000
30
0.0
40
0.300000000000
100
AcDbArc
50
195.000000000000
51
270.000000000000
0
ARC
5
836
100
AcDbEntity
8
0-0
6
CONTINUOUS
62
7
100
AcDbCircle
10
124.367878114959
20
8.000000000000
30
0.0
40
0.300000000000
100
AcDbArc
50
270.000000000000
51
345.000000000000
0
ARC
5
837
100
AcDbEntity
8
0-0
6
CONTINUOUS
62
7
100
AcDbCircle
10
133.499999999999
20
4.575735931288
30
0.0
40
0.300000000000
100
AcDbArc
50
0.000000000000
51
44.999999999994
0
ARC
5
838
100
AcDbEntity
8
0-0
6
CONTINUOUS
62
7
100
AcDbCircle
10
133.499999999999
20
2.100000000000
30
0.0
40
0.300000000000
100
AcDbArc
50
270.000000000000
51
360.000000000000
0
ARC
5
839
100
AcDbEntity
8
0-0
6
CONTINUOUS
62
7
100
AcDbCircle
10
133.499999999999
20
22.900000000000
30
0.0
40
0.300000000000
100
AcDbArc
50
0.000000000000
51
90.000000000000
0
ARC
5
83a
100
AcDbEntity
8
0-0
6
CONTINUOUS
62
7
100
AcDbCircle
10
133.499999999999
20
20.424264068712
30
0.0
40
0.300000000000
100
AcDbArc
50
315.000000000000
51
360.000000000000
0
ARC
5
83b
100
AcDbEntity
8
0-0
6
CONTINUOUS
62
7
100
AcDbCircle
10
132.175735931288
20
5.900000000000
30
0.0
40
0.300000000000
100
AcDbArc
50
45.000000000000
51
90.000000000000
0
ARC
5
83c
100
AcDbEntity
8
0-0
6
CONTINUOUS
62
7
100
AcDbCircle
10
131.400000000000
20
1.500000000000
30
0.0
40
0.300000000000
100
AcDbArc
50
90.000000000000
51
180.000000000000
0
ARC
5
83d
100
AcDbEntity
8
0-0
6
CONTINUOUS
62
7
100
AcDbCircle
10
132.175735931288
20
19.100000000000
30
0.0
40
0.300000000000
100
AcDbArc
50
270.000000000000
51
315.000000000000
0
ARC
5
83e
100
AcDbEntity
8
0-0
6
CONTINUOUS
62
7
100
AcDbCircle
10
131.400000000000
20
23.500000000000
30
0.0
40
0.300000000000
100
AcDbArc
50
180.000000000000
51
270.000000000000
0
ARC
5
83f
100
AcDbEntity
8
0-0
6
CONTINUOUS
62
7
100
AcDbCircle
10
131.400000000000
20
24.700000000000
30
0.0
40
0.300000000000
100
AcDbArc
50
90.000000000000
51
180.000000000000
0
ARC
5
840
100
AcDbEntity
8
0-0
6
CONTINUOUS
62
7
100
AcDbCircle
10
131.400000000000
20
0.300000000000
30
0.0
40
0.300000000000
100
AcDbArc
50
180.000000000000
51
270.000000000000
0
ARC
5
841
100
AcDbEntity
8
0-0
6
CONTINUOUS
62
7
100
AcDbCircle
10
142.500000000000
20
12.500000000000
30
0.0
40
3.600000000000
100
AcDbArc
50
246.443535690897
51
293.556464309103
0
ARC
5
842
100
AcDbEntity
8
0-0
6
CONTINUOUS
62
7
100
AcDbCircle
10
142.500000000000
20
12.500000000000
30
0.0
40
3.600000000000
100
AcDbArc
50
66.443535690906
51
113.556464309094
0
ARC
5
843
100
AcDbEntity
8
0-0
6
CONTINUOUS
62
7
100
AcDbCircle
10
140.230198096394
20
16.100000000000
30
0.0
40
0.300000000000
100
AcDbArc
50
195.000000000000
51
270.000000000000
0
ARC
5
844
100
AcDbEntity
8
0-0
6
CONTINUOUS
62
7
100
AcDbCircle
10
144.769801903606
20
16.100000000000
30
0.0
40
0.300000000000
100
AcDbArc
50
270.000000000000
51
345.000000000000
0
ARC
5
845
100
AcDbEntity
8
0-0
6
CONTINUOUS
62
7
100
AcDbCircle
10
144.769801903606
20
8.900000000000
30
0.0
40
0.300000000000
100
AcDbArc
50
15.000000000000
51
90.000000000000
0
ARC
5
846
100
AcDbEntity
8
0-0
6
CONTINUOUS
62
7
100
AcDbCircle
10
140.230198096394
20
8.900000000000
30
0.0
40
0.300000000000
100
AcDbArc
50
90.000000000000
51
165.000000000000
0
ARC
5
847
100
AcDbEntity
8
0-0
6
CONTINUOUS
62
7
100
AcDbCircle
10
147.100000000000
20
17.000000000000
30
0.0
40
0.300000000000
100
AcDbArc
50
0.000000000000
51
90.000000000000
0
ARC
5
848
100
AcDbEntity
8
0-0
6
CONTINUOUS
62
7
100
AcDbCircle
10
145.632121885041
20
17.000000000000
30
0.0
40
0.300000000000
100
AcDbArc
50
90.000000000000
51
165.000000000000
0
ARC
5
849
100
AcDbEntity
8
0-0
6
CONTINUOUS
62
7
100
AcDbCircle
10
139.367878114960
20
17.000000000000
30
0.0
40
0.300000000000
100
AcDbArc
50
15.000000000000
51
90.000000000000
0
ARC
5
84a
100
AcDbEntity
8
0-0
6
CONTINUOUS
62
7
100
AcDbCircle
10
139.367878114960
20
8.000000000000
30
0.0
40
0.300000000000
100
AcDbArc
50
270.000000000000
51
345.000000000000
0
ARC
5
84b
100
AcDbEntity
8
0-0
6
CONTINUOUS
62
7
100
AcDbCircle
10
145.632121885041
20
8.000000000000
30
0.0
40
0.300000000000
100
AcDbArc
50
195.000000000000
51
270.000000000000
0
ARC
5
84c
100
AcDbEntity
8
0-0
6
CONTINUOUS
62
7
100
AcDbCircle
10
147.100000000000
20
8.000000000000
30
0.0
40
0.300000000000
100
AcDbArc
50
270.000000000000
51
360.000000000000
0
ARC
5
84d
100
AcDbEntity
8
0-0
6
CONTINUOUS
62
7
100
AcDbCircle
10
136.500000000000
20
4.575735931288
30
0.0
40
0.300000000000
100
AcDbArc
50
135.000000000006
51
180.000000000000
0
ARC
5
84e
100
AcDbEntity
8
0-0
6
CONTINUOUS
62
7
100
AcDbCircle
10
136.500000000000
20
2.100000000000
30
0.0
40
0.300000000000
100
AcDbArc
50
180.000000000000
51
270.000000000000
0
ARC
5
84f
100
AcDbEntity
8
0-0
6
CONTINUOUS
62
7
100
AcDbCircle
10
136.500000000000
20
22.900000000000
30
0.0
40
0.300000000000
100
AcDbArc
50
90.000000000000
51
180.000000000000
0
ARC
5
850
100
AcDbEntity
8
0-0
6
CONTINUOUS
62
7
100
AcDbCircle
10
136.500000000000
20
20.424264068712
30
0.0
40
0.300000000000
100
AcDbArc
50
180.000000000000
51
225.000000000000
0
ARC
5
851
100
AcDbEntity
8
0-0
6
CONTINUOUS
62
7
100
AcDbCircle
10
137.824264068712
20
5.900000000000
30
0.0
40
0.300000000000
100
AcDbArc
50
90.000000000000
51
135.000000000000
0
ARC
5
852
100
AcDbEntity
8
0-0
6
CONTINUOUS
62
7
100
AcDbCircle
10
138.600000000000
20
1.500000000000
30
0.0
40
0.300000000000
100
AcDbArc
50
0.000000000000
51
90.000000000000
0
ARC
5
853
100
AcDbEntity
8
0-0
6
CONTINUOUS
62
7
100
AcDbCircle
10
147.175735931288
20
5.900000000000
30
0.0
40
0.300000000000
100
AcDbArc
50
45.000000000000
51
90.000000000000
0
ARC
5
854
100
AcDbEntity
8
0-0
6
CONTINUOUS
62
7
100
AcDbCircle
10
148.200000000000
20
4.875735931288
30
0.0
40
0.300000000000
100
AcDbArc
50
0.000000000000
51
45.000000000000
0
ARC
5
855
100
AcDbEntity
8
0-0
6
CONTINUOUS
62
7
100
AcDbCircle
10
148.200000000000
20
2.100000000000
30
0.0
40
0.300000000000
100
AcDbArc
50
270.000000000000
51
360.000000000000
0
ARC
5
856
100
AcDbEntity
8
0-0
6
CONTINUOUS
62
7
100
AcDbCircle
10
146.400000000000
20
1.500000000000
30
0.0
40
0.300000000000
100
AcDbArc
50
90.000000000000
51
180.000000000000
0
ARC
5
857
100
AcDbEntity
8
0-0
6
CONTINUOUS
62
7
100
AcDbCircle
10
147.175735931288
20
19.100000000000
30
0.0
40
0.300000000000
100
AcDbArc
50
270.000000000000
51
315.000000000000
0
ARC
5
858
100
AcDbEntity
8
0-0
6
CONTINUOUS
62
7
100
AcDbCircle
10
146.400000000000
20
23.500000000000
30
0.0
40
0.300000000000
100
AcDbArc
50
180.000000000000
51
270.000000000000
0
ARC
5
859
100
AcDbEntity
8
0-0
6
CONTINUOUS
62
7
100
AcDbCircle
10
148.200000000000
20
22.900000000000
30
0.0
40
0.300000000000
100
AcDbArc
50
0.000000000000
51
90.000000000000
0
ARC
5
85a
100
AcDbEntity
8
0-0
6
CONTINUOUS
62
7
100
AcDbCircle
10
148.200000000000
20
20.124264068712
30
0.0
40
0.300000000000
100
AcDbArc
50
315.000000000000
51
360.000000000000
0
ARC
5
85b
100
AcDbEntity
8
0-0
6
CONTINUOUS
62
7
100
AcDbCircle
10
137.824264068712
20
19.100000000000
30
0.0
40
0.300000000000
100
AcDbArc
50
225.000000000000
51
270.000000000000
0
ARC
5
85c
100
AcDbEntity
8
0-0
6
CONTINUOUS
62
7
100
AcDbCircle
10
138.600000000000
20
23.500000000000
30
0.0
40
0.300000000000
100
AcDbArc
50
270.000000000000
51
360.000000000000
0
ARC
5
85d
100
AcDbEntity
8
0-0
6
CONTINUOUS
62
7
100
AcDbCircle
10
146.400000000000
20
24.700000000000
30
0.0
40
0.300000000000
100
AcDbArc
50
90.000000000000
51
180.000000000000
0
ARC
5
85e
100
AcDbEntity
8
0-0
6
CONTINUOUS
62
7
100
AcDbCircle
10
138.600000000000
20
24.700000000000
30
0.0
40
0.300000000000
100
AcDbArc
50
0.000000000000
51
90.000000000000
0
ARC
5
85f
100
AcDbEntity
8
0-0
6
CONTINUOUS
62
7
100
AcDbCircle
10
138.600000000000
20
0.300000000000
30
0.0
40
0.300000000000
100
AcDbArc
50
270.000000000000
51
360.000000000000
0
ARC
5
860
100
AcDbEntity
8
0-0
6
CONTINUOUS
62
7
100
AcDbCircle
10
146.400000000000
20
0.300000000000
30
0.0
40
0.300000000000
100
AcDbArc
50
180.000000000000
51
270.000000000000
0
CIRCLE
5
861
100
AcDbEntity
8
0-0
6
CONTINUOUS
62
7
100
AcDbCircle
10
151.750000000000
20
21.750000000000
30
0.0
40
2.100000000000
0
CIRCLE
5
862
100
AcDbEntity
8
0-0
6
CONTINUOUS
62
7
100
AcDbCircle
10
151.750000000000
20
3.250000000000
30
0.0
40
2.100000000000
0
ARC
5
863
100
AcDbEntity
8
0-0
6
CONTINUOUS
62
7
100
AcDbCircle
10
149.100000000000
20
17.175735931288
30
0.0
40
0.300000000000
100
AcDbArc
50
135.000000000000
51
180.000000000000
0
ARC
5
864
100
AcDbEntity
8
0-0
6
CONTINUOUS
62
7
100
AcDbCircle
10
153.500000000000
20
16.400000000000
30
0.0
40
0.300000000000
100
AcDbArc
50
180.000000000000
51
270.000000000000
0
ARC
5
865
100
AcDbEntity
8
0-0
6
CONTINUOUS
62
7
100
AcDbCircle
10
152.900000000000
20
18.200000000000
30
0.0
40
0.300000000000
100
AcDbArc
50
0.000000000000
51
90.000000000000
0
ARC
5
866
100
AcDbEntity
8
0-0
6
CONTINUOUS
62
7
100
AcDbCircle
10
150.124264068712
20
18.200000000000
30
0.0
40
0.300000000000
100
AcDbArc
50
90.000000000000
51
135.000000000000
0
ARC
5
867
100
AcDbEntity
8
0-0
6
CONTINUOUS
62
7
100
AcDbCircle
10
149.100000000000
20
7.824264068712
30
0.0
40
0.300000000000
100
AcDbArc
50
180.000000000000
51
225.000000000000
0
ARC
5
868
100
AcDbEntity
8
0-0
6
CONTINUOUS
62
7
100
AcDbCircle
10
150.124264068712
20
6.800000000000
30
0.0
40
0.300000000000
100
AcDbArc
50
225.000000000000
51
270.000000000000
0
ARC
5
869
100
AcDbEntity
8
0-0
6
CONTINUOUS
62
7
100
AcDbCircle
10
152.900000000000
20
6.800000000000
30
0.0
40
0.300000000000
100
AcDbArc
50
270.000000000000
51
360.000000000000
0
ARC
5
86a
100
AcDbEntity
8
0-0
6
CONTINUOUS
62
7
100
AcDbCircle
10
153.500000000000
20
8.600000000000
30
0.0
40
0.300000000000
100
AcDbArc
50
90.000000000000
51
180.000000000000
0
ARC
5
86b
100
AcDbEntity
8
0-0
6
CONTINUOUS
62
7
100
AcDbCircle
10
154.700000000000
20
16.400000000000
30
0.0
40
0.300000000000
100
AcDbArc
50
270.000000000000
51
360.000000000000
0
ARC
5
86c
100
AcDbEntity
8
0-0
6
CONTINUOUS
62
7
100
AcDbCircle
10
154.700000000000
20
8.600000000000
30
0.0
40
0.300000000000
100
AcDbArc
50
0.000000000000
51
90.000000000000
0
ARC
5
86d
100
AcDbEntity
8
0-0
6
CONTINUOUS
62
7
100
AcDbCircle
10
154.000000000000
20
24.000000000000
30
0.0
40
1.000000000000
100
AcDbArc
50
0.000000000000
51
90.000000000000
0
ARC
5
86e
100
AcDbEntity
8
0-0
6
CONTINUOUS
62
7
100
AcDbCircle
10
154.000000000000
20
1.000000000000
30
0.0
40
1.000000000000
100
AcDbArc
50
270.000000000000
51
360.000000000000
0
ARC
5
86f
100
AcDbEntity
8
0-0
6
CONTINUOUS
62
7
100
AcDbCircle
10
112.500000000000
20
12.500000000000
30
0.0
40
3.600000000000
100
AcDbArc
50
246.443535690897
51
293.556464309103
0
ARC
5
870
100
AcDbEntity
8
0-0
6
CONTINUOUS
62
7
100
AcDbCircle
10
112.500000000000
20
12.500000000000
30
0.0
40
3.600000000000
100
AcDbArc
50
66.443535690906
51
113.556464309094
0
ARC
5
871
100
AcDbEntity
8
0-0
6
CONTINUOUS
62
7
100
AcDbCircle
10
114.769801903606
20
16.100000000000
30
0.0
40
0.300000000000
100
AcDbArc
50
270.000000000000
51
345.000000000000
0
ARC
5
872
100
AcDbEntity
8
0-0
6
CONTINUOUS
62
7
100
AcDbCircle
10
110.230198096393
20
16.100000000000
30
0.0
40
0.300000000000
100
AcDbArc
50
195.000000000000
51
270.000000000000
0
ARC
5
873
100
AcDbEntity
8
0-0
6
CONTINUOUS
62
7
100
AcDbCircle
10
110.230198096393
20
8.900000000000
30
0.0
40
0.300000000000
100
AcDbArc
50
90.000000000000
51
165.000000000000
0
ARC
5
874
100
AcDbEntity
8
0-0
6
CONTINUOUS
62
7
100
AcDbCircle
10
114.769801903606
20
8.900000000000
30
0.0
40
0.300000000000
100
AcDbArc
50
15.000000000000
51
90.000000000000
0
ARC
5
875
100
AcDbEntity
8
0-0
6
CONTINUOUS
62
7
100
AcDbCircle
10
107.900000000000
20
17.000000000000
30
0.0
40
0.300000000000
100
AcDbArc
50
90.000000000000
51
180.000000000000
0
ARC
5
876
100
AcDbEntity
8
0-0
6
CONTINUOUS
62
7
100
AcDbCircle
10
109.367878114959
20
17.000000000000
30
0.0
40
0.300000000000
100
AcDbArc
50
15.000000000000
51
90.000000000000
0
ARC
5
877
100
AcDbEntity
8
0-0
6
CONTINUOUS
62
7
100
AcDbCircle
10
115.632121885040
20
17.000000000000
30
0.0
40
0.300000000000
100
AcDbArc
50
90.000000000000
51
165.000000000000
0
ARC
5
878
100
AcDbEntity
8
0-0
6
CONTINUOUS
62
7
100
AcDbCircle
10
115.632121885040
20
8.000000000000
30
0.0
40
0.300000000000
100
AcDbArc
50
195.000000000000
51
270.000000000000
0
ARC
5
879
100
AcDbEntity
8
0-0
6
CONTINUOUS
62
7
100
AcDbCircle
10
109.367878114959
20
8.000000000000
30
0.0
40
0.300000000000
100
AcDbArc
50
270.000000000000
51
345.000000000000
0
ARC
5
87a
100
AcDbEntity
8
0-0
6
CONTINUOUS
62
7
100
AcDbCircle
10
107.900000000000
20
8.000000000000
30
0.0
40
0.300000000000
100
AcDbArc
50
180.000000000000
51
270.000000000000
0
ARC
5
87b
100
AcDbEntity
8
0-0
6
CONTINUOUS
62
7
100
AcDbCircle
10
118.499999999999
20
4.575735931288
30
0.0
40
0.300000000000
100
AcDbArc
50
0.000000000000
51
44.999999999994
0
ARC
5
87c
100
AcDbEntity
8
0-0
6
CONTINUOUS
62
7
100
AcDbCircle
10
118.499999999999
20
2.100000000000
30
0.0
40
0.300000000000
100
AcDbArc
50
270.000000000000
51
360.000000000000
0
ARC
5
87d
100
AcDbEntity
8
0-0
6
CONTINUOUS
62
7
100
AcDbCircle
10
118.499999999999
20
22.900000000000
30
0.0
40
0.300000000000
100
AcDbArc
50
0.000000000000
51
90.000000000000
0
ARC
5
87e
100
AcDbEntity
8
0-0
6
CONTINUOUS
62
7
100
AcDbCircle
10
118.499999999999
20
20.424264068712
30
0.0
40
0.300000000000
100
AcDbArc
50
315.000000000000
51
360.000000000000
0
ARC
5
87f
100
AcDbEntity
8
0-0
6
CONTINUOUS
62
7
100
AcDbCircle
10
117.175735931288
20
5.900000000000
30
0.0
40
0.300000000000
100
AcDbArc
50
45.000000000000
51
90.000000000000
0
ARC
5
880
100
AcDbEntity
8
0-0
6
CONTINUOUS
62
7
100
AcDbCircle
10
116.400000000000
20
1.500000000000
30
0.0
40
0.300000000000
100
AcDbArc
50
90.000000000000
51
180.000000000000
0
ARC
5
881
100
AcDbEntity
8
0-0
6
CONTINUOUS
62
7
100
AcDbCircle
10
107.824264068712
20
5.900000000000
30
0.0
40
0.300000000000
100
AcDbArc
50
90.000000000000
51
135.000000000000
0
ARC
5
882
100
AcDbEntity
8
0-0
6
CONTINUOUS
62
7
100
AcDbCircle
10
106.800000000000
20
4.875735931288
30
0.0
40
0.300000000000
100
AcDbArc
50
135.000000000000
51
180.000000000000
0
ARC
5
883
100
AcDbEntity
8
0-0
6
CONTINUOUS
62
7
100
AcDbCircle
10
106.800000000000
20
2.100000000000
30
0.0
40
0.300000000000
100
AcDbArc
50
180.000000000000
51
270.000000000000
0
ARC
5
884
100
AcDbEntity
8
0-0
6
CONTINUOUS
62
7
100
AcDbCircle
10
108.600000000000
20
1.500000000000
30
0.0
40
0.300000000000
100
AcDbArc
50
0.000000000000
51
90.000000000000
0
ARC
5
885
100
AcDbEntity
8
0-0
6
CONTINUOUS
62
7
100
AcDbCircle
10
107.824264068712
20
19.100000000000
30
0.0
40
0.300000000000
100
AcDbArc
50
225.000000000000
51
270.000000000000
0
ARC
5
886
100
AcDbEntity
8
0-0
6
CONTINUOUS
62
7
100
AcDbCircle
10
108.600000000000
20
23.500000000000
30
0.0
40
0.300000000000
100
AcDbArc
50
270.000000000000
51
360.000000000000
0
ARC
5
887
100
AcDbEntity
8
0-0
6
CONTINUOUS
62
7
100
AcDbCircle
10
106.800000000000
20
22.900000000000
30
0.0
40
0.300000000000
100
AcDbArc
50
90.000000000000
51
180.000000000000
0
ARC
5
888
100
AcDbEntity
8
0-0
6
CONTINUOUS
62
7
100
AcDbCircle
10
106.800000000000
20
20.124264068712
30
0.0
40
0.300000000000
100
AcDbArc
50
180.000000000000
51
225.000000000000
0
ARC
5
889
100
AcDbEntity
8
0-0
6
CONTINUOUS
62
7
100
AcDbCircle
10
117.175735931288
20
19.100000000000
30
0.0
40
0.300000000000
100
AcDbArc
50
270.000000000000
51
315.000000000000
0
ARC
5
88a
100
AcDbEntity
8
0-0
6
CONTINUOUS
62
7
100
AcDbCircle
10
116.400000000000
20
23.500000000000
30
0.0
40
0.300000000000
100
AcDbArc
50
180.000000000000
51
270.000000000000
0
ARC
5
88b
100
AcDbEntity
8
0-0
6
CONTINUOUS
62
7
100
AcDbCircle
10
108.600000000000
20
24.700000000000
30
0.0
40
0.300000000000
100
AcDbArc
50
0.000000000000
51
90.000000000000
0
ARC
5
88c
100
AcDbEntity
8
0-0
6
CONTINUOUS
62
7
100
AcDbCircle
10
116.400000000000
20
24.700000000000
30
0.0
40
0.300000000000
100
AcDbArc
50
90.000000000000
51
180.000000000000
0
ARC
5
88d
100
AcDbEntity
8
0-0
6
CONTINUOUS
62
7
100
AcDbCircle
10
116.400000000000
20
0.300000000000
30
0.0
40
0.300000000000
100
AcDbArc
50
180.000000000000
51
270.000000000000
0
ARC
5
88e
100
AcDbEntity
8
0-0
6
CONTINUOUS
62
7
100
AcDbCircle
10
108.600000000000
20
0.300000000000
30
0.0
40
0.300000000000
100
AcDbArc
50
270.000000000000
51
360.000000000000
0
CIRCLE
5
88f
100
AcDbEntity
8
0-0
6
CONTINUOUS
62
7
100
AcDbCircle
10
103.250000000000
20
21.750000000000
30
0.0
40
2.100000000000
0
CIRCLE
5
890
100
AcDbEntity
8
0-0
6
CONTINUOUS
62
7
100
AcDbCircle
10
103.250000000000
20
3.250000000000
30
0.0
40
2.100000000000
0
ARC
5
891
100
AcDbEntity
8
0-0
6
CONTINUOUS
62
7
100
AcDbCircle
10
105.900000000000
20
17.175735931288
30
0.0
40
0.300000000000
100
AcDbArc
50
0.000000000000
51
45.000000000000
0
ARC
5
892
100
AcDbEntity
8
0-0
6
CONTINUOUS
62
7
100
AcDbCircle
10
101.500000000000
20
16.400000000000
30
0.0
40
0.300000000000
100
AcDbArc
50
270.000000000000
51
360.000000000000
0
ARC
5
893
100
AcDbEntity
8
0-0
6
CONTINUOUS
62
7
100
AcDbCircle
10
102.100000000000
20
18.200000000000
30
0.0
40
0.300000000000
100
AcDbArc
50
90.000000000000
51
180.000000000000
0
ARC
5
894
100
AcDbEntity
8
0-0
6
CONTINUOUS
62
7
100
AcDbCircle
10
104.875735931288
20
18.200000000000
30
0.0
40
0.300000000000
100
AcDbArc
50
45.000000000000
51
90.000000000000
0
ARC
5
895
100
AcDbEntity
8
0-0
6
CONTINUOUS
62
7
100
AcDbCircle
10
105.900000000000
20
7.824264068712
30
0.0
40
0.300000000000
100
AcDbArc
50
315.000000000000
51
360.000000000000
0
ARC
5
896
100
AcDbEntity
8
0-0
6
CONTINUOUS
62
7
100
AcDbCircle
10
104.875735931288
20
6.800000000000
30
0.0
40
0.300000000000
100
AcDbArc
50
270.000000000000
51
315.000000000000
0
ARC
5
897
100
AcDbEntity
8
0-0
6
CONTINUOUS
62
7
100
AcDbCircle
10
102.100000000000
20
6.800000000000
30
0.0
40
0.300000000000
100
AcDbArc
50
180.000000000000
51
270.000000000000
0
ARC
5
898
100
AcDbEntity
8
0-0
6
CONTINUOUS
62
7
100
AcDbCircle
10
101.500000000000
20
8.600000000000
30
0.0
40
0.300000000000
100
AcDbArc
50
0.000000000000
51
90.000000000000
0
ARC
5
899
100
AcDbEntity
8
0-0
6
CONTINUOUS
62
7
100
AcDbCircle
10
100.300000000000
20
16.400000000000
30
0.0
40
0.300000000000
100
AcDbArc
50
180.000000000000
51
270.000000000000
0
ARC
5
89a
100
AcDbEntity
8
0-0
6
CONTINUOUS
62
7
100
AcDbCircle
10
100.300000000000
20
8.600000000000
30
0.0
40
0.300000000000
100
AcDbArc
50
90.000000000000
51
180.000000000000
0
ARC
5
89b
100
AcDbEntity
8
0-0
6
CONTINUOUS
62
7
100
AcDbCircle
10
101.000000000000
20
24.000000000000
30
0.0
40
1.000000000000
100
AcDbArc
50
90.000000000000
51
180.000000000000
0
ARC
5
89c
100
AcDbEntity
8
0-0
6
CONTINUOUS
62
7
100
AcDbCircle
10
101.000000000000
20
1.000000000000
30
0.0
40
1.000000000000
100
AcDbArc
50
180.000000000000
51
270.000000000000
0
ARC
5
89d
100
AcDbEntity
8
0-0
6
CONTINUOUS
62
7
100
AcDbCircle
10
121.500000000000
20
4.575735931288
30
0.0
40
0.300000000000
100
AcDbArc
50
135.000000000006
51
180.000000000000
0
ARC
5
89e
100
AcDbEntity
8
0-0
6
CONTINUOUS
62
7
100
AcDbCircle
10
121.500000000000
20
2.100000000000
30
0.0
40
0.300000000000
100
AcDbArc
50
180.000000000000
51
270.000000000000
0
ARC
5
89f
100
AcDbEntity
8
0-0
6
CONTINUOUS
62
7
100
AcDbCircle
10
122.824264068712
20
5.900000000000
30
0.0
40
0.300000000000
100
AcDbArc
50
90.000000000000
51
135.000000000000
0
ARC
5
8a0
100
AcDbEntity
8
0-0
6
CONTINUOUS
62
7
100
AcDbCircle
10
123.600000000000
20
1.500000000000
30
0.0
40
0.300000000000
100
AcDbArc
50
0.000000000000
51
90.000000000000
0
ARC
5
8a1
100
AcDbEntity
8
0-0
6
CONTINUOUS
62
7
100
AcDbCircle
10
123.600000000000
20
0.300000000000
30
0.0
40
0.300000000000
100
AcDbArc
50
270.000000000000
51
360.000000000000
0
ARC
5
8a2
100
AcDbEntity
8
0-0
6
CONTINUOUS
62
7
100
AcDbCircle
10
121.500000000000
20
22.900000000000
30
0.0
40
0.300000000000
100
AcDbArc
50
90.000000000000
51
180.000000000000
0
ARC
5
8a3
100
AcDbEntity
8
0-0
6
CONTINUOUS
62
7
100
AcDbCircle
10
121.500000000000
20
20.424264068712
30
0.0
40
0.300000000000
100
AcDbArc
50
180.000000000000
51
225.000000000000
0
ARC
5
8a4
100
AcDbEntity
8
0-0
6
CONTINUOUS
62
7
100
AcDbCircle
10
122.824264068712
20
19.100000000000
30
0.0
40
0.300000000000
100
AcDbArc
50
225.000000000000
51
270.000000000000
0
ARC
5
8a5
100
AcDbEntity
8
0-0
6
CONTINUOUS
62
7
100
AcDbCircle
10
123.600000000000
20
23.500000000000
30
0.0
40
0.300000000000
100
AcDbArc
50
270.000000000000
51
360.000000000000
0
ARC
5
8a6
100
AcDbEntity
8
0-0
6
CONTINUOUS
62
7
100
AcDbCircle
10
123.600000000000
20
24.700000000000
30
0.0
40
0.300000000000
100
AcDbArc
50
0.000000000000
51
90.000000000000
0
LINE
5
8a7
100
AcDbEntity
8
0-1
6
CENTER
62
4
100
AcDbLine
10
155.000000000000
20
12.500000000000
30
0.0
11
100.000000000000
21
12.500000000000
31
0.0
0
LINE
5
8a8
100
AcDbEntity
8
0-1
6
CENTER
62
4
100
AcDbLine
10
112.500000000000
20
-0.000000000000
30
0.0
11
112.500000000000
21
25.000000000000
31
0.0
0
LINE
5
8a9
100
AcDbEntity
8
0-1
6
CENTER
62
4
100
AcDbLine
10
120.000000000000
20
25.000000000000
30
0.0
11
120.000000000000
21
-0.000000000000
31
0.0
0
LINE
5
8aa
100
AcDbEntity
8
0-1
6
CENTER
62
4
100
AcDbLine
10
127.500000000000
20
-0.000000000000
30
0.0
11
127.500000000000
21
25.000000000000
31
0.0
0
LINE
5
8ab
100
AcDbEntity
8
0-1
6
CENTER
62
4
100
AcDbLine
10
135.000000000000
20
25.000000000000
30
0.0
11
135.000000000000
21
-0.000000000000
31
0.0
0
LINE
5
8ac
100
AcDbEntity
8
0-1
6
CENTER
62
4
100
AcDbLine
10
142.500000000000
20
-0.000000000000
30
0.0
11
142.500000000000
21
25.000000000000
31
0.0
0
LINE
5
8ad
100
AcDbEntity
8
0-0
6
CONTINUOUS
62
7
100
AcDbLine
10
201.000000000000
20
-0.000000000000
30
0.0
11
208.600000000000
21
-0.000000000000
31
0.0
0
LINE
5
8ae
100
AcDbEntity
8
0-0
6
CONTINUOUS
62
7
100
AcDbLine
10
208.900000000000
20
0.300000000000
30
0.0
11
208.900000000000
21
1.500000000000
31
0.0
0
LINE
5
8af
100
AcDbEntity
8
0-0
6
CONTINUOUS
62
7
100
AcDbLine
10
208.600000000000
20
1.800000000000
30
0.0
11
206.800000000000
21
1.800000000000
31
0.0
0
LINE
5
8b0
100
AcDbEntity
8
0-0
6
CONTINUOUS
62
7
100
AcDbLine
10
206.500000000000
20
2.100000000000
30
0.0
11
206.500000000000
21
4.875735931288
31
0.0
0
LINE
5
8b1
100
AcDbEntity
8
0-0
6
CONTINUOUS
62
7
100
AcDbLine
10
206.587867965644
20
5.087867965644
30
0.0
11
207.612132034356
21
6.112132034356
31
0.0
0
LINE
5
8b2
100
AcDbEntity
8
0-0
6
CONTINUOUS
62
7
100
AcDbLine
10
207.824264068712
20
6.200000000000
30
0.0
11
217.175735931288
21
6.200000000000
31
0.0
0
LINE
5
8b3
100
AcDbEntity
8
0-0
6
CONTINUOUS
62
7
100
AcDbLine
10
217.387867965644
20
6.112132034356
30
0.0
11
218.412132034356
21
5.087867965644
31
0.0
0
LINE
5
8b4
100
AcDbEntity
8
0-0
6
CONTINUOUS
62
7
100
AcDbLine
10
218.500000000000
20
4.875735931288
30
0.0
11
218.500000000000
21
2.100000000000
31
0.0
0
LINE
5
8b5
100
AcDbEntity
8
0-0
6
CONTINUOUS
62
7
100
AcDbLine
10
218.200000000000
20
1.800000000000
30
0.0
11
216.400000000000
21
1.800000000000
31
0.0
0
LINE
5
8b6
100
AcDbEntity
8
0-0
6
CONTINUOUS
62
7
100
AcDbLine
10
216.100000000000
20
1.500000000000
30
0.0
11
216.100000000000
21
0.300000000000
31
0.0
0
LINE
5
8b7
100
AcDbEntity
8
0-0
6
CONTINUOUS
62
7
100
AcDbLine
10
216.400000000000
20
-0.000000000000
30
0.0
11
224.000000000000
21
-0.000000000000
31
0.0
0
LINE
5
8b8
100
AcDbEntity
8
0-0
6
CONTINUOUS
62
7
100
AcDbLine
10
225.000000000000
20
1.000000000000
30
0.0
11
225.000000000000
21
17.585786437627
31
0.0
0
LINE
5
8b9
100
AcDbEntity
8
0-0
6
CONTINUOUS
62
7
100
AcDbLine
10
224.707106781187
20
18.292893218814
30
0.0
11
218.918881681796
21
24.081118318204
31
0.0
0
LINE
5
8ba
100
AcDbEntity
8
0-0
6
CONTINUOUS
62
7
100
AcDbLine
10
218.494617613084
20
24.081118318204
30
0.0
11
217.646089475660
21
23.232590180781
31
0.0
0
LINE
5
8bb
100
AcDbEntity
8
0-0
6
CONTINUOUS
62
7
100
AcDbLine
10
217.646089475660
20
22.808326112069
30
0.0
11
218.918881681796
21
21.535533905933
31
0.0
0
LINE
5
8bc
100
AcDbEntity
8
0-0
6
CONTINUOUS
62
7
100
AcDbLine
10
218.918881681796
20
21.111269837221
30
0.0
11
216.956139981999
21
19.148528137424
31
0.0
0
LINE
5
8bd
100
AcDbEntity
8
0-0
6
CONTINUOUS
62
7
100
AcDbLine
10
216.744007947643
20
19.060660171780
30
0.0
11
215.295479810219
21
19.060660171780
31
0.0
0
LINE
5
8be
100
AcDbEntity
8
0-0
6
CONTINUOUS
62
7
100
AcDbLine
10
215.083347775863
20
19.148528137424
30
0.0
11
208.470858607760
21
25.761017305527
31
0.0
0
LINE
5
8bf
100
AcDbEntity
8
0-0
6
CONTINUOUS
62
7
100
AcDbLine
10
208.382990642116
20
25.973149339883
30
0.0
11
208.382990642116
21
27.421677477307
31
0.0
0
LINE
5
8c0
100
AcDbEntity
8
0-0
6
CONTINUOUS
62
7
100
AcDbLine
10
208.470858607760
20
27.633809511662
30
0.0
11
210.433600307557
21
29.596551211460
31
0.0
0
LINE
5
8c1
100
AcDbEntity
8
0-0
6
CONTINUOUS
62
7
100
AcDbLine
10
210.857864376269
20
29.596551211460
30
0.0
11
212.130656582405
21
28.323759005324
31
0.0
0
LINE
5
8c2
100
AcDbEntity
8
0-0
6
CONTINUOUS
62
7
100
AcDbLine
10
212.554920651117
20
28.323759005324
30
0.0
11
213.403448788540
21
29.172287142748
31
0.0
0
LINE
5
8c3
100
AcDbEntity
8
0-0
6
CONTINUOUS
62
7
100
AcDbLine
10
213.403448788540
20
29.596551211459
30
0.0
11
208.029437251523
21
34.970562748477
31
0.0
0
LINE
5
8c4
100
AcDbEntity
8
0-0
6
CONTINUOUS
62
7
100
AcDbLine
10
206.615223689150
20
34.970562748477
30
0.0
11
200.292893218813
21
28.648232278141
31
0.0
0
LINE
5
8c5
100
AcDbEntity
8
0-0
6
CONTINUOUS
62
7
100
AcDbLine
10
200.000000000000
20
27.941125496954
30
0.0
11
200.000000000000
21
16.400000000000
31
0.0
0
LINE
5
8c6
100
AcDbEntity
8
0-0
6
CONTINUOUS
62
7
100
AcDbLine
10
200.300000000000
20
16.100000000000
30
0.0
11
201.500000000000
21
16.100000000000
31
0.0
0
LINE
5
8c7
100
AcDbEntity
8
0-0
6
CONTINUOUS
62
7
100
AcDbLine
10
201.800000000000
20
16.400000000000
30
0.0
11
201.800000000000
21
18.200000000000
31
0.0
0
LINE
5
8c8
100
AcDbEntity
8
0-0
6
CONTINUOUS
62
7
100
AcDbLine
10
202.100000000000
20
18.500000000000
30
0.0
11
204.875735931288
21
18.500000000000
31
0.0
0
LINE
5
8c9
100
AcDbEntity
8
0-0
6
CONTINUOUS
62
7
100
AcDbLine
10
205.087867965644
20
18.412132034356
30
0.0
11
206.112132034356
21
17.387867965644
31
0.0
0
POLYLINE
5
8ca
100
AcDbEntity
8
0-0
6
CONTINUOUS
62
  7
100
AcDb2dPolyline
66
1
10
0.0
20
0.0
30
0.0
70
0
0
VERTEX
5
8cb
100
AcDbEntity
8
0-0
6
CONTINUOUS
62
  7
100
AcDbVertex
100
AcDb2dVertex
10
206.200000000000
20
17.175735931288
30
0.0
0
VERTEX
5
8cc
100
AcDbEntity
8
0-0
6
CONTINUOUS
62
  7
100
AcDbVertex
100
AcDb2dVertex
10
206.200000000000
20
12.700000000000
30
0.0
0
VERTEX
5
8cd
100
AcDbEntity
8
0-0
6
CONTINUOUS
62
  7
100
AcDbVertex
100
AcDb2dVertex
10
206.400000000000
20
12.500000000000
30
0.0
0
VERTEX
5
8ce
100
AcDbEntity
8
0-0
6
CONTINUOUS
62
  7
100
AcDbVertex
100
AcDb2dVertex
10
206.200000000000
20
12.300000000000
30
0.0
0
VERTEX
5
8cf
100
AcDbEntity
8
0-0
6
CONTINUOUS
62
  7
100
AcDbVertex
100
AcDb2dVertex
10
206.200000000000
20
7.824264068712
30
0.0
0
SEQEND
5
8d0
100
AcDbEntity
8
0-0
0
LINE
5
8d1
100
AcDbEntity
8
0-0
6
CONTINUOUS
62
7
100
AcDbLine
10
206.112132034356
20
7.612132034356
30
0.0
11
205.087867965644
21
6.587867965644
31
0.0
0
LINE
5
8d2
100
AcDbEntity
8
0-0
6
CONTINUOUS
62
7
100
AcDbLine
10
204.875735931288
20
6.500000000000
30
0.0
11
202.100000000000
21
6.500000000000
31
0.0
0
LINE
5
8d3
100
AcDbEntity
8
0-0
6
CONTINUOUS
62
7
100
AcDbLine
10
201.800000000000
20
6.800000000000
30
0.0
11
201.800000000000
21
8.600000000000
31
0.0
0
LINE
5
8d4
100
AcDbEntity
8
0-0
6
CONTINUOUS
62
7
100
AcDbLine
10
201.500000000000
20
8.900000000000
30
0.0
11
200.300000000000
21
8.900000000000
31
0.0
0
LINE
5
8d5
100
AcDbEntity
8
0-0
6
CONTINUOUS
62
7
100
AcDbLine
10
200.000000000000
20
8.600000000000
30
0.0
11
200.000000000000
21
1.000000000000
31
0.0
0
LINE
5
8d6
100
AcDbEntity
8
0-0
6
CONTINUOUS
62
7
100
AcDbLine
10
207.700000000000
20
7.900000000000
30
0.0
11
207.700000000000
21
9.367878114960
31
0.0
0
LINE
5
8d7
100
AcDbEntity
8
0-0
6
CONTINUOUS
62
7
100
AcDbLine
10
207.922354286469
20
9.657655862846
30
0.0
11
208.977645713531
21
9.940420348507
31
0.0
0
LINE
5
8d8
100
AcDbEntity
8
0-0
6
CONTINUOUS
62
7
100
AcDbLine
10
209.200000000000
20
10.230198096394
30
0.0
11
209.200000000000
21
14.769801903606
31
0.0
0
LINE
5
8d9
100
AcDbEntity
8
0-0
6
CONTINUOUS
62
7
100
AcDbLine
10
208.977645713531
20
15.059579651493
30
0.0
11
207.922354286469
21
15.342344137153
31
0.0
0
LINE
5
8da
100
AcDbEntity
8
0-0
6
CONTINUOUS
62
7
100
AcDbLine
10
207.700000000000
20
15.632121885040
30
0.0
11
207.700000000000
21
17.100000000000
31
0.0
0
LINE
5
8db
100
AcDbEntity
8
0-0
6
CONTINUOUS
62
7
100
AcDbLine
10
208.000000000000
20
17.400000000000
30
0.0
11
217.000000000000
21
17.400000000000
31
0.0
0
LINE
5
8dc
100
AcDbEntity
8
0-0
6
CONTINUOUS
62
7
100
AcDbLine
10
217.300000000000
20
17.100000000000
30
0.0
11
217.300000000000
21
15.632121885040
31
0.0
0
LINE
5
8dd
100
AcDbEntity
8
0-0
6
CONTINUOUS
62
7
100
AcDbLine
10
217.077645713531
20
15.342344137153
30
0.0
11
216.022354286469
21
15.059579651493
31
0.0
0
LINE
5
8de
100
AcDbEntity
8
0-0
6
CONTINUOUS
62
7
100
AcDbLine
10
215.800000000000
20
14.769801903606
30
0.0
11
215.800000000000
21
10.230198096394
31
0.0
0
LINE
5
8df
100
AcDbEntity
8
0-0
6
CONTINUOUS
62
7
100
AcDbLine
10
216.022354286469
20
9.940420348507
30
0.0
11
217.077645713531
21
9.657655862846
31
0.0
0
LINE
5
8e0
100
AcDbEntity
8
0-0
6
CONTINUOUS
62
7
100
AcDbLine
10
217.300000000000
20
9.367878114960
30
0.0
11
217.300000000000
21
7.900000000000
31
0.0
0
LINE
5
8e1
100
AcDbEntity
8
0-0
6
CONTINUOUS
62
7
100
AcDbLine
10
217.000000000000
20
7.600000000000
30
0.0
11
208.000000000000
21
7.600000000000
31
0.0
0
LINE
5
8e2
100
AcDbEntity
8
0-0
6
CONTINUOUS
62
7
100
AcDbLine
10
218.800000000000
20
6.804163056034
30
0.0
11
218.800000000000
21
18.888225099391
31
0.0
0
LINE
5
8e3
100
AcDbEntity
8
0-0
6
CONTINUOUS
62
7
100
AcDbLine
10
218.887867965644
20
19.100357133747
30
0.0
11
220.191673887931
21
20.404163056034
31
0.0
0
LINE
5
8e4
100
AcDbEntity
8
0-0
6
CONTINUOUS
62
7
100
AcDbLine
10
220.615937956643
20
20.404163056034
30
0.0
11
223.512132034356
21
17.507968978322
31
0.0
0
LINE
5
8e5
100
AcDbEntity
8
0-0
6
CONTINUOUS
62
7
100
AcDbLine
10
223.600000000000
20
17.295836943966
30
0.0
11
223.600000000000
21
1.700000000000
31
0.0
0
LINE
5
8e6
100
AcDbEntity
8
0-0
6
CONTINUOUS
62
7
100
AcDbLine
10
223.300000000000
20
1.400000000000
30
0.0
11
220.200000000000
21
1.400000000000
31
0.0
0
LINE
5
8e7
100
AcDbEntity
8
0-0
6
CONTINUOUS
62
7
100
AcDbLine
10
219.900000000000
20
1.700000000000
30
0.0
11
219.900000000000
21
5.455634918610
31
0.0
0
LINE
5
8e8
100
AcDbEntity
8
0-0
6
CONTINUOUS
62
7
100
AcDbLine
10
219.812132034356
20
5.667766952966
30
0.0
11
218.887867965644
21
6.592031021678
31
0.0
0
LINE
5
8e9
100
AcDbEntity
8
0-0
6
CONTINUOUS
62
7
100
AcDbLine
10
212.727712857253
20
18.800000000000
30
0.0
11
206.804163056034
21
18.800000000000
31
0.0
0
LINE
5
8ea
100
AcDbEntity
8
0-0
6
CONTINUOUS
62
7
100
AcDbLine
10
206.592031021678
20
18.887867965644
30
0.0
11
205.667766952966
21
19.812132034356
31
0.0
0
LINE
5
8eb
100
AcDbEntity
8
0-0
6
CONTINUOUS
62
7
100
AcDbLine
10
205.455634918610
20
19.900000000000
30
0.0
11
201.700000000000
21
19.900000000000
31
0.0
0
LINE
5
8ec
100
AcDbEntity
8
0-0
6
CONTINUOUS
62
7
100
AcDbLine
10
201.400000000000
20
20.200000000000
30
0.0
11
201.400000000000
21
27.651176003293
31
0.0
0
LINE
5
8ed
100
AcDbEntity
8
0-0
6
CONTINUOUS
62
7
100
AcDbLine
10
201.487867965644
20
27.863308037649
30
0.0
11
207.110198435980
21
33.485638507985
31
0.0
0
LINE
5
8ee
100
AcDbEntity
8
0-0
6
CONTINUOUS
62
7
100
AcDbLine
10
207.534462504692
20
33.485638507985
30
0.0
11
209.726493526371
21
31.293607486307
31
0.0
0
LINE
5
8ef
100
AcDbEntity
8
0-0
6
CONTINUOUS
62
7
100
AcDbLine
10
209.726493526371
20
30.869343417595
30
0.0
11
207.070858607760
21
28.213708498985
31
0.0
0
LINE
5
8f0
100
AcDbEntity
8
0-0
6
CONTINUOUS
62
7
100
AcDbLine
10
206.982990642116
20
28.001576464629
30
0.0
11
206.982990642116
21
25.393250352561
31
0.0
0
LINE
5
8f1
100
AcDbEntity
8
0-0
6
CONTINUOUS
62
7
100
AcDbLine
10
207.070858607760
20
25.181118318205
30
0.0
11
212.939844891609
21
19.312132034356
31
0.0
0
ARC
5
8f2
100
AcDbEntity
8
0-0
6
CONTINUOUS
62
7
100
AcDbCircle
10
207.322330470336
20
33.273506473629
30
0.0
40
0.300000000000
100
AcDbArc
50
45.000000000000
51
135.000000000000
0
ARC
5
8f3
100
AcDbEntity
8
0-0
6
CONTINUOUS
62
7
100
AcDbCircle
10
207.322330470336
20
34.263455967291
30
0.0
40
1.000000000000
100
AcDbArc
50
45.000000000000
51
135.000000000000
0
ARC
5
8f4
100
AcDbEntity
8
0-0
6
CONTINUOUS
62
7
100
AcDbCircle
10
209.514361492015
20
31.081475451951
30
0.0
40
0.300000000000
100
AcDbArc
50
315.000000000000
51
405.000000000003
0
ARC
5
8f5
100
AcDbEntity
8
0-0
6
CONTINUOUS
62
7
100
AcDbCircle
10
213.191316754184
20
29.384419177103
30
0.0
40
0.300000000000
100
AcDbArc
50
315.000000000000
51
405.000000000000
0
ARC
5
8f6
100
AcDbEntity
8
0-0
6
CONTINUOUS
62
7
100
AcDbCircle
10
212.342788616761
20
28.535891039680
30
0.0
40
0.300000000000
100
AcDbArc
50
225.000000000000
51
315.000000000000
0
ARC
5
8f7
100
AcDbEntity
8
0-0
6
CONTINUOUS
62
7
100
AcDbCircle
10
210.645732341913
20
29.384419177104
30
0.0
40
0.300000000000
100
AcDbArc
50
45.000000000000
51
135.000000000000
0
ARC
5
8f8
100
AcDbEntity
8
0-0
6
CONTINUOUS
62
7
100
AcDbCircle
10
208.682990642116
20
27.421677477307
30
0.0
40
0.300000000000
100
AcDbArc
50
135.000000000000
51
180.000000000000
0
ARC
5
8f9
100
AcDbEntity
8
0-0
6
CONTINUOUS
62
7
100
AcDbCircle
10
208.682990642116
20
25.973149339883
30
0.0
40
0.300000000000
100
AcDbArc
50
180.000000000000
51
225.000000000000
0
ARC
5
8fa
100
AcDbEntity
8
0-0
6
CONTINUOUS
62
7
100
AcDbCircle
10
201.700000000000
20
27.651176003293
30
0.0
40
0.300000000000
100
AcDbArc
50
135.000000000000
51
180.000000000000
0
ARC
5
8fb
100
AcDbEntity
8
0-0
6
CONTINUOUS
62
7
100
AcDbCircle
10
201.000000000000
20
27.941125496954
30
0.0
40
1.000000000000
100
AcDbArc
50
135.000000000000
51
180.000000000000
0
ARC
5
8fc
100
AcDbEntity
8
0-0
6
CONTINUOUS
62
7
100
AcDbCircle
10
207.282990642116
20
28.001576464629
30
0.0
40
0.300000000000
100
AcDbArc
50
135.000000000000
51
180.000000000000
0
ARC
5
8fd
100
AcDbEntity
8
0-0
6
CONTINUOUS
62
7
100
AcDbCircle
10
218.706749647440
20
23.868986283848
30
0.0
40
0.300000000000
100
AcDbArc
50
45.000000000000
51
135.000000000000
0
ARC
5
8fe
100
AcDbEntity
8
0-0
6
CONTINUOUS
62
7
100
AcDbCircle
10
207.282990642116
20
25.393250352561
30
0.0
40
0.300000000000
100
AcDbArc
50
180.000000000000
51
225.000000000000
0
ARC
5
8ff
100
AcDbEntity
8
0-0
6
CONTINUOUS
62
7
100
AcDbCircle
10
217.858221510016
20
23.020458146425
30
0.0
40
0.300000000000
100
AcDbArc
50
135.000000000000
51
225.000000000000
0
ARC
5
900
100
AcDbEntity
8
0-0
6
CONTINUOUS
62
7
100
AcDbCircle
10
218.706749647440
20
21.323401871577
30
0.0
40
0.300000000000
100
AcDbArc
50
315.000000000000
51
405.000000000000
0
ARC
5
901
100
AcDbEntity
8
0-0
6
CONTINUOUS
62
7
100
AcDbCircle
10
216.744007947643
20
19.360660171780
30
0.0
40
0.300000000000
100
AcDbArc
50
270.000000000000
51
315.000000000000
0
ARC
5
902
100
AcDbEntity
8
0-0
6
CONTINUOUS
62
7
100
AcDbCircle
10
215.295479810219
20
19.360660171780
30
0.0
40
0.300000000000
100
AcDbArc
50
225.000000000000
51
270.000000000000
0
ARC
5
903
100
AcDbEntity
8
0-0
6
CONTINUOUS
62
7
100
AcDbCircle
10
204.875735931288
20
18.200000000000
30
0.0
40
0.300000000000
100
AcDbArc
50
45.000000000000
51
90.000000000000
0
ARC
5
904
100
AcDbEntity
8
0-0
6
CONTINUOUS
62
7
100
AcDbCircle
10
202.100000000000
20
18.200000000000
30
0.0
40
0.300000000000
100
AcDbArc
50
90.000000000000
51
180.000000000000
0
ARC
5
905
100
AcDbEntity
8
0-0
6
CONTINUOUS
62
7
100
AcDbCircle
10
212.727712857253
20
19.100000000000
30
0.0
40
0.300000000000
100
AcDbArc
50
270.000000000000
51
405.000000000000
0
ARC
5
906
100
AcDbEntity
8
0-0
6
CONTINUOUS
62
7
100
AcDbCircle
10
206.804163056034
20
19.100000000000
30
0.0
40
0.300000000000
100
AcDbArc
50
225.000000000006
51
270.000000000000
0
ARC
5
907
100
AcDbEntity
8
0-0
6
CONTINUOUS
62
7
100
AcDbCircle
10
219.100000000000
20
18.888225099391
30
0.0
40
0.300000000000
100
AcDbArc
50
135.000000000000
51
180.000000000000
0
ARC
5
908
100
AcDbEntity
8
0-0
6
CONTINUOUS
62
7
100
AcDbCircle
10
220.403805922287
20
20.192031021678
30
0.0
40
0.300000000000
100
AcDbArc
50
45.000000000000
51
135.000000000000
0
ARC
5
909
100
AcDbEntity
8
0-0
6
CONTINUOUS
62
7
100
AcDbCircle
10
201.700000000000
20
20.200000000000
30
0.0
40
0.300000000000
100
AcDbArc
50
180.000000000000
51
270.000000000000
0
ARC
5
90a
100
AcDbEntity
8
0-0
6
CONTINUOUS
62
7
100
AcDbCircle
10
205.455634918610
20
19.600000000000
30
0.0
40
0.300000000000
100
AcDbArc
50
45.000000000007
51
90.000000000000
0
ARC
5
90b
100
AcDbEntity
8
0-0
6
CONTINUOUS
62
7
100
AcDbCircle
10
217.000000000000
20
17.100000000000
30
0.0
40
0.300000000000
100
AcDbArc
50
0.000000000000
51
90.000000000000
0
ARC
5
90c
100
AcDbEntity
8
0-0
6
CONTINUOUS
62
7
100
AcDbCircle
10
217.000000000000
20
15.632121885040
30
0.0
40
0.300000000000
100
AcDbArc
50
285.000000000000
51
360.000000000000
0
ARC
5
90d
100
AcDbEntity
8
0-0
6
CONTINUOUS
62
7
100
AcDbCircle
10
208.000000000000
20
15.632121885040
30
0.0
40
0.300000000000
100
AcDbArc
50
180.000000000000
51
255.000000000000
0
ARC
5
90e
100
AcDbEntity
8
0-0
6
CONTINUOUS
62
7
100
AcDbCircle
10
208.000000000000
20
17.100000000000
30
0.0
40
0.300000000000
100
AcDbArc
50
90.000000000000
51
180.000000000000
0
ARC
5
90f
100
AcDbEntity
8
0-0
6
CONTINUOUS
62
7
100
AcDbCircle
10
200.300000000000
20
16.400000000000
30
0.0
40
0.300000000000
100
AcDbArc
50
180.000000000000
51
270.000000000000
0
ARC
5
910
100
AcDbEntity
8
0-0
6
CONTINUOUS
62
7
100
AcDbCircle
10
201.500000000000
20
16.400000000000
30
0.0
40
0.300000000000
100
AcDbArc
50
270.000000000000
51
360.000000000000
0
ARC
5
911
100
AcDbEntity
8
0-0
6
CONTINUOUS
62
7
100
AcDbCircle
10
205.900000000000
20
17.175735931288
30
0.0
40
0.300000000000
100
AcDbArc
50
0.000000000000
51
45.000000000000
0
ARC
5
912
100
AcDbEntity
8
0-0
6
CONTINUOUS
62
7
100
AcDbCircle
10
224.000000000000
20
17.585786437627
30
0.0
40
1.000000000000
100
AcDbArc
50
0.000000000000
51
45.000000000000
0
ARC
5
913
100
AcDbEntity
8
0-0
6
CONTINUOUS
62
7
100
AcDbCircle
10
223.300000000000
20
17.295836943966
30
0.0
40
0.300000000000
100
AcDbArc
50
0.000000000000
51
45.000000000000
0
ARC
5
914
100
AcDbEntity
8
0-0
6
CONTINUOUS
62
7
100
AcDbCircle
10
216.100000000000
20
14.769801903606
30
0.0
40
0.300000000000
100
AcDbArc
50
105.000000000000
51
180.000000000000
0
ARC
5
915
100
AcDbEntity
8
0-0
6
CONTINUOUS
62
7
100
AcDbCircle
10
208.900000000000
20
14.769801903606
30
0.0
40
0.300000000000
100
AcDbArc
50
0.000000000000
51
75.000000000000
0
ARC
5
916
100
AcDbEntity
8
0-0
6
CONTINUOUS
62
7
100
AcDbCircle
10
216.100000000000
20
10.230198096394
30
0.0
40
0.300000000000
100
AcDbArc
50
180.000000000000
51
255.000000000000
0
ARC
5
917
100
AcDbEntity
8
0-0
6
CONTINUOUS
62
7
100
AcDbCircle
10
217.000000000000
20
9.367878114960
30
0.0
40
0.300000000000
100
AcDbArc
50
0.000000000000
51
75.000000000000
0
ARC
5
918
100
AcDbEntity
8
0-0
6
CONTINUOUS
62
7
100
AcDbCircle
10
208.000000000000
20
9.367878114960
30
0.0
40
0.300000000000
100
AcDbArc
50
105.000000000000
51
180.000000000000
0
ARC
5
919
100
AcDbEntity
8
0-0
6
CONTINUOUS
62
7
100
AcDbCircle
10
208.900000000000
20
10.230198096394
30
0.0
40
0.300000000000
100
AcDbArc
50
285.000000000000
51
360.000000000000
0
ARC
5
91a
100
AcDbEntity
8
0-0
6
CONTINUOUS
62
7
100
AcDbCircle
10
200.300000000000
20
8.600000000000
30
0.0
40
0.300000000000
100
AcDbArc
50
90.000000000000
51
180.000000000000
0
ARC
5
91b
100
AcDbEntity
8
0-0
6
CONTINUOUS
62
7
100
AcDbCircle
10
201.500000000000
20
8.600000000000
30
0.0
40
0.300000000000
100
AcDbArc
50
0.000000000000
51
90.000000000000
0
ARC
5
91c
100
AcDbEntity
8
0-0
6
CONTINUOUS
62
7
100
AcDbCircle
10
217.000000000000
20
7.900000000000
30
0.0
40
0.300000000000
100
AcDbArc
50
270.000000000000
51
360.000000000000
0
ARC
5
91d
100
AcDbEntity
8
0-0
6
CONTINUOUS
62
7
100
AcDbCircle
10
208.000000000000
20
7.900000000000
30
0.0
40
0.300000000000
100
AcDbArc
50
180.000000000000
51
270.000000000000
0
ARC
5
91e
100
AcDbEntity
8
0-0
6
CONTINUOUS
62
7
100
AcDbCircle
10
217.175735931288
20
5.900000000000
30
0.0
40
0.300000000000
100
AcDbArc
50
45.000000000000
51
90.000000000000
0
ARC
5
91f
100
AcDbEntity
8
0-0
6
CONTINUOUS
62
7
100
AcDbCircle
10
207.824264068712
20
5.900000000000
30
0.0
40
0.300000000000
100
AcDbArc
50
90.000000000000
51
135.000000000000
0
ARC
5
920
100
AcDbEntity
8
0-0
6
CONTINUOUS
62
7
100
AcDbCircle
10
202.100000000000
20
6.800000000000
30
0.0
40
0.300000000000
100
AcDbArc
50
180.000000000000
51
270.000000000000
0
ARC
5
921
100
AcDbEntity
8
0-0
6
CONTINUOUS
62
7
100
AcDbCircle
10
204.875735931288
20
6.800000000000
30
0.0
40
0.300000000000
100
AcDbArc
50
270.000000000000
51
315.000000000000
0
ARC
5
922
100
AcDbEntity
8
0-0
6
CONTINUOUS
62
7
100
AcDbCircle
10
205.900000000000
20
7.824264068712
30
0.0
40
0.300000000000
100
AcDbArc
50
315.000000000000
51
360.000000000000
0
ARC
5
923
100
AcDbEntity
8
0-0
6
CONTINUOUS
62
7
100
AcDbCircle
10
219.100000000000
20
6.804163056034
30
0.0
40
0.300000000000
100
AcDbArc
50
180.000000000000
51
225.000000000000
0
ARC
5
924
100
AcDbEntity
8
0-0
6
CONTINUOUS
62
7
100
AcDbCircle
10
218.200000000000
20
4.875735931288
30
0.0
40
0.300000000000
100
AcDbArc
50
0.000000000000
51
45.000000000000
0
ARC
5
925
100
AcDbEntity
8
0-0
6
CONTINUOUS
62
7
100
AcDbCircle
10
206.800000000000
20
4.875735931288
30
0.0
40
0.300000000000
100
AcDbArc
50
135.000000000000
51
180.000000000000
0
CIRCLE
5
926
100
AcDbEntity
8
0-0
6
CONTINUOUS
62
7
100
AcDbCircle
10
203.250000000000
20
3.250000000000
30
0.0
40
2.100000000000
0
ARC
5
927
100
AcDbEntity
8
0-0
6
CONTINUOUS
62
7
100
AcDbCircle
10
219.600000000000
20
5.455634918610
30
0.0
40
0.300000000000
100
AcDbArc
50
0.000000000000
51
45.000000000000
0
ARC
5
928
100
AcDbEntity
8
0-0
6
CONTINUOUS
62
7
100
AcDbCircle
10
216.400000000000
20
1.500000000000
30
0.0
40
0.300000000000
100
AcDbArc
50
90.000000000000
51
180.000000000000
0
ARC
5
929
100
AcDbEntity
8
0-0
6
CONTINUOUS
62
7
100
AcDbCircle
10
218.200000000000
20
2.100000000000
30
0.0
40
0.300000000000
100
AcDbArc
50
270.000000000000
51
360.000000000000
0
ARC
5
92a
100
AcDbEntity
8
0-0
6
CONTINUOUS
62
7
100
AcDbCircle
10
206.800000000000
20
2.100000000000
30
0.0
40
0.300000000000
100
AcDbArc
50
180.000000000000
51
270.000000000000
0
ARC
5
92b
100
AcDbEntity
8
0-0
6
CONTINUOUS
62
7
100
AcDbCircle
10
208.600000000000
20
1.500000000000
30
0.0
40
0.300000000000
100
AcDbArc
50
0.000000000000
51
90.000000000000
0
ARC
5
92c
100
AcDbEntity
8
0-0
6
CONTINUOUS
62
7
100
AcDbCircle
10
224.000000000000
20
1.000000000000
30
0.0
40
1.000000000000
100
AcDbArc
50
270.000000000000
51
360.000000000000
0
ARC
5
92d
100
AcDbEntity
8
0-0
6
CONTINUOUS
62
7
100
AcDbCircle
10
201.000000000000
20
1.000000000000
30
0.0
40
1.000000000000
100
AcDbArc
50
180.000000000000
51
270.000000000000
0
ARC
5
92e
100
AcDbEntity
8
0-0
6
CONTINUOUS
62
7
100
AcDbCircle
10
220.200000000000
20
1.700000000000
30
0.0
40
0.300000000000
100
AcDbArc
50
180.000000000000
51
270.000000000000
0
ARC
5
92f
100
AcDbEntity
8
0-0
6
CONTINUOUS
62
7
100
AcDbCircle
10
223.300000000000
20
1.700000000000
30
0.0
40
0.300000000000
100
AcDbArc
50
270.000000000000
51
360.000000000000
0
ARC
5
930
100
AcDbEntity
8
0-0
6
CONTINUOUS
62
7
100
AcDbCircle
10
216.400000000000
20
0.300000000000
30
0.0
40
0.300000000000
100
AcDbArc
50
180.000000000000
51
270.000000000000
0
ARC
5
931
100
AcDbEntity
8
0-0
6
CONTINUOUS
62
7
100
AcDbCircle
10
208.600000000000
20
0.300000000000
30
0.0
40
0.300000000000
100
AcDbArc
50
270.000000000000
51
360.000000000000
0
LINE
5
932
100
AcDbEntity
8
0-1
6
CENTER2
62
4
100
AcDbLine
10
225.000000000000
20
12.500000000000
30
0.0
11
200.000000000000
21
12.500000000000
31
0.0
0
LINE
5
933
100
AcDbEntity
8
0-1
6
CENTER2
62
4
100
AcDbLine
10
212.500000000000
20
-0.000000000000
30
0.0
11
212.500000000000
21
18.179267133697
31
0.0
0
LINE
5
934
100
AcDbEntity
8
0-0
6
CONTINUOUS
62
7
100
AcDbLine
10
274.999999808188
20
14.585783716152
30
0.0
11
274.999999808188
21
0.999997278525
31
0.0
0
LINE
5
935
100
AcDbEntity
8
0-0
6
CONTINUOUS
62
7
100
AcDbLine
10
273.999999808188
20
-0.000002721475
30
0.0
11
266.399999808188
21
-0.000002721475
31
0.0
0
LINE
5
936
100
AcDbEntity
8
0-0
6
CONTINUOUS
62
7
100
AcDbLine
10
266.099999808188
20
0.299997278525
30
0.0
11
266.099999808188
21
1.499997278525
31
0.0
0
LINE
5
937
100
AcDbEntity
8
0-0
6
CONTINUOUS
62
7
100
AcDbLine
10
266.399999808188
20
1.799997278525
30
0.0
11
270.534298962605
21
1.799997278525
31
0.0
0
LINE
5
938
100
AcDbEntity
8
0-0
6
CONTINUOUS
62
7
100
AcDbLine
10
270.876011106646
20
2.665007977841
30
0.0
11
267.186515678172
21
6.119003698115
31
0.0
0
LINE
5
939
100
AcDbEntity
8
0-0
6
CONTINUOUS
62
7
100
AcDbLine
10
266.981488391748
20
6.199997278525
30
0.0
11
258.018511224629
21
6.199997278525
31
0.0
0
LINE
5
93a
100
AcDbEntity
8
0-0
6
CONTINUOUS
62
7
100
AcDbLine
10
257.813483938205
20
6.119003698115
30
0.0
11
254.123988509730
21
2.665007977841
31
0.0
0
LINE
5
93b
100
AcDbEntity
8
0-0
6
CONTINUOUS
62
7
100
AcDbLine
10
254.465700653771
20
1.799997278525
30
0.0
11
258.599999808188
21
1.799997278525
31
0.0
0
LINE
5
93c
100
AcDbEntity
8
0-0
6
CONTINUOUS
62
7
100
AcDbLine
10
258.899999808188
20
1.499997278525
30
0.0
11
258.899999808188
21
0.299997278525
31
0.0
0
LINE
5
93d
100
AcDbEntity
8
0-0
6
CONTINUOUS
62
7
100
AcDbLine
10
258.599999808188
20
-0.000002721475
30
0.0
11
250.999999808188
21
-0.000002721475
31
0.0
0
LINE
5
93e
100
AcDbEntity
8
0-0
6
CONTINUOUS
62
7
100
AcDbLine
10
249.999999808188
20
0.999997278525
30
0.0
11
249.999999808188
21
8.599997278525
31
0.0
0
LINE
5
93f
100
AcDbEntity
8
0-0
6
CONTINUOUS
62
7
100
AcDbLine
10
250.299999808188
20
8.899997278525
30
0.0
11
251.499999808188
21
8.899997278525
31
0.0
0
LINE
5
940
100
AcDbEntity
8
0-0
6
CONTINUOUS
62
7
100
AcDbLine
10
251.799999808188
20
8.599997278525
30
0.0
11
251.799999808188
21
4.465698124108
31
0.0
0
LINE
5
941
100
AcDbEntity
8
0-0
6
CONTINUOUS
62
7
100
AcDbLine
10
252.665010507504
20
4.123985980067
30
0.0
11
256.119006227778
21
7.813481408541
31
0.0
0
LINE
5
942
100
AcDbEntity
8
0-0
6
CONTINUOUS
62
7
100
AcDbLine
10
256.199999808188
20
8.018508694966
30
0.0
11
256.199999808188
21
17.475733209813
31
0.0
0
LINE
5
943
100
AcDbEntity
8
0-0
6
CONTINUOUS
62
7
100
AcDbLine
10
256.112131842544
20
17.687865244169
30
0.0
11
255.087867773832
21
18.712129312881
31
0.0
0
LINE
5
944
100
AcDbEntity
8
0-0
6
CONTINUOUS
62
7
100
AcDbLine
10
254.875735739476
20
18.799997278525
30
0.0
11
252.099999808188
21
18.799997278525
31
0.0
0
LINE
5
945
100
AcDbEntity
8
0-0
6
CONTINUOUS
62
7
100
AcDbLine
10
251.799999808188
20
18.499997278525
30
0.0
11
251.799999808188
21
16.399997278525
31
0.0
0
LINE
5
946
100
AcDbEntity
8
0-0
6
CONTINUOUS
62
7
100
AcDbLine
10
251.499999808188
20
16.099997278525
30
0.0
11
250.299999808188
21
16.099997278525
31
0.0
0
LINE
5
947
100
AcDbEntity
8
0-0
6
CONTINUOUS
62
7
100
AcDbLine
10
249.999999808188
20
16.399997278525
30
0.0
11
249.999999808188
21
24.941122775479
31
0.0
0
LINE
5
948
100
AcDbEntity
8
0-0
6
CONTINUOUS
62
7
100
AcDbLine
10
250.292893027002
20
25.648229556666
30
0.0
11
256.615223497338
21
31.970560027002
31
0.0
0
LINE
5
949
100
AcDbEntity
8
0-0
6
CONTINUOUS
62
7
100
AcDbLine
10
258.029437059711
20
31.970560027002
30
0.0
11
263.403448596729
21
26.596548489985
31
0.0
0
LINE
5
94a
100
AcDbEntity
8
0-0
6
CONTINUOUS
62
7
100
AcDbLine
10
263.403448596729
20
26.172284421273
30
0.0
11
262.554920459305
21
25.323756283849
31
0.0
0
LINE
5
94b
100
AcDbEntity
8
0-0
6
CONTINUOUS
62
7
100
AcDbLine
10
262.130656390593
20
25.323756283849
30
0.0
11
260.645732150101
21
26.808680524341
31
0.0
0
LINE
5
94c
100
AcDbEntity
8
0-0
6
CONTINUOUS
62
7
100
AcDbLine
10
260.221468081390
20
26.808680524341
30
0.0
11
258.258726381592
21
24.845938824543
31
0.0
0
LINE
5
94d
100
AcDbEntity
8
0-0
6
CONTINUOUS
62
7
100
AcDbLine
10
258.170858415948
20
24.633806790188
30
0.0
11
258.170858415948
21
23.185278652764
31
0.0
0
LINE
5
94e
100
AcDbEntity
8
0-0
6
CONTINUOUS
62
7
100
AcDbLine
10
258.258726381592
20
22.973146618408
30
0.0
11
264.945993967245
21
16.285879032755
31
0.0
0
LINE
5
94f
100
AcDbEntity
8
0-0
6
CONTINUOUS
62
7
100
AcDbLine
10
265.148241261744
20
16.198173958137
30
0.0
11
270.199452294370
21
16.031650517501
31
0.0
0
LINE
5
950
100
AcDbEntity
8
0-0
6
CONTINUOUS
62
7
100
AcDbLine
10
270.569480251390
20
16.884932423051
30
0.0
11
267.646089283848
21
19.808323390594
31
0.0
0
LINE
5
951
100
AcDbEntity
8
0-0
6
CONTINUOUS
62
7
100
AcDbLine
10
267.646089283848
20
20.232587459306
30
0.0
11
268.494617421272
21
21.081115596729
31
0.0
0
LINE
5
952
100
AcDbEntity
8
0-0
6
CONTINUOUS
62
7
100
AcDbLine
10
268.918881489984
20
21.081115596729
30
0.0
11
274.707106589375
21
15.292890497339
31
0.0
0
LINE
5
953
100
AcDbEntity
8
0-0
6
CONTINUOUS
62
7
100
AcDbLine
10
273.299999808188
20
14.399997278525
30
0.0
11
269.099999808188
21
14.399997278525
31
0.0
0
LINE
5
954
100
AcDbEntity
8
0-0
6
CONTINUOUS
62
7
100
AcDbLine
10
268.799999808188
20
14.099997278525
30
0.0
11
268.799999808188
21
6.656355714678
31
0.0
0
LINE
5
955
100
AcDbEntity
8
0-0
6
CONTINUOUS
62
7
100
AcDbLine
10
268.894972521764
20
6.437349295088
30
0.0
11
272.758287664148
21
2.820628736261
31
0.0
0
LINE
5
956
100
AcDbEntity
8
0-0
6
CONTINUOUS
62
7
100
AcDbLine
10
273.599999808188
20
3.185639435577
30
0.0
11
273.599999808188
21
14.099997278525
31
0.0
0
LINE
5
957
100
AcDbEntity
8
0-0
6
CONTINUOUS
62
7
100
AcDbLine
10
267.399999808188
20
14.099997278525
30
0.0
11
267.399999808188
21
7.899997278525
31
0.0
0
LINE
5
958
100
AcDbEntity
8
0-0
6
CONTINUOUS
62
7
100
AcDbLine
10
267.099999808188
20
7.599997278525
30
0.0
11
257.899999808188
21
7.599997278525
31
0.0
0
LINE
5
959
100
AcDbEntity
8
0-0
6
CONTINUOUS
62
7
100
AcDbLine
10
257.599999808188
20
7.899997278525
30
0.0
11
257.599999808188
21
14.099997278525
31
0.0
0
LINE
5
95a
100
AcDbEntity
8
0-0
6
CONTINUOUS
62
7
100
AcDbLine
10
257.899999808188
20
14.399997278525
30
0.0
11
267.099999808188
21
14.399997278525
31
0.0
0
LINE
5
95b
100
AcDbEntity
8
0-0
6
CONTINUOUS
62
7
100
AcDbLine
10
262.244869952966
20
15.799997278525
30
0.0
11
257.899999808188
21
15.799997278525
31
0.0
0
LINE
5
95c
100
AcDbEntity
8
0-0
6
CONTINUOUS
62
7
100
AcDbLine
10
257.599999808188
20
16.099997278525
30
0.0
11
257.599999808188
21
18.055632197136
31
0.0
0
LINE
5
95d
100
AcDbEntity
8
0-0
6
CONTINUOUS
62
7
100
AcDbLine
10
257.512131842544
20
18.267764231492
30
0.0
11
256.773235088336
21
19.006660985700
31
0.0
0
LINE
5
95e
100
AcDbEntity
8
0-0
6
CONTINUOUS
62
7
100
AcDbLine
10
256.719430450422
20
19.357637128114
30
0.0
11
257.619335904930
21
21.081281474825
31
0.0
0
LINE
5
95f
100
AcDbEntity
8
0-0
6
CONTINUOUS
62
7
100
AcDbLine
10
258.097404611555
20
21.154569401123
30
0.0
11
262.598423343559
21
16.653550669118
31
0.0
0
LINE
5
960
100
AcDbEntity
8
0-0
6
CONTINUOUS
62
7
100
AcDbLine
10
255.664037421012
20
20.361153170467
30
0.0
11
256.736795088217
21
22.415872006995
31
0.0
0
LINE
5
961
100
AcDbEntity
8
0-0
6
CONTINUOUS
62
7
100
AcDbLine
10
256.770858415948
20
22.554716115053
30
0.0
11
256.770858415948
21
25.213705777510
31
0.0
0
LINE
5
962
100
AcDbEntity
8
0-0
6
CONTINUOUS
62
7
100
AcDbLine
10
256.858726381593
20
25.425837811866
30
0.0
11
259.514361300203
21
28.081472730476
31
0.0
0
LINE
5
963
100
AcDbEntity
8
0-0
6
CONTINUOUS
62
7
100
AcDbLine
10
259.514361300203
20
28.505736799188
30
0.0
11
257.534462312880
21
30.485635786511
31
0.0
0
LINE
5
964
100
AcDbEntity
8
0-0
6
CONTINUOUS
62
7
100
AcDbLine
10
257.110198244169
20
30.485635786511
30
0.0
11
251.487867773832
21
24.863305316174
31
0.0
0
LINE
5
965
100
AcDbEntity
8
0-0
6
CONTINUOUS
62
7
100
AcDbLine
10
251.399999808188
20
24.651173281818
30
0.0
11
251.399999808188
21
20.499997278525
31
0.0
0
LINE
5
966
100
AcDbEntity
8
0-0
6
CONTINUOUS
62
7
100
AcDbLine
10
251.699999808188
20
20.199997278525
30
0.0
11
255.398100748742
21
20.199997278525
31
0.0
0
ARC
5
967
100
AcDbEntity
8
0-0
6
CONTINUOUS
62
7
100
AcDbCircle
10
273.099999808188
20
3.185639435577
30
0.0
40
0.500000000000
100
AcDbArc
50
226.888188006740
51
360.000000000000
0
ARC
5
968
100
AcDbEntity
8
0-0
6
CONTINUOUS
62
7
100
AcDbCircle
10
270.215926860797
20
16.531379032458
30
0.0
40
0.500000000000
100
AcDbArc
50
268.111811993259
51
405.000000000000
0
ARC
5
969
100
AcDbEntity
8
0-0
6
CONTINUOUS
62
7
100
AcDbCircle
10
265.158126001601
20
16.498011067111
30
0.0
40
0.300000000000
100
AcDbArc
50
225.000000000000
51
268.111811993260
0
ARC
5
96a
100
AcDbEntity
8
0-0
6
CONTINUOUS
62
7
100
AcDbCircle
10
259.302229265847
20
28.293604764832
30
0.0
40
0.300000000000
100
AcDbArc
50
315.000000000000
51
405.000000000000
0
ARC
5
96b
100
AcDbEntity
8
0-0
6
CONTINUOUS
62
7
100
AcDbCircle
10
257.070858415948
20
25.213705777510
30
0.0
40
0.300000000000
100
AcDbArc
50
135.000000000000
51
180.000000000000
0
ARC
5
96c
100
AcDbEntity
8
0-0
6
CONTINUOUS
62
7
100
AcDbCircle
10
251.699999808188
20
20.499997278525
30
0.0
40
0.300000000000
100
AcDbArc
50
180.000000000000
51
270.000000000000
0
ARC
5
96d
100
AcDbEntity
8
0-0
6
CONTINUOUS
62
7
100
AcDbCircle
10
251.699999808188
20
24.651173281818
30
0.0
40
0.300000000000
100
AcDbArc
50
135.000000000000
51
180.000000000000
0
ARC
5
96e
100
AcDbEntity
8
0-0
6
CONTINUOUS
62
7
100
AcDbCircle
10
257.322330278525
20
30.273503752154
30
0.0
40
0.300000000000
100
AcDbArc
50
45.000000000000
51
135.000000000000
0
ARC
5
96f
100
AcDbEntity
8
0-0
6
CONTINUOUS
62
7
100
AcDbCircle
10
250.299999808188
20
16.399997278525
30
0.0
40
0.300000000000
100
AcDbArc
50
180.000000000000
51
270.000000000000
0
ARC
5
970
100
AcDbEntity
8
0-0
6
CONTINUOUS
62
7
100
AcDbCircle
10
251.499999808188
20
16.399997278525
30
0.0
40
0.300000000000
100
AcDbArc
50
270.000000000000
51
360.000000000000
0
ARC
5
971
100
AcDbEntity
8
0-0
6
CONTINUOUS
62
7
100
AcDbCircle
10
252.099999808188
20
18.499997278525
30
0.0
40
0.300000000000
100
AcDbArc
50
90.000000000000
51
180.000000000000
0
ARC
5
972
100
AcDbEntity
8
0-0
6
CONTINUOUS
62
7
100
AcDbCircle
10
254.875735739476
20
18.499997278525
30
0.0
40
0.300000000000
100
AcDbArc
50
44.999999999999
51
90.000000000000
0
ARC
5
973
100
AcDbEntity
8
0-0
6
CONTINUOUS
62
7
100
AcDbCircle
10
255.899999808188
20
17.475733209813
30
0.0
40
0.300000000000
100
AcDbArc
50
0.000000000000
51
44.999999999999
0
ARC
5
974
100
AcDbEntity
8
0-0
6
CONTINUOUS
62
7
100
AcDbCircle
10
255.899999808188
20
8.018508694966
30
0.0
40
0.300000000000
100
AcDbArc
50
316.888188006740
51
360.000000000000
0
ARC
5
975
100
AcDbEntity
8
0-0
6
CONTINUOUS
62
7
100
AcDbCircle
10
251.499999808188
20
8.599997278525
30
0.0
40
0.300000000000
100
AcDbArc
50
0.000000000000
51
90.000000000000
0
ARC
5
976
100
AcDbEntity
8
0-0
6
CONTINUOUS
62
7
100
AcDbCircle
10
250.299999808188
20
8.599997278525
30
0.0
40
0.300000000000
100
AcDbArc
50
90.000000000000
51
180.000000000000
0
ARC
5
977
100
AcDbEntity
8
0-0
6
CONTINUOUS
62
7
100
AcDbCircle
10
258.599999808188
20
0.299997278525
30
0.0
40
0.300000000000
100
AcDbArc
50
270.000000000000
51
360.000000000000
0
ARC
5
978
100
AcDbEntity
8
0-0
6
CONTINUOUS
62
7
100
AcDbCircle
10
258.599999808188
20
1.499997278525
30
0.0
40
0.300000000000
100
AcDbArc
50
0.000000000000
51
90.000000000000
0
ARC
5
979
100
AcDbEntity
8
0-0
6
CONTINUOUS
62
7
100
AcDbCircle
10
258.018511224629
20
5.899997278525
30
0.0
40
0.300000000000
100
AcDbArc
50
90.000000000000
51
133.111811993260
0
ARC
5
97a
100
AcDbEntity
8
0-0
6
CONTINUOUS
62
7
100
AcDbCircle
10
266.981488391748
20
5.899997278525
30
0.0
40
0.300000000000
100
AcDbArc
50
46.888188006740
51
90.000000000000
0
ARC
5
97b
100
AcDbEntity
8
0-0
6
CONTINUOUS
62
7
100
AcDbCircle
10
266.399999808188
20
1.499997278525
30
0.0
40
0.300000000000
100
AcDbArc
50
90.000000000000
51
180.000000000000
0
ARC
5
97c
100
AcDbEntity
8
0-0
6
CONTINUOUS
62
7
100
AcDbCircle
10
266.399999808188
20
0.299997278525
30
0.0
40
0.300000000000
100
AcDbArc
50
180.000000000000
51
270.000000000000
0
ARC
5
97d
100
AcDbEntity
8
0-0
6
CONTINUOUS
62
7
100
AcDbCircle
10
268.706749455628
20
20.868983562374
30
0.0
40
0.300000000000
100
AcDbArc
50
45.000000000000
51
134.999999999997
0
ARC
5
97e
100
AcDbEntity
8
0-0
6
CONTINUOUS
62
7
100
AcDbCircle
10
267.858221318204
20
20.020455424950
30
0.0
40
0.300000000000
100
AcDbArc
50
134.999999999998
51
225.000000000000
0
ARC
5
97f
100
AcDbEntity
8
0-0
6
CONTINUOUS
62
7
100
AcDbCircle
10
258.470858415948
20
23.185278652764
30
0.0
40
0.300000000000
100
AcDbArc
50
180.000000000000
51
225.000000000000
0
ARC
5
980
100
AcDbEntity
8
0-0
6
CONTINUOUS
62
7
100
AcDbCircle
10
258.470858415948
20
24.633806790188
30
0.0
40
0.300000000000
100
AcDbArc
50
134.999999999999
51
180.000000000000
0
ARC
5
981
100
AcDbEntity
8
0-0
6
CONTINUOUS
62
7
100
AcDbCircle
10
260.433600115745
20
26.596548489985
30
0.0
40
0.300000000000
100
AcDbArc
50
45.000000000000
51
134.999999999999
0
ARC
5
982
100
AcDbEntity
8
0-0
6
CONTINUOUS
62
7
100
AcDbCircle
10
262.342788424949
20
25.535888318205
30
0.0
40
0.300000000000
100
AcDbArc
50
224.999999999999
51
315.000000000000
0
ARC
5
983
100
AcDbEntity
8
0-0
6
CONTINUOUS
62
7
100
AcDbCircle
10
273.999999808188
20
14.585783716152
30
0.0
40
1.000000000000
100
AcDbArc
50
0.000000000000
51
45.000000000000
0
ARC
5
984
100
AcDbEntity
8
0-0
6
CONTINUOUS
62
7
100
AcDbCircle
10
273.999999808188
20
0.999997278525
30
0.0
40
1.000000000000
100
AcDbArc
50
270.000000000000
51
360.000000000000
0
ARC
5
985
100
AcDbEntity
8
0-0
6
CONTINUOUS
62
7
100
AcDbCircle
10
250.999999808188
20
0.999997278525
30
0.0
40
1.000000000000
100
AcDbArc
50
180.000000000000
51
270.000000000000
0
ARC
5
986
100
AcDbEntity
8
0-0
6
CONTINUOUS
62
7
100
AcDbCircle
10
250.999999808188
20
24.941122775479
30
0.0
40
1.000000000000
100
AcDbArc
50
135.000000000000
51
180.000000000000
0
ARC
5
987
100
AcDbEntity
8
0-0
6
CONTINUOUS
62
7
100
AcDbCircle
10
257.322330278525
20
31.263453245816
30
0.0
40
1.000000000000
100
AcDbArc
50
45.000000000000
51
135.000000000000
0
ARC
5
988
100
AcDbEntity
8
0-0
6
CONTINUOUS
62
7
100
AcDbCircle
10
252.299999808188
20
4.465698124108
30
0.0
40
0.500000000000
100
AcDbArc
50
180.000000000000
51
316.888188006740
0
ARC
5
989
100
AcDbEntity
8
0-0
6
CONTINUOUS
62
7
100
AcDbCircle
10
254.465700653771
20
2.299997278525
30
0.0
40
0.500000000000
100
AcDbArc
50
133.111811993259
51
270.000000000000
0
ARC
5
98a
100
AcDbEntity
8
0-0
6
CONTINUOUS
62
7
100
AcDbCircle
10
270.534298962605
20
2.299997278525
30
0.0
40
0.500000000000
100
AcDbArc
50
270.000000000000
51
406.888188006740
0
ARC
5
98b
100
AcDbEntity
8
0-0
6
CONTINUOUS
62
7
100
AcDbCircle
10
263.191316562373
20
26.384416455629
30
0.0
40
0.300000000000
100
AcDbArc
50
315.000000000001
51
405.000000000000
0
ARC
5
98c
100
AcDbEntity
8
0-0
6
CONTINUOUS
62
7
100
AcDbCircle
10
257.899999808188
20
7.899997278525
30
0.0
40
0.300000000000
100
AcDbArc
50
180.000000000000
51
222.568971488927
0
ARC
5
98d
100
AcDbEntity
8
0-0
6
CONTINUOUS
62
7
100
AcDbCircle
10
257.899999808188
20
7.899997278525
30
0.0
40
0.300000000000
100
AcDbArc
50
222.568971488927
51
270.000000000000
0
ARC
5
98e
100
AcDbEntity
8
0-0
6
CONTINUOUS
62
7
100
AcDbCircle
10
267.099999808188
20
7.899997278525
30
0.0
40
0.300000000000
100
AcDbArc
50
270.000000000000
51
360.000000000000
0
ARC
5
98f
100
AcDbEntity
8
0-0
6
CONTINUOUS
62
7
100
AcDbCircle
10
257.299999808188
20
18.055632197136
30
0.0
40
0.300000000000
100
AcDbArc
50
0.000000000000
51
44.999999999998
0
ARC
5
990
100
AcDbEntity
8
0-0
6
CONTINUOUS
62
7
100
AcDbCircle
10
257.899999808188
20
14.099997278525
30
0.0
40
0.300000000000
100
AcDbArc
50
90.000000000000
51
180.000000000000
0
ARC
5
991
100
AcDbEntity
8
0-0
6
CONTINUOUS
62
7
100
AcDbCircle
10
267.099999808188
20
14.099997278525
30
0.0
40
0.300000000000
100
AcDbArc
50
0.000000000000
51
90.000000000000
0
ARC
5
992
100
AcDbEntity
8
0-0
6
CONTINUOUS
62
7
100
AcDbCircle
10
269.099999808188
20
14.099997278525
30
0.0
40
0.300000000000
100
AcDbArc
50
90.000000000000
51
180.000000000000
0
ARC
5
993
100
AcDbEntity
8
0-0
6
CONTINUOUS
62
7
100
AcDbCircle
10
273.299999808188
20
14.099997278525
30
0.0
40
0.300000000000
100
AcDbArc
50
0.000000000000
51
90.000000000000
0
ARC
5
994
100
AcDbEntity
8
0-0
6
CONTINUOUS
62
7
100
AcDbCircle
10
257.899999808188
20
16.099997278525
30
0.0
40
0.300000000000
100
AcDbArc
50
180.000000000000
51
270.000000000000
0
ARC
5
995
100
AcDbEntity
8
0-0
6
CONTINUOUS
62
7
100
AcDbCircle
10
262.244869952966
20
16.299997278525
30
0.0
40
0.500000000000
100
AcDbArc
50
270.000000000000
51
405.000000000000
0
ARC
5
996
100
AcDbEntity
8
0-0
6
CONTINUOUS
62
7
100
AcDbCircle
10
269.099999808188
20
6.656355714678
30
0.0
40
0.300000000000
100
AcDbArc
50
180.000000000000
51
226.888188006741
0
ARC
5
997
100
AcDbEntity
8
0-0
6
CONTINUOUS
62
7
100
AcDbCircle
10
256.470858415948
20
22.554716115053
30
0.0
40
0.300000000000
100
AcDbArc
50
332.431180429496
51
360.000000000000
0
ARC
5
998
100
AcDbEntity
8
0-0
6
CONTINUOUS
62
7
100
AcDbCircle
10
255.398100748742
20
20.499997278525
30
0.0
40
0.300000000000
100
AcDbArc
50
270.000000000000
51
332.431180429496
0
ARC
5
999
100
AcDbEntity
8
0-0
6
CONTINUOUS
62
7
100
AcDbCircle
10
256.985367122692
20
19.218793020056
30
0.0
40
0.300000000000
100
AcDbArc
50
152.431180429495
51
224.999999999997
0
ARC
5
99a
100
AcDbEntity
8
0-0
6
CONTINUOUS
62
7
100
AcDbCircle
10
257.885272577199
20
20.942437366767
30
0.0
40
0.300000000000
100
AcDbArc
50
45.000000000000
51
152.431180429495
0
LINE
5
99b
100
AcDbEntity
8
0-1
6
CENTER2
62
4
100
AcDbLine
10
261.777103000000
20
19.454770000000
30
0.0
11
266.161165000000
21
23.838830000000
31
0.0
0
LINE
5
99c
100
AcDbEntity
8
0-1
6
CENTER2
62
4
100
AcDbLine
10
262.500000000000
20
7.600000000000
30
0.0
11
262.500000000000
21
14.400000000000
31
0.0
0
LINE
5
99d
100
AcDbEntity
8
0-1
6
CENTER2
62
4
100
AcDbLine
10
267.400000000000
20
11.000000000000
30
0.0
11
257.600000000000
21
11.000000000000
31
0.0
0
LINE
5
99e
100
AcDbEntity
8
0-1
6
CENTER2
62
4
100
AcDbLine
10
256.200000000000
20
12.500000000000
30
0.0
11
250.000000000000
21
12.500000000000
31
0.0
0
LINE
5
99f
100
AcDbEntity
8
0-1
6
CENTER2
62
4
100
AcDbLine
10
262.500000000000
20
-0.000000000000
30
0.0
11
262.500000000000
21
6.200000000000
31
0.0
0
ARC
5
9a0
100
AcDbEntity
8
0-0
6
CONTINUOUS
62
7
100
AcDbCircle
10
301.000000000000
20
15.000000000000
30
0.0
40
1.000000000000
100
AcDbArc
50
90.000000000000
51
180.000000000000
0
ARC
5
9a1
100
AcDbEntity
8
0-0
6
CONTINUOUS
62
7
100
AcDbCircle
10
329.000000000000
20
1.000000000000
30
0.0
40
1.000000000000
100
AcDbArc
50
270.000000000000
51
360.000000000000
0
ARC
5
9a2
100
AcDbEntity
8
0-0
6
CONTINUOUS
62
7
100
AcDbCircle
10
301.000000000000
20
1.000000000000
30
0.0
40
1.000000000000
100
AcDbArc
50
180.000000000000
51
270.000000000000
0
LINE
5
9a3
100
AcDbEntity
8
0-0
6
CONTINUOUS
62
7
100
AcDbLine
10
302.570263165185
20
16.000000000000
30
0.0
11
301.000000000000
21
16.000000000000
31
0.0
0
ARC
5
9a4
100
AcDbEntity
8
0-0
6
CONTINUOUS
62
7
100
AcDbCircle
10
302.570263165185
20
15.700000000000
30
0.0
40
0.300000000000
100
AcDbArc
50
323.614132183145
51
450.000000000000
0
ARC
5
9a5
100
AcDbEntity
8
0-0
6
CONTINUOUS
62
7
100
AcDbCircle
10
303.340050251573
20
9.300000000000
30
0.0
40
0.300000000000
100
AcDbArc
50
221.328658646343
51
270.000000000000
0
ARC
5
9a6
100
AcDbEntity
8
0-0
6
CONTINUOUS
62
7
100
AcDbCircle
10
329.000000000000
20
15.000000000000
30
0.0
40
1.000000000000
100
AcDbArc
50
0.000000000000
51
90.000000000000
0
LINE
5
9a7
100
AcDbEntity
8
0-0
6
CONTINUOUS
62
7
100
AcDbLine
10
327.429736834815
20
16.000000000000
30
0.0
11
329.000000000000
21
16.000000000000
31
0.0
0
ARC
5
9a8
100
AcDbEntity
8
0-0
6
CONTINUOUS
62
7
100
AcDbCircle
10
327.429736834815
20
15.700000000000
30
0.0
40
0.300000000000
100
AcDbArc
50
90.000000000000
51
216.385867816855
0
LINE
5
9a9
100
AcDbEntity
8
0-0
6
CONTINUOUS
62
7
100
AcDbLine
10
326.659949748426
20
9.000000000000
30
0.0
11
303.340050251573
21
9.000000000000
31
0.0
0
ARC
5
9aa
100
AcDbEntity
8
0-0
6
CONTINUOUS
62
7
100
AcDbCircle
10
326.659949748426
20
9.300000000000
30
0.0
40
0.300000000000
100
AcDbArc
50
270.000000000000
51
318.671341353657
0
LINE
5
9ab
100
AcDbEntity
8
0-0
6
CONTINUOUS
62
7
100
AcDbLine
10
330.000000000000
20
6.100000000000
30
0.0
11
330.000000000000
21
15.000000000000
31
0.0
0
ARC
5
9ac
100
AcDbEntity
8
0-0
6
CONTINUOUS
62
7
100
AcDbCircle
10
329.700000000000
20
6.100000000000
30
0.0
40
0.300000000000
100
AcDbArc
50
270.000000000000
51
360.000000000000
0
LINE
5
9ad
100
AcDbEntity
8
0-0
6
CONTINUOUS
62
7
100
AcDbLine
10
328.800000000000
20
5.800000000000
30
0.0
11
329.700000000000
21
5.800000000000
31
0.0
0
ARC
5
9ae
100
AcDbEntity
8
0-0
6
CONTINUOUS
62
7
100
AcDbCircle
10
328.800000000000
20
6.100000000000
30
0.0
40
0.300000000000
100
AcDbArc
50
180.000000000000
51
270.000000000000
0
LINE
5
9af
100
AcDbEntity
8
0-0
6
CONTINUOUS
62
7
100
AcDbLine
10
328.500000000000
20
6.700000000000
30
0.0
11
328.500000000000
21
6.100000000000
31
0.0
0
ARC
5
9b0
100
AcDbEntity
8
0-0
6
CONTINUOUS
62
7
100
AcDbCircle
10
328.200000000000
20
6.700000000000
30
0.0
40
0.300000000000
100
AcDbArc
50
0.000000000000
51
90.000000000000
0
LINE
5
9b1
100
AcDbEntity
8
0-0
6
CONTINUOUS
62
7
100
AcDbLine
10
326.000000000000
20
7.000000000000
30
0.0
11
328.200000000000
21
7.000000000000
31
0.0
0
ARC
5
9b2
100
AcDbEntity
8
0-0
6
CONTINUOUS
62
7
100
AcDbCircle
10
326.000000000000
20
6.700000000000
30
0.0
40
0.300000000000
100
AcDbArc
50
90.000000000000
51
180.000000000000
0
ARC
5
9b3
100
AcDbEntity
8
0-0
6
CONTINUOUS
62
7
100
AcDbCircle
10
328.800000000000
20
2.300000000000
30
0.0
40
0.300000000000
100
AcDbArc
50
90.000000000000
51
180.000000000000
0
LINE
5
9b4
100
AcDbEntity
8
0-0
6
CONTINUOUS
62
7
100
AcDbLine
10
329.700000000000
20
2.600000000000
30
0.0
11
328.800000000000
21
2.600000000000
31
0.0
0
LINE
5
9b5
100
AcDbEntity
8
0-0
6
CONTINUOUS
62
7
100
AcDbLine
10
330.000000000000
20
2.300000000000
30
0.0
11
330.000000000000
21
1.000000000000
31
0.0
0
ARC
5
9b6
100
AcDbEntity
8
0-0
6
CONTINUOUS
62
7
100
AcDbCircle
10
329.700000000000
20
2.300000000000
30
0.0
40
0.300000000000
100
AcDbArc
50
0.000000000000
51
90.000000000000
0
LINE
5
9b7
100
AcDbEntity
8
0-0
6
CONTINUOUS
62
7
100
AcDbLine
10
328.500000000000
20
1.700000000000
30
0.0
11
328.500000000000
21
2.300000000000
31
0.0
0
ARC
5
9b8
100
AcDbEntity
8
0-0
6
CONTINUOUS
62
7
100
AcDbCircle
10
328.200000000000
20
1.700000000000
30
0.0
40
0.300000000000
100
AcDbArc
50
270.000000000000
51
360.000000000000
0
LINE
5
9b9
100
AcDbEntity
8
0-0
6
CONTINUOUS
62
7
100
AcDbLine
10
326.000000000000
20
1.400000000000
30
0.0
11
328.200000000000
21
1.400000000000
31
0.0
0
ARC
5
9ba
100
AcDbEntity
8
0-0
6
CONTINUOUS
62
7
100
AcDbCircle
10
326.000000000000
20
1.700000000000
30
0.0
40
0.300000000000
100
AcDbArc
50
180.000000000000
51
270.000000000000
0
LINE
5
9bb
100
AcDbEntity
8
0-0
6
CONTINUOUS
62
7
100
AcDbLine
10
325.700000000000
20
2.300000000000
30
0.0
11
325.700000000000
21
1.700000000000
31
0.0
0
ARC
5
9bc
100
AcDbEntity
8
0-0
6
CONTINUOUS
62
7
100
AcDbCircle
10
325.400000000000
20
2.300000000000
30
0.0
40
0.300000000000
100
AcDbArc
50
0.000000000000
51
90.000000000000
0
LINE
5
9bd
100
AcDbEntity
8
0-0
6
CONTINUOUS
62
7
100
AcDbLine
10
324.300000000000
20
2.600000000000
30
0.0
11
325.400000000000
21
2.600000000000
31
0.0
0
ARC
5
9be
100
AcDbEntity
8
0-0
6
CONTINUOUS
62
7
100
AcDbCircle
10
324.300000000000
20
2.900000000000
30
0.0
40
0.300000000000
100
AcDbArc
50
180.000000000000
51
270.000000000000
0
LINE
5
9bf
100
AcDbEntity
8
0-0
6
CONTINUOUS
62
7
100
AcDbLine
10
324.000000000000
20
5.500000000000
30
0.0
11
324.000000000000
21
2.900000000000
31
0.0
0
ARC
5
9c0
100
AcDbEntity
8
0-0
6
CONTINUOUS
62
7
100
AcDbCircle
10
324.300000000000
20
5.500000000000
30
0.0
40
0.300000000000
100
AcDbArc
50
90.000000000000
51
180.000000000000
0
LINE
5
9c1
100
AcDbEntity
8
0-0
6
CONTINUOUS
62
7
100
AcDbLine
10
325.400000000000
20
5.800000000000
30
0.0
11
324.300000000000
21
5.800000000000
31
0.0
0
LINE
5
9c2
100
AcDbEntity
8
0-0
6
CONTINUOUS
62
7
100
AcDbLine
10
325.700000000000
20
6.100000000000
30
0.0
11
325.700000000000
21
6.700000000000
31
0.0
0
ARC
5
9c3
100
AcDbEntity
8
0-0
6
CONTINUOUS
62
7
100
AcDbCircle
10
325.400000000000
20
6.100000000000
30
0.0
40
0.300000000000
100
AcDbArc
50
270.000000000000
51
360.000000000000
0
ARC
5
9c4
100
AcDbEntity
8
0-0
6
CONTINUOUS
62
7
100
AcDbCircle
10
300.300000000000
20
6.100000000000
30
0.0
40
0.300000000000
100
AcDbArc
50
180.000000000000
51
270.000000000000
0
LINE
5
9c5
100
AcDbEntity
8
0-0
6
CONTINUOUS
62
7
100
AcDbLine
10
301.200000000000
20
5.800000000000
30
0.0
11
300.300000000000
21
5.800000000000
31
0.0
0
ARC
5
9c6
100
AcDbEntity
8
0-0
6
CONTINUOUS
62
7
100
AcDbCircle
10
301.200000000000
20
6.100000000000
30
0.0
40
0.300000000000
100
AcDbArc
50
270.000000000000
51
360.000000000000
0
LINE
5
9c7
100
AcDbEntity
8
0-0
6
CONTINUOUS
62
7
100
AcDbLine
10
301.500000000000
20
6.700000000000
30
0.0
11
301.500000000000
21
6.100000000000
31
0.0
0
ARC
5
9c8
100
AcDbEntity
8
0-0
6
CONTINUOUS
62
7
100
AcDbCircle
10
301.800000000000
20
6.700000000000
30
0.0
40
0.300000000000
100
AcDbArc
50
90.000000000000
51
180.000000000000
0
LINE
5
9c9
100
AcDbEntity
8
0-0
6
CONTINUOUS
62
7
100
AcDbLine
10
304.000000000000
20
7.000000000000
30
0.0
11
301.800000000000
21
7.000000000000
31
0.0
0
ARC
5
9ca
100
AcDbEntity
8
0-0
6
CONTINUOUS
62
7
100
AcDbCircle
10
304.000000000000
20
6.700000000000
30
0.0
40
0.300000000000
100
AcDbArc
50
0.000000000000
51
90.000000000000
0
ARC
5
9cb
100
AcDbEntity
8
0-0
6
CONTINUOUS
62
7
100
AcDbCircle
10
301.200000000000
20
2.300000000000
30
0.0
40
0.300000000000
100
AcDbArc
50
0.000000000000
51
90.000000000000
0
LINE
5
9cc
100
AcDbEntity
8
0-0
6
CONTINUOUS
62
7
100
AcDbLine
10
300.300000000000
20
2.600000000000
30
0.0
11
301.200000000000
21
2.600000000000
31
0.0
0
ARC
5
9cd
100
AcDbEntity
8
0-0
6
CONTINUOUS
62
7
100
AcDbCircle
10
300.300000000000
20
2.300000000000
30
0.0
40
0.300000000000
100
AcDbArc
50
90.000000000000
51
180.000000000000
0
LINE
5
9ce
100
AcDbEntity
8
0-0
6
CONTINUOUS
62
7
100
AcDbLine
10
301.500000000000
20
1.700000000000
30
0.0
11
301.500000000000
21
2.300000000000
31
0.0
0
ARC
5
9cf
100
AcDbEntity
8
0-0
6
CONTINUOUS
62
7
100
AcDbCircle
10
301.800000000000
20
1.700000000000
30
0.0
40
0.300000000000
100
AcDbArc
50
180.000000000000
51
270.000000000000
0
LINE
5
9d0
100
AcDbEntity
8
0-0
6
CONTINUOUS
62
7
100
AcDbLine
10
304.000000000000
20
1.400000000000
30
0.0
11
301.800000000000
21
1.400000000000
31
0.0
0
ARC
5
9d1
100
AcDbEntity
8
0-0
6
CONTINUOUS
62
7
100
AcDbCircle
10
304.000000000000
20
1.700000000000
30
0.0
40
0.300000000000
100
AcDbArc
50
270.000000000000
51
360.000000000000
0
LINE
5
9d2
100
AcDbEntity
8
0-0
6
CONTINUOUS
62
7
100
AcDbLine
10
304.300000000000
20
2.300000000000
30
0.0
11
304.300000000000
21
1.700000000000
31
0.0
0
ARC
5
9d3
100
AcDbEntity
8
0-0
6
CONTINUOUS
62
7
100
AcDbCircle
10
304.600000000000
20
2.300000000000
30
0.0
40
0.300000000000
100
AcDbArc
50
90.000000000000
51
180.000000000000
0
LINE
5
9d4
100
AcDbEntity
8
0-0
6
CONTINUOUS
62
7
100
AcDbLine
10
305.700000000000
20
2.600000000000
30
0.0
11
304.600000000000
21
2.600000000000
31
0.0
0
ARC
5
9d5
100
AcDbEntity
8
0-0
6
CONTINUOUS
62
7
100
AcDbCircle
10
305.700000000000
20
2.900000000000
30
0.0
40
0.300000000000
100
AcDbArc
50
270.000000000000
51
360.000000000000
0
LINE
5
9d6
100
AcDbEntity
8
0-0
6
CONTINUOUS
62
7
100
AcDbLine
10
306.000000000000
20
5.500000000000
30
0.0
11
306.000000000000
21
2.900000000000
31
0.0
0
ARC
5
9d7
100
AcDbEntity
8
0-0
6
CONTINUOUS
62
7
100
AcDbCircle
10
305.700000000000
20
5.500000000000
30
0.0
40
0.300000000000
100
AcDbArc
50
0.000000000000
51
90.000000000000
0
LINE
5
9d8
100
AcDbEntity
8
0-0
6
CONTINUOUS
62
7
100
AcDbLine
10
304.600000000000
20
5.800000000000
30
0.0
11
305.700000000000
21
5.800000000000
31
0.0
0
LINE
5
9d9
100
AcDbEntity
8
0-0
6
CONTINUOUS
62
7
100
AcDbLine
10
304.300000000000
20
6.100000000000
30
0.0
11
304.300000000000
21
6.700000000000
31
0.0
0
ARC
5
9da
100
AcDbEntity
8
0-0
6
CONTINUOUS
62
7
100
AcDbCircle
10
304.600000000000
20
6.100000000000
30
0.0
40
0.300000000000
100
AcDbArc
50
180.000000000000
51
270.000000000000
0
LINE
5
9db
100
AcDbEntity
8
0-0
6
CONTINUOUS
62
7
100
AcDbLine
10
300.000000000000
20
1.000000000000
30
0.0
11
300.000000000000
21
2.300000000000
31
0.0
0
LINE
5
9dc
100
AcDbEntity
8
0-0
6
CONTINUOUS
62
7
100
AcDbLine
10
300.000000000000
20
6.100000000000
30
0.0
11
300.000000000000
21
15.000000000000
31
0.0
0
LINE
5
9dd
100
AcDbEntity
8
0-0
6
CONTINUOUS
62
7
100
AcDbLine
10
318.600000000000
20
0.300000000000
30
0.0
11
318.600000000000
21
1.500000000000
31
0.0
0
LINE
5
9de
100
AcDbEntity
8
0-0
6
CONTINUOUS
62
7
100
AcDbLine
10
311.400000000000
20
0.300000000000
30
0.0
11
311.400000000000
21
1.500000000000
31
0.0
0
ARC
5
9df
100
AcDbEntity
8
0-0
6
CONTINUOUS
62
7
100
AcDbCircle
10
318.900000000000
20
1.500000000000
30
0.0
40
0.300000000000
100
AcDbArc
50
90.000000000000
51
180.000000000000
0
LINE
5
9e0
100
AcDbEntity
8
0-0
6
CONTINUOUS
62
7
100
AcDbLine
10
320.700000000000
20
1.800000000000
30
0.0
11
318.900000000000
21
1.800000000000
31
0.0
0
ARC
5
9e1
100
AcDbEntity
8
0-0
6
CONTINUOUS
62
7
100
AcDbCircle
10
320.700000000000
20
2.100000000000
30
0.0
40
0.300000000000
100
AcDbArc
50
270.000000000000
51
360.000000000000
0
LINE
5
9e2
100
AcDbEntity
8
0-0
6
CONTINUOUS
62
7
100
AcDbLine
10
321.000000000000
20
4.875735931288
30
0.0
11
321.000000000000
21
2.100000000000
31
0.0
0
ARC
5
9e3
100
AcDbEntity
8
0-0
6
CONTINUOUS
62
7
100
AcDbCircle
10
320.700000000000
20
4.875735931288
30
0.0
40
0.300000000000
100
AcDbArc
50
360.000000000000
51
405.000000000000
0
LINE
5
9e4
100
AcDbEntity
8
0-0
6
CONTINUOUS
62
7
100
AcDbLine
10
319.887867965644
20
6.112132034356
30
0.0
11
320.912132034356
21
5.087867965644
31
0.0
0
ARC
5
9e5
100
AcDbEntity
8
0-0
6
CONTINUOUS
62
7
100
AcDbCircle
10
319.675735931288
20
5.900000000000
30
0.0
40
0.300000000000
100
AcDbArc
50
45.000000000000
51
90.000000000000
0
LINE
5
9e6
100
AcDbEntity
8
0-0
6
CONTINUOUS
62
7
100
AcDbLine
10
309.087867965644
20
5.087867965644
30
0.0
11
310.112132034356
21
6.112132034356
31
0.0
0
ARC
5
9e7
100
AcDbEntity
8
0-0
6
CONTINUOUS
62
7
100
AcDbCircle
10
309.300000000000
20
4.875735931288
30
0.0
40
0.300000000000
100
AcDbArc
50
135.000000000000
51
180.000000000000
0
LINE
5
9e8
100
AcDbEntity
8
0-0
6
CONTINUOUS
62
7
100
AcDbLine
10
309.000000000000
20
2.100000000000
30
0.0
11
309.000000000000
21
4.875735931288
31
0.0
0
ARC
5
9e9
100
AcDbEntity
8
0-0
6
CONTINUOUS
62
7
100
AcDbCircle
10
309.300000000000
20
2.100000000000
30
0.0
40
0.300000000000
100
AcDbArc
50
180.000000000000
51
270.000000000000
0
LINE
5
9ea
100
AcDbEntity
8
0-0
6
CONTINUOUS
62
7
100
AcDbLine
10
311.100000000000
20
1.800000000000
30
0.0
11
309.300000000000
21
1.800000000000
31
0.0
0
ARC
5
9eb
100
AcDbEntity
8
0-0
6
CONTINUOUS
62
7
100
AcDbCircle
10
311.100000000000
20
1.500000000000
30
0.0
40
0.300000000000
100
AcDbArc
50
360.000000000000
51
450.000000000000
0
LINE
5
9ec
100
AcDbEntity
8
0-0
6
CONTINUOUS
62
7
100
AcDbLine
10
310.324264068712
20
6.200000000000
30
0.0
11
319.675735931288
21
6.200000000000
31
0.0
0
ARC
5
9ed
100
AcDbEntity
8
0-0
6
CONTINUOUS
62
7
100
AcDbCircle
10
310.324264068712
20
5.900000000000
30
0.0
40
0.300000000000
100
AcDbArc
50
90.000000000000
51
135.000000000000
0
ARC
5
9ee
100
AcDbEntity
8
0-0
6
CONTINUOUS
62
7
100
AcDbCircle
10
311.100000000000
20
0.300000000000
30
0.0
40
0.300000000000
100
AcDbArc
50
270.000000000000
51
360.000000000000
0
LINE
5
9ef
100
AcDbEntity
8
0-0
6
CONTINUOUS
62
7
100
AcDbLine
10
301.000000000000
20
-0.000000000000
30
0.0
11
311.100000000000
21
-0.000000000000
31
0.0
0
ARC
5
9f0
100
AcDbEntity
8
0-0
6
CONTINUOUS
62
7
100
AcDbCircle
10
318.900000000000
20
0.300000000000
30
0.0
40
0.300000000000
100
AcDbArc
50
180.000000000000
51
270.000000000000
0
LINE
5
9f1
100
AcDbEntity
8
0-0
6
CONTINUOUS
62
7
100
AcDbLine
10
328.321522249264
20
13.499996408103
30
0.0
11
328.282676969476
21
13.499996408103
31
0.0
0
LINE
5
9f2
100
AcDbEntity
8
0-0
6
CONTINUOUS
62
7
100
AcDbLine
10
328.321522249264
20
11.499996408103
30
0.0
11
328.282676969476
21
11.499996408103
31
0.0
0
ARC
5
9f3
100
AcDbEntity
8
0-0
6
CONTINUOUS
62
7
100
AcDbCircle
10
328.321522249264
20
11.599996408103
30
0.0
40
0.100000000000
100
AcDbArc
50
270.000000000000
51
350.033233699753
0
ARC
5
9f4
100
AcDbEntity
8
0-0
6
CONTINUOUS
62
7
100
AcDbCircle
10
328.282676969476
20
13.699996408102
30
0.0
40
0.200000000000
100
AcDbArc
50
195.159752800167
51
270.000000000000
0
ARC
5
9f5
100
AcDbEntity
8
0-0
6
CONTINUOUS
62
7
100
AcDbCircle
10
328.282676969476
20
11.299996408103
30
0.0
40
0.200000000000
100
AcDbArc
50
90.000000000000
51
165.011804376660
0
ARC
5
9f6
100
AcDbEntity
8
0-0
6
CONTINUOUS
62
7
100
AcDbCircle
10
328.321522249264
20
13.399996408103
30
0.0
40
0.100000000000
100
AcDbArc
50
9.966766300247
51
90.000000000000
0
ARC
5
9f7
100
AcDbEntity
8
0-0
6
CONTINUOUS
62
7
100
AcDbCircle
10
323.199999038343
20
12.499996408103
30
0.0
40
5.300000000000
100
AcDbArc
50
350.033233699755
51
369.966766300245
0
ARC
5
9f8
100
AcDbEntity
8
0-0
6
CONTINUOUS
62
7
100
AcDbCircle
10
322.680000000000
20
12.800000000000
30
0.0
40
5.600000000000
100
AcDbArc
50
318.671341353657
51
345.011728785156
0
ARC
5
9f9
100
AcDbEntity
8
0-0
6
CONTINUOUS
62
7
100
AcDbCircle
10
307.320000000000
20
12.800000000000
30
0.0
40
5.600000000000
100
AcDbArc
50
194.994327074854
51
221.328658646343
0
ARC
5
9fa
100
AcDbEntity
8
0-0
6
CONTINUOUS
62
7
100
AcDbCircle
10
322.680000000000
20
12.200000000000
30
0.0
40
5.600000000000
100
AcDbArc
50
14.996869334854
51
36.385867816855
0
LINE
5
9fb
100
AcDbEntity
8
0-0
6
CONTINUOUS
62
7
100
AcDbLine
10
301.678477750736
20
13.499996408103
30
0.0
11
301.717323030524
21
13.499996408103
31
0.0
0
LINE
5
9fc
100
AcDbEntity
8
0-0
6
CONTINUOUS
62
7
100
AcDbLine
10
301.678477750736
20
11.499996408103
30
0.0
11
301.717323030524
21
11.499996408103
31
0.0
0
ARC
5
9fd
100
AcDbEntity
8
0-0
6
CONTINUOUS
62
7
100
AcDbCircle
10
301.678477750736
20
11.599996408103
30
0.0
40
0.100000000000
100
AcDbArc
50
189.966766300247
51
270.000000000000
0
ARC
5
9fe
100
AcDbEntity
8
0-0
6
CONTINUOUS
62
7
100
AcDbCircle
10
301.717323030524
20
13.699996408102
30
0.0
40
0.200000000000
100
AcDbArc
50
270.000000000000
51
344.840247199833
0
ARC
5
9ff
100
AcDbEntity
8
0-0
6
CONTINUOUS
62
7
100
AcDbCircle
10
301.717323030524
20
11.299996408103
30
0.0
40
0.200000000000
100
AcDbArc
50
14.988195623340
51
90.000000000000
0
ARC
5
a00
100
AcDbEntity
8
0-0
6
CONTINUOUS
62
7
100
AcDbCircle
10
301.678477750736
20
13.399996408103
30
0.0
40
0.100000000000
100
AcDbArc
50
90.000000000000
51
170.033233699753
0
ARC
5
a01
100
AcDbEntity
8
0-0
6
CONTINUOUS
62
7
100
AcDbCircle
10
306.800000961657
20
12.499996408103
30
0.0
40
5.300000000000
100
AcDbArc
50
170.033233699755
51
189.966766300245
0
ARC
5
a02
100
AcDbEntity
8
0-0
6
CONTINUOUS
62
7
100
AcDbCircle
10
307.320000000000
20
12.200000000000
30
0.0
40
5.600000000000
100
AcDbArc
50
143.614132183145
51
165.003130665146
0
LINE
5
a03
100
AcDbEntity
8
0-1
6
CENTER
62
4
100
AcDbLine
10
15.000000000000
20
62.500000000000
30
0.0
11
-0.000000000000
21
62.500000000000
31
0.0
0
LINE
5
a04
100
AcDbEntity
8
0-1
6
CENTER
62
4
100
AcDbLine
10
7.500000000000
20
70.000000000000
30
0.0
11
7.500000000000
21
50.000000000000
31
0.0
0
LINE
5
a05
100
AcDbEntity
8
0-1
6
CENTER
62
4
100
AcDbLine
10
200.000000000000
20
62.500000000000
30
0.0
11
220.000000000000
21
62.500000000000
31
0.0
0
LINE
5
a06
100
AcDbEntity
8
0-1
6
CENTER
62
4
100
AcDbLine
10
212.500000000000
20
70.000000000000
30
0.0
11
212.500000000000
21
50.000000000000
31
0.0
0
LINE
5
a07
100
AcDbEntity
8
0-1
6
CENTER
62
4
100
AcDbLine
10
262.500000000000
20
69.909357069677
30
0.0
11
262.500000000000
21
49.909357069677
31
0.0
0
LINE
5
a08
100
AcDbEntity
8
F-F_J_ADD
6
HIDDEN
62
253
100
AcDbLine
10
1149.619304783846
20
-0.000000000000
30
0.0
11
0.000000000000
21
-0.000000000000
31
0.0
0
LINE
5
a09
100
AcDbEntity
8
F-F_J_ADD
6
HIDDEN
62
253
100
AcDbLine
10
1149.619304783846
20
50.000000000000
30
0.0
11
0.000000000000
21
50.000000000000
31
0.0
0
LINE
5
a0a
100
AcDbEntity
8
F-F_J_ADD
6
HIDDEN
62
253
100
AcDbLine
10
1149.619304783846
20
100.000000000000
30
0.0
11
-0.000000000000
21
100.000000000000
31
0.0
0
LINE
5
a0b
100
AcDbEntity
8
F-F_J_ADD
6
HIDDEN
62
253
100
AcDbLine
10
1149.619304783846
20
45.000000000000
30
0.0
11
0.000000000000
21
45.000000000000
31
0.0
0
LINE
5
a0c
100
AcDbEntity
8
F-F_J_ADD
6
HIDDEN
62
253
100
AcDbLine
10
50.000000000000
20
-5.000000000000
30
0.0
11
50.000000000000
21
100.000000000000
31
0.0
0
LINE
5
a0d
100
AcDbEntity
8
F-F_J_ADD
6
HIDDEN
62
253
100
AcDbLine
10
100.000000000000
20
-5.000000000000
30
0.0
11
100.000000000000
21
100.000000000000
31
0.0
0
LINE
5
a0e
100
AcDbEntity
8
F-F_J_ADD
6
HIDDEN
62
253
100
AcDbLine
10
200.000000000000
20
-5.000000000000
30
0.0
11
200.000000000000
21
100.000000000000
31
0.0
0
LINE
5
a0f
100
AcDbEntity
8
F-F_J_ADD
6
HIDDEN
62
253
100
AcDbLine
10
250.000000000000
20
-5.000000000000
30
0.0
11
250.000000000000
21
100.000000000000
31
0.0
0
LINE
5
a10
100
AcDbEntity
8
F-F_J_ADD
6
HIDDEN
62
253
100
AcDbLine
10
300.000000000000
20
-5.000000000000
30
0.0
11
300.000000000000
21
100.000000000000
31
0.0
0
TEXT
5
a11
100
AcDbEntity
8
0-0
62
7
370
-3
100
AcDbText
10
300.172
20
-4.340
30
0.0
40
3.618
1
F30G
41
0.405
50
0.000
100
AcDbText
0
TEXT
5
a12
100
AcDbEntity
8
0-0
62
7
370
-3
100
AcDbText
10
250.172
20
-4.340
30
0.0
40
3.618
1
F25P
41
0.369
50
0.000
100
AcDbText
0
TEXT
5
a13
100
AcDbEntity
8
0-0
62
7
370
-3
100
AcDbText
10
200.172
20
-4.340
30
0.0
40
3.618
1
F25A
41
0.374
50
0.000
100
AcDbText
0
TEXT
5
a14
100
AcDbEntity
8
0-0
62
7
370
-3
100
AcDbText
10
250.172
20
45.660
30
0.0
40
3.618
1
F205
41
0.388
50
0.000
100
AcDbText
0
TEXT
5
a15
100
AcDbEntity
8
0-0
62
7
370
-3
100
AcDbText
10
200.172
20
45.660
30
0.0
40
3.618
1
F20C
41
0.390
50
0.000
100
AcDbText
0
LINE
5
a16
100
AcDbEntity
8
F-F_J_ADD
6
HIDDEN
62
253
100
AcDbLine
10
150.000000000000
20
45.000000000000
30
0.0
11
150.000000000000
21
100.000000000000
31
0.0
0
TEXT
5
a17
100
AcDbEntity
8
0-0
62
7
370
-3
100
AcDbText
10
150.172
20
45.660
30
0.0
40
3.618
1
F154
41
0.432
50
0.000
100
AcDbText
0
TEXT
5
a18
100
AcDbEntity
8
0-0
62
7
370
-3
100
AcDbText
10
100.172
20
-4.340
30
0.0
40
3.618
1
F255
41
0.369
50
0.000
100
AcDbText
0
TEXT
5
a19
100
AcDbEntity
8
0-0
62
7
370
-3
100
AcDbText
10
50.172
20
-4.340
30
0.0
40
3.618
1
F240
41
0.397
50
0.000
100
AcDbText
0
LINE
5
a1a
100
AcDbEntity
8
F-F_J_ADD
6
HIDDEN
62
253
100
AcDbLine
10
-0.000000000000
20
-5.000000000000
30
0.0
11
-0.000000000000
21
100.000000000000
31
0.0
0
LINE
5
a1b
100
AcDbEntity
8
F-F_J_ADD
6
HIDDEN
62
253
100
AcDbLine
10
1149.619304783846
20
-5.000000000000
30
0.0
11
-0.000000000000
21
-5.000000000000
31
0.0
0
TEXT
5
a1c
100
AcDbEntity
8
0-0
62
7
370
-3
100
AcDbText
10
0.172
20
-4.340
30
0.0
40
3.618
1
F25L
41
0.371
50
0.000
100
AcDbText
0
TEXT
5
a1d
100
AcDbEntity
8
0-0
62
7
370
-3
100
AcDbText
10
0.172
20
45.660
30
0.0
40
3.618
1
F12M
41
0.414
50
0.000
100
AcDbText
0
TEXT
5
a1e
100
AcDbEntity
8
0-0
62
7
370
-3
100
AcDbText
10
50.172
20
45.660
30
0.0
40
3.618
1
F152
41
0.411
50
0.000
100
AcDbText
0
TEXT
5
a1f
100
AcDbEntity
8
0-0
62
7
370
-3
100
AcDbText
10
100.172
20
45.660
30
0.0
40
3.618
1
F153
41
0.425
50
0.000
100
AcDbText
0
ENDSEC
 0
SECTION
  2
OBJECTS
 0
DICTIONARY
  5
C
100
AcDbDictionary
  3
ACAD_GROUP
350
D
  3
ACAD_MLINESTYLE
350
E
 0
DICTIONARY
  5
D
102
{ACAD_REACTORS
102
}
100
AcDbDictionary
 0
DICTIONARY
  5
E
102
{ACAD_REACTORS
102
}
100
AcDbDictionary
  3
STANDARD
350
13
0
MLINESTYLE
  5
13
102
{ACAD_REACTORS
102
}
100
AcDbMlineStyle
  2
STANDARD
 70
    0
3

62
256
51
90.0
52
90.0
71
0
0
ACDBPLACEHOLDER
  5
14
102
{ACAD_REACTORS
102
}
0
ENDSEC
0
EOF
